  0
SECTION
  2
HEADER
  9
$ACADVER
  1
AC1015
  9
$ACADMAINTVER
 70
    20
  9
$DWGCODEPAGE
  3
ANSI_1252
  9
$INSBASE
 10
0.0
 20
0.0
 30
0.0
  9
$EXTMIN
 10
4584.059430674941
 20
2350.616676858143
 30
0.0
  9
$EXTMAX
 10
4586.750468279267
 20
2351.081676858143
 30
0.0
  9
$LIMMIN
 10
0.0
 20
0.0
  9
$LIMMAX
 10
420.0
 20
297.0
  9
$ORTHOMODE
 70
     1
  9
$REGENMODE
 70
     1
  9
$FILLMODE
 70
     1
  9
$QTEXTMODE
 70
     0
  9
$MIRRTEXT
 70
     1
  9
$LTSCALE
 40
1.0
  9
$ATTMODE
 70
     1
  9
$TEXTSIZE
 40
2.5
  9
$TRACEWID
 40
1.0
  9
$TEXTSTYLE
  7
SANINDUSA
  9
$CLAYER
  8
0
  9
$CELTYPE
  6
ByLayer
  9
$CECOLOR
 62
   256
  9
$CELTSCALE
 40
1.0
  9
$DISPSILH
 70
     0
  9
$DIMSCALE
 40
1.0
  9
$DIMASZ
 40
2.0
  9
$DIMEXO
 40
1.0
  9
$DIMDLI
 40
1.0
  9
$DIMRND
 40
0.0
  9
$DIMDLE
 40
0.0
  9
$DIMEXE
 40
1.0
  9
$DIMTP
 40
0.0
  9
$DIMTM
 40
0.0
  9
$DIMTXT
 40
2.0
  9
$DIMCEN
 40
0.0
  9
$DIMTSZ
 40
0.0
  9
$DIMTOL
 70
     0
  9
$DIMLIM
 70
     0
  9
$DIMTIH
 70
     0
  9
$DIMTOH
 70
     0
  9
$DIMSE1
 70
     0
  9
$DIMSE2
 70
     0
  9
$DIMTAD
 70
     1
  9
$DIMZIN
 70
     8
  9
$DIMBLK
  1

  9
$DIMASO
 70
     1
  9
$DIMSHO
 70
     1
  9
$DIMPOST
  1

  9
$DIMAPOST
  1

  9
$DIMALT
 70
     0
  9
$DIMALTD
 70
     3
  9
$DIMALTF
 40
0.03937007874016
  9
$DIMLFAC
 40
1.0
  9
$DIMTOFL
 70
     1
  9
$DIMTVP
 40
0.0
  9
$DIMTIX
 70
     0
  9
$DIMSOXD
 70
     0
  9
$DIMSAH
 70
     0
  9
$DIMBLK1
  1

  9
$DIMBLK2
  1

  9
$DIMSTYLE
  2
SANINDUSA
  9
$DIMCLRD
 70
   256
  9
$DIMCLRE
 70
   256
  9
$DIMCLRT
 70
   256
  9
$DIMTFAC
 40
1.0
  9
$DIMGAP
 40
1.0
  9
$DIMJUST
 70
     0
  9
$DIMSD1
 70
     0
  9
$DIMSD2
 70
     0
  9
$DIMTOLJ
 70
     0
  9
$DIMTZIN
 70
     8
  9
$DIMALTZ
 70
     0
  9
$DIMALTTZ
 70
     0
  9
$DIMUPT
 70
     0
  9
$DIMDEC
 70
     1
  9
$DIMTDEC
 70
     1
  9
$DIMALTU
 70
     2
  9
$DIMALTTD
 70
     3
  9
$DIMTXSTY
  7
SANINDUSA
  9
$DIMAUNIT
 70
     0
  9
$DIMADEC
 70
     1
  9
$DIMALTRND
 40
0.0
  9
$DIMAZIN
 70
     0
  9
$DIMDSEP
 70
    44
  9
$DIMATFIT
 70
     3
  9
$DIMFRAC
 70
     0
  9
$DIMLDRBLK
  1

  9
$DIMLUNIT
 70
     2
  9
$DIMLWD
 70
    -1
  9
$DIMLWE
 70
    -1
  9
$DIMTMOVE
 70
     0
  9
$LUNITS
 70
     2
  9
$LUPREC
 70
     4
  9
$SKETCHINC
 40
1.0
  9
$FILLETRAD
 40
0.0
  9
$AUNITS
 70
     0
  9
$AUPREC
 70
     0
  9
$MENU
  1
.
  9
$ELEVATION
 40
0.0
  9
$PELEVATION
 40
0.0
  9
$THICKNESS
 40
0.0
  9
$LIMCHECK
 70
     0
  9
$CHAMFERA
 40
10.0
  9
$CHAMFERB
 40
10.0
  9
$CHAMFERC
 40
20.0
  9
$CHAMFERD
 40
0.0
  9
$SKPOLY
 70
     0
  9
$TDCREATE
 40
2455782.403779109
  9
$TDUCREATE
 40
2455782.362112442
  9
$TDUPDATE
 40
2456111.658217223
  9
$TDUUPDATE
 40
2456111.616550555
  9
$TDINDWG
 40
0.0091306829
  9
$TDUSRTIMER
 40
0.0091306829
  9
$USRTIMER
 70
     1
  9
$ANGBASE
 50
0.0
  9
$ANGDIR
 70
     0
  9
$PDMODE
 70
     0
  9
$PDSIZE
 40
0.0
  9
$PLINEWID
 40
0.0
  9
$SPLFRAME
 70
     0
  9
$SPLINETYPE
 70
     6
  9
$SPLINESEGS
 70
     8
  9
$HANDSEED
  5
3CA4
  9
$SURFTAB1
 70
     6
  9
$SURFTAB2
 70
     6
  9
$SURFTYPE
 70
     6
  9
$SURFU
 70
     6
  9
$SURFV
 70
     6
  9
$UCSBASE
  2

  9
$UCSNAME
  2

  9
$UCSORG
 10
0.0
 20
0.0
 30
0.0
  9
$UCSXDIR
 10
1.0
 20
0.0
 30
0.0
  9
$UCSYDIR
 10
0.0
 20
1.0
 30
0.0
  9
$UCSORTHOREF
  2

  9
$UCSORTHOVIEW
 70
     0
  9
$UCSORGTOP
 10
0.0
 20
0.0
 30
0.0
  9
$UCSORGBOTTOM
 10
0.0
 20
0.0
 30
0.0
  9
$UCSORGLEFT
 10
0.0
 20
0.0
 30
0.0
  9
$UCSORGRIGHT
 10
0.0
 20
0.0
 30
0.0
  9
$UCSORGFRONT
 10
0.0
 20
0.0
 30
0.0
  9
$UCSORGBACK
 10
0.0
 20
0.0
 30
0.0
  9
$PUCSBASE
  2

  9
$PUCSNAME
  2

  9
$PUCSORG
 10
0.0
 20
0.0
 30
0.0
  9
$PUCSXDIR
 10
1.0
 20
0.0
 30
0.0
  9
$PUCSYDIR
 10
0.0
 20
1.0
 30
0.0
  9
$PUCSORTHOREF
  2

  9
$PUCSORTHOVIEW
 70
     0
  9
$PUCSORGTOP
 10
0.0
 20
0.0
 30
0.0
  9
$PUCSORGBOTTOM
 10
0.0
 20
0.0
 30
0.0
  9
$PUCSORGLEFT
 10
0.0
 20
0.0
 30
0.0
  9
$PUCSORGRIGHT
 10
0.0
 20
0.0
 30
0.0
  9
$PUCSORGFRONT
 10
0.0
 20
0.0
 30
0.0
  9
$PUCSORGBACK
 10
0.0
 20
0.0
 30
0.0
  9
$USERI1
 70
     0
  9
$USERI2
 70
     0
  9
$USERI3
 70
     0
  9
$USERI4
 70
     0
  9
$USERI5
 70
     0
  9
$USERR1
 40
0.0
  9
$USERR2
 40
0.0
  9
$USERR3
 40
0.0
  9
$USERR4
 40
0.0
  9
$USERR5
 40
0.0
  9
$WORLDVIEW
 70
     1
  9
$SHADEDGE
 70
     3
  9
$SHADEDIF
 70
    70
  9
$TILEMODE
 70
     1
  9
$MAXACTVP
 70
    64
  9
$PINSBASE
 10
0.0
 20
0.0
 30
0.0
  9
$PLIMCHECK
 70
     0
  9
$PEXTMIN
 10
1.000000000000000E+20
 20
1.000000000000000E+20
 30
1.000000000000000E+20
  9
$PEXTMAX
 10
-1.000000000000000E+20
 20
-1.000000000000000E+20
 30
-1.000000000000000E+20
  9
$PLIMMIN
 10
0.0
 20
0.0
  9
$PLIMMAX
 10
420.0
 20
297.0
  9
$UNITMODE
 70
     0
  9
$VISRETAIN
 70
     1
  9
$PLINEGEN
 70
     0
  9
$PSLTSCALE
 70
     1
  9
$TREEDEPTH
 70
  3020
  9
$CMLSTYLE
  2
Standard
  9
$CMLJUST
 70
     0
  9
$CMLSCALE
 40
20.0
  9
$PROXYGRAPHICS
 70
     1
  9
$MEASUREMENT
 70
     1
  9
$CELWEIGHT
370
    -1
  9
$ENDCAPS
280
     0
  9
$JOINSTYLE
280
     0
  9
$LWDISPLAY
290
     0
  9
$INSUNITS
 70
     4
  9
$HYPERLINKBASE
  1

  9
$STYLESHEET
  1
sanindusa.ctb
  9
$XEDIT
290
     1
  9
$CEPSNTYPE
380
     0
  9
$PSTYLEMODE
290
     1
  9
$FINGERPRINTGUID
  2
{30616B9A-28A5-4028-863A-4A29734DB217}
  9
$VERSIONGUID
  2
{D70C95EA-AB74-4483-A9B7-5F39A243F3AA}
  9
$EXTNAMES
290
     1
  9
$PSVPSCALE
 40
0.0
  9
$OLESTARTUP
290
     0
  0
ENDSEC
  0
SECTION
  2
CLASSES
  0
CLASS
  1
ACDBDICTIONARYWDFLT
  2
AcDbDictionaryWithDefault
  3
ObjectDBX Classes
 90
        0
280
     0
281
     0
  0
CLASS
  1
ACDBPLACEHOLDER
  2
AcDbPlaceHolder
  3
ObjectDBX Classes
 90
        0
280
     0
281
     0
  0
CLASS
  1
LAYOUT
  2
AcDbLayout
  3
ObjectDBX Classes
 90
        0
280
     0
281
     0
  0
CLASS
  1
DICTIONARYVAR
  2
AcDbDictionaryVar
  3
ObjectDBX Classes
 90
        0
280
     0
281
     0
  0
CLASS
  1
DIMASSOC
  2
AcDbDimAssoc
  3
"AcDbDimAssoc|Product Desc:     AcDim ARX App For Dimension|Company:          Autodesk, Inc.|WEB Address:      www.autodesk.com"
 90
    32768
280
     0
281
     0
  0
CLASS
  1
TABLESTYLE
  2
AcDbTableStyle
  3
ObjectDBX Classes
 90
     4095
280
     0
281
     0
  0
CLASS
  1
MATERIAL
  2
AcDbMaterial
  3
ObjectDBX Classes
 90
     1153
280
     0
281
     0
  0
CLASS
  1
VISUALSTYLE
  2
AcDbVisualStyle
  3
ObjectDBX Classes
 90
     4095
280
     0
281
     0
  0
CLASS
  1
SCALE
  2
AcDbScale
  3
ObjectDBX Classes
 90
     1153
280
     0
281
     0
  0
CLASS
  1
MLEADERSTYLE
  2
AcDbMLeaderStyle
  3
ACDB_MLEADERSTYLE_CLASS
 90
     4095
280
     0
281
     0
  0
CLASS
  1
SORTENTSTABLE
  2
AcDbSortentsTable
  3
ObjectDBX Classes
 90
    32768
280
     0
281
     0
  0
CLASS
  1
AEC_REFEDIT_STATUS_TRACKER
  2
AecDbRefEditStatusTracker
  3
AecArchBase60|Product Desc: Autodesk Architectural Desktop 2007 |Company: Autodesk,Inc. |WEB Address: www.autodesk.com
 90
    32897
280
     0
281
     0
  0
CLASS
  1
NPOCOLLECTION
  2
AcDbImpNonPersistentObjectsCollection
  3
ObjectDBX Classes
 90
    33921
280
     0
281
     0
  0
CLASS
  1
CELLSTYLEMAP
  2
AcDbCellStyleMap
  3
ObjectDBX Classes
 90
     1152
280
     0
281
     0
  0
CLASS
  1
SOLID_BACKGROUND
  2
AcDbSolidBackground
  3
SCENEOE
 90
    36863
280
     0
281
     0
  0
ENDSEC
  0
SECTION
  2
TABLES
  0
TABLE
  2
VPORT
  5
8
102
{ACAD_XDICTIONARY
360
3C22
102
}
330
0
100
AcDbSymbolTable
 70
     1
  0
VPORT
  5
1068
330
8
100
AcDbSymbolTableRecord
100
AcDbViewportTableRecord
  2
*Active
 70
     0
 10
0.0
 20
0.0
 11
1.0
 21
1.0
 12
4585.404949477104
 22
2350.849176858144
 13
0.0
 23
0.0
 14
10.0
 24
10.0
 15
10.0
 25
10.0
 16
0.0
 26
0.0
 36
1.0
 17
0.0
 27
0.0
 37
0.0
 40
1.64163967547643
 41
1.645464025026068
 42
50.0
 43
0.0
 44
0.0
 50
0.0
 51
0.0
 71
     0
 72
   100
 73
     1
 74
     2
 75
     0
 76
     0
 77
     0
 78
     0
281
     0
 65
     1
110
0.0
120
0.0
130
0.0
111
1.0
121
0.0
131
0.0
112
0.0
122
1.0
132
0.0
 79
     0
146
0.0
  0
ENDTAB
  0
TABLE
  2
LTYPE
  5
5
330
0
100
AcDbSymbolTable
 70
     5
  0
LTYPE
  5
14
330
5
100
AcDbSymbolTableRecord
100
AcDbLinetypeTableRecord
  2
ByBlock
 70
     0
  3

 72
    65
 73
     0
 40
0.0
  0
LTYPE
  5
15
330
5
100
AcDbSymbolTableRecord
100
AcDbLinetypeTableRecord
  2
ByLayer
 70
     0
  3

 72
    65
 73
     0
 40
0.0
  0
LTYPE
  5
16
330
5
100
AcDbSymbolTableRecord
100
AcDbLinetypeTableRecord
  2
Continuous
 70
     0
  3
Solid line
 72
    65
 73
     0
 40
0.0
  0
LTYPE
  5
2D
330
5
100
AcDbSymbolTableRecord
100
AcDbLinetypeTableRecord
  2
DASHDOT
 70
     0
  3
Dash dot __ . __ . __ . __ . __ . __ . __ . __
 72
    65
 73
     4
 40
25.4
 49
12.7
 74
     0
 49
-6.349999999999999
 74
     0
 49
0.0
 74
     0
 49
-6.349999999999999
 74
     0
  0
LTYPE
  5
2E
330
5
100
AcDbSymbolTableRecord
100
AcDbLinetypeTableRecord
  2
HIDDEN
 70
     0
  3
Hidden __ __ __ __ __ __ __ __ __ __ __ __ __ _
 72
    65
 73
     2
 40
9.524999999999998
 49
6.349999999999999
 74
     0
 49
-3.174999999999999
 74
     0
  0
LTYPE
  5
C75
330
5
100
AcDbSymbolTableRecord
100
AcDbLinetypeTableRecord
  2
AM_ISO02W050
 70
     0
  3
__ __ __ __ __ __ __ __ __ __ __ __ __ __ __
 72
    65
 73
     2
 40
7.5
 49
6.0
 74
     0
 49
-1.5
 74
     0
  0
LTYPE
  5
C76
330
5
100
AcDbSymbolTableRecord
100
AcDbLinetypeTableRecord
  2
AM_ISO08W050
 70
     0
  3
____ . ____ . ____ . ____ . ____ . ____ . ____
 72
    65
 73
     4
 40
18.0
 49
12.0
 74
     0
 49
-1.5
 74
     0
 49
3.0
 74
     0
 49
-1.5
 74
     0
  0
ENDTAB
  0
TABLE
  2
LAYER
  5
2
102
{ACAD_XDICTIONARY
360
1051
102
}
330
0
100
AcDbSymbolTable
 70
    17
  0
LAYER
  5
10
102
{ACAD_XDICTIONARY
360
3BB8
102
}
330
2
100
AcDbSymbolTableRecord
100
AcDbLayerTableRecord
  2
0
 70
     0
 62
     7
  6
Continuous
370
    -3
390
F
  0
LAYER
  5
2F
102
{ACAD_XDICTIONARY
360
3BBA
102
}
330
2
100
AcDbSymbolTableRecord
100
AcDbLayerTableRecord
  2
1
 70
     0
 62
     1
  6
Continuous
370
    -3
390
F
  0
LAYER
  5
30
102
{ACAD_XDICTIONARY
360
3BBC
102
}
330
2
100
AcDbSymbolTableRecord
100
AcDbLayerTableRecord
  2
2
 70
     0
 62
     2
  6
Continuous
370
    -3
390
F
  0
LAYER
  5
31
102
{ACAD_XDICTIONARY
360
3BBE
102
}
330
2
100
AcDbSymbolTableRecord
100
AcDbLayerTableRecord
  2
3
 70
     0
 62
     3
  6
Continuous
370
    -3
390
F
  0
LAYER
  5
32
102
{ACAD_XDICTIONARY
360
3BC0
102
}
330
2
100
AcDbSymbolTableRecord
100
AcDbLayerTableRecord
  2
4
 70
     0
 62
     4
  6
Continuous
370
    -3
390
F
  0
LAYER
  5
33
102
{ACAD_XDICTIONARY
360
3BC2
102
}
330
2
100
AcDbSymbolTableRecord
100
AcDbLayerTableRecord
  2
5
 70
     0
 62
     5
  6
Continuous
370
    -3
390
F
  0
LAYER
  5
34
102
{ACAD_XDICTIONARY
360
3BC4
102
}
330
2
100
AcDbSymbolTableRecord
100
AcDbLayerTableRecord
  2
6
 70
     0
 62
     6
  6
Continuous
370
    -3
390
F
  0
LAYER
  5
35
102
{ACAD_XDICTIONARY
360
3BC6
102
}
330
2
100
AcDbSymbolTableRecord
100
AcDbLayerTableRecord
  2
7
 70
     0
 62
     7
  6
Continuous
370
    -3
390
F
  0
LAYER
  5
36
102
{ACAD_XDICTIONARY
360
3BC8
102
}
330
2
100
AcDbSymbolTableRecord
100
AcDbLayerTableRecord
  2
cen
 70
     0
 62
     7
  6
DASHDOT
370
    -3
390
F
  0
LAYER
  5
37
102
{ACAD_XDICTIONARY
360
3BCA
102
}
330
2
100
AcDbSymbolTableRecord
100
AcDbLayerTableRecord
  2
hid
 70
     0
 62
     7
  6
HIDDEN
370
    -3
390
F
  0
LAYER
  5
5D6
102
{ACAD_XDICTIONARY
360
3BCC
102
}
330
2
100
AcDbSymbolTableRecord
100
AcDbLayerTableRecord
  2
hatch
 70
     0
 62
     9
  6
Continuous
370
    -3
390
F
  0
LAYER
  5
8AF
102
{ACAD_XDICTIONARY
360
3BCE
102
}
330
2
100
AcDbSymbolTableRecord
100
AcDbLayerTableRecord
  2
9
 70
     0
 62
     9
  6
Continuous
370
    -3
390
F
  0
LAYER
  5
8F8
102
{ACAD_XDICTIONARY
360
3BD0
102
}
330
2
100
AcDbSymbolTableRecord
100
AcDbLayerTableRecord
  2
leg fin
 70
     0
 62
     9
  6
Continuous
370
    -3
390
F
  0
LAYER
  5
91D
102
{ACAD_XDICTIONARY
360
3BD2
102
}
330
2
100
AcDbSymbolTableRecord
100
AcDbLayerTableRecord
  2
cotas
 70
     0
 62
     1
  6
Continuous
370
    -3
390
F
  0
LAYER
  5
92F
330
2
100
AcDbSymbolTableRecord
100
AcDbLayerTableRecord
  2
Defpoints
 70
     0
 62
     7
  6
Continuous
290
     0
370
    -3
390
F
  0
LAYER
  5
C7B
102
{ACAD_XDICTIONARY
360
3BD4
102
}
330
2
100
AcDbSymbolTableRecord
100
AcDbLayerTableRecord
  2
SANINDUSA
 70
     0
 62
     3
  6
Continuous
370
    -3
390
F
  0
LAYER
  5
1060
102
{ACAD_XDICTIONARY
360
3BD6
102
}
330
2
100
AcDbSymbolTableRecord
100
AcDbLayerTableRecord
  2
hid1
 70
     0
 62
     9
  6
HIDDEN
370
    -3
390
F
1001
AcAecLayerStandard
1000

1000

  0
ENDTAB
  0
TABLE
  2
STYLE
  5
3
330
0
100
AcDbSymbolTable
 70
     4
  0
STYLE
  5
11
330
3
100
AcDbSymbolTableRecord
100
AcDbTextStyleTableRecord
  2
Standard
 70
     0
 40
0.0
 41
1.0
 50
0.0
 71
     0
 42
2.5
  3
Avgardn.ttf
  4

1001
ACAD
1000
AvantGarde Bk BT
1071
       34
  0
STYLE
  5
2C
330
3
100
AcDbSymbolTableRecord
100
AcDbTextStyleTableRecord
  2

 70
     1
 40
0.0
 41
1.0
 50
0.0
 71
     0
 42
2.5
  3
ltypeshp.shx
  4

  0
STYLE
  5
91F
330
3
100
AcDbSymbolTableRecord
100
AcDbTextStyleTableRecord
  2
SANINDUSA
 70
     0
 40
0.0
 41
1.0
 50
0.0
 71
     0
 42
2.5
  3
verdana.TTF
  4

1001
ACAD
1000
Verdana
1071
       34
  0
STYLE
  5
C7C
330
3
100
AcDbSymbolTableRecord
100
AcDbTextStyleTableRecord
  2
futura
 70
     0
 40
0.0
 41
1.0
 50
0.0
 71
     0
 42
2.5
  3
ZURCHN.TTF
  4

1001
ACAD
1000
Zurich BT
1071
       34
  0
ENDTAB
  0
TABLE
  2
VIEW
  5
6
330
0
100
AcDbSymbolTable
 70
     0
  0
ENDTAB
  0
TABLE
  2
UCS
  5
7
330
0
100
AcDbSymbolTable
 70
     0
  0
ENDTAB
  0
TABLE
  2
APPID
  5
9
330
0
100
AcDbSymbolTable
 70
    15
  0
APPID
  5
12
330
9
100
AcDbSymbolTableRecord
100
AcDbRegAppTableRecord
  2
ACAD
 70
     0
  0
APPID
  5
3A
330
9
100
AcDbSymbolTableRecord
100
AcDbRegAppTableRecord
  2
DCO15
 70
     0
  0
APPID
  5
EEE
330
9
100
AcDbSymbolTableRecord
100
AcDbRegAppTableRecord
  2
ACAD_DSTYLE_DIMTEXT_FILL
 70
     0
  0
APPID
  5
EEF
330
9
100
AcDbSymbolTableRecord
100
AcDbRegAppTableRecord
  2
ACAD_DSTYLE_DIMEXT_LENGTH
 70
     0
  0
APPID
  5
EF0
330
9
100
AcDbSymbolTableRecord
100
AcDbRegAppTableRecord
  2
ACAD_DSTYLE_DIMEXT_ENABLED
 70
     0
  0
APPID
  5
EF1
330
9
100
AcDbSymbolTableRecord
100
AcDbRegAppTableRecord
  2
ACAD_DSTYLE_DIM_LINETYPE
 70
     0
  0
APPID
  5
EF2
330
9
100
AcDbSymbolTableRecord
100
AcDbRegAppTableRecord
  2
ACAD_DSTYLE_DIM_EXT1_LINETYPE
 70
     0
  0
APPID
  5
EF3
330
9
100
AcDbSymbolTableRecord
100
AcDbRegAppTableRecord
  2
ACAD_DSTYLE_DIM_EXT2_LINETYPE
 70
     0
  0
APPID
  5
FAF
330
9
100
AcDbSymbolTableRecord
100
AcDbRegAppTableRecord
  2
ACAD_DSTYLE_DIMJOGGED_JOGANGLE_SYMBOL
 70
     0
  0
APPID
  5
1013
330
9
100
AcDbSymbolTableRecord
100
AcDbRegAppTableRecord
  2
ACAD_DSTYLE_DIMARC_LENGTH_SYMBOL
 70
     0
  0
APPID
  5
1061
330
9
100
AcDbSymbolTableRecord
100
AcDbRegAppTableRecord
  2
AcAecLayerStandard
 70
     0
  0
APPID
  5
119F
330
9
100
AcDbSymbolTableRecord
100
AcDbRegAppTableRecord
  2
ACAD_DSTYLE_DIMJAG
 70
     0
  0
APPID
  5
11A0
330
9
100
AcDbSymbolTableRecord
100
AcDbRegAppTableRecord
  2
ACAD_DSTYLE_DIMTALN
 70
     0
  0
APPID
  5
11A1
330
9
100
AcDbSymbolTableRecord
100
AcDbRegAppTableRecord
  2
ACAD_DSTYLE_DIMRADIAL_EXTENSION
 70
     0
  0
APPID
  5
3C54
330
9
100
AcDbSymbolTableRecord
100
AcDbRegAppTableRecord
  2
ACAD_MLEADERVER
 70
     0
  0
ENDTAB
  0
TABLE
  2
DIMSTYLE
  5
A
330
0
100
AcDbSymbolTable
 70
     3
100
AcDbDimStyleTable
 71
     1
340
921
  0
DIMSTYLE
105
45
330
A
100
AcDbSymbolTableRecord
100
AcDbDimStyleTableRecord
  2
STANDARD
 70
     0
289
     0
340
11
  0
DIMSTYLE
105
921
330
A
100
AcDbSymbolTableRecord
100
AcDbDimStyleTableRecord
  2
SANINDUSA
 70
     0
 41
2.0
 42
1.0
 43
1.0
 44
1.0
 73
     0
 74
     0
 77
     1
 78
     8
140
2.0
141
0.0
143
0.03937007874016
147
1.0
171
     3
172
     1
176
   256
177
   256
178
   256
179
     1
271
     1
272
     1
274
     3
278
    44
283
     0
284
     8
340
91F
371
    -1
372
    -1
1001
ACAD_DSTYLE_DIMJOGGED_JOGANGLE_SYMBOL
1070
   384
1040
1.570796326794896
  0
DIMSTYLE
105
C7D
330
A
100
AcDbSymbolTableRecord
100
AcDbDimStyleTableRecord
  2
AM_ISO
 70
     0
  4
"
 41
2.5
 42
1.0
 43
10.0
 44
1.0
 47
0.1
 48
0.1
 73
     0
 74
     0
 77
     1
 78
     8
 79
     2
140
3.5
141
0.0
143
0.0393701
146
0.71
147
1.5
172
     1
176
   256
177
   256
178
     2
271
     2
272
     3
274
     4
283
     0
284
     8
340
11
371
    -1
372
    -1
  0
ENDTAB
  0
TABLE
  2
BLOCK_RECORD
  5
1
330
0
100
AcDbSymbolTable
 70
    47
  0
BLOCK_RECORD
  5
1F
330
1
100
AcDbSymbolTableRecord
100
AcDbBlockTableRecord
  2
*Model_Space
340
22
  0
BLOCK_RECORD
  5
1B
330
1
100
AcDbSymbolTableRecord
100
AcDbBlockTableRecord
  2
*Paper_Space
340
1E
  0
BLOCK_RECORD
  5
23
330
1
100
AcDbSymbolTableRecord
100
AcDbBlockTableRecord
  2
*Paper_Space0
340
26
  0
BLOCK_RECORD
  5
919
330
1
100
AcDbSymbolTableRecord
100
AcDbBlockTableRecord
  2
_DotSmall
340
0
  0
BLOCK_RECORD
  5
922
330
1
100
AcDbSymbolTableRecord
100
AcDbBlockTableRecord
  2
base para cotas
340
0
310
2800000020000000200000000100080000000000000400000000000000000000000000000000000000000000000080000080000000808000800000008000800080800000C0C0C000C0DCC000F0CAA6000020400000206000002080000020A0000020C0000020E00000400000004020000040400000406000004080000040A0
310
000040C0000040E00000600000006020000060400000606000006080000060A0000060C0000060E00000800000008020000080400000806000008080000080A0000080C0000080E00000A0000000A0200000A0400000A0600000A0800000A0A00000A0C00000A0E00000C0000000C0200000C0400000C0600000C0800000C0
310
A00000C0C00000C0E00000E0000000E0200000E0400000E0600000E0800000E0A00000E0C00000E0E00040000000400020004000400040006000400080004000A0004000C0004000E00040200000402020004020400040206000402080004020A0004020C0004020E000404000004040200040404000404060004040800040
310
40A0004040C0004040E00040600000406020004060400040606000406080004060A0004060C0004060E00040800000408020004080400040806000408080004080A0004080C0004080E00040A0000040A0200040A0400040A0600040A0800040A0A00040A0C00040A0E00040C0000040C0200040C0400040C0600040C08000
310
40C0A00040C0C00040C0E00040E0000040E0200040E0400040E0600040E0800040E0A00040E0C00040E0E00080000000800020008000400080006000800080008000A0008000C0008000E00080200000802020008020400080206000802080008020A0008020C0008020E00080400000804020008040400080406000804080
310
008040A0008040C0008040E00080600000806020008060400080606000806080008060A0008060C0008060E00080800000808020008080400080806000808080008080A0008080C0008080E00080A0000080A0200080A0400080A0600080A0800080A0A00080A0C00080A0E00080C0000080C0200080C0400080C0600080C0
310
800080C0A00080C0C00080C0E00080E0000080E0200080E0400080E0600080E0800080E0A00080E0C00080E0E000C0000000C0002000C0004000C0006000C0008000C000A000C000C000C000E000C0200000C0202000C0204000C0206000C0208000C020A000C020C000C020E000C0400000C0402000C0404000C0406000C0
310
408000C040A000C040C000C040E000C0600000C0602000C0604000C0606000C0608000C060A000C060C000C060E000C0800000C0802000C0804000C0806000C0808000C080A000C080C000C080E000C0A00000C0A02000C0A04000C0A06000C0A08000C0A0A000C0A0C000C0A0E000C0C00000C0C02000C0C04000C0C06000
310
C0C08000C0C0A000F0FBFF00A4A0A000808080000000FF0000FF000000FFFF00FF000000FF00FF00FFFF0000FFFFFF00A4A4A4A4A4A4A4A4A4A4A4A4A4A4A4A4A4A4A4A4A4A4A4A4A4A4A4A4A4A4A4A4A4A4A4A4A4A4A4A4A4A4A4A4A4A4A4A4A4A4A4A4A4A4A4A4A4A4A4A4A4A4A4A4A4A4A4A4A4A4A4A4A4A4A4A4A4A4A4
310
A4A4A4A4A4A4A4A4A4A4A4A4A4A4A4A4A4A4A4A4A4A4A4A4A4A4A4A4A4A4A4A4A4A4A4A4A4A4A4A4A4A4A4A4A4A4A4A4A4A4A4A4A4A4A4A4A4A4A4A4A4A4A4A4A4A4A4A4A4A4A4A4A4A4A4A4A4A4A4A4A4A4A4A4A4A4A4A4A4A4A4A4A4A4A4A4A4A4A4A4A4A4A4A4A4A4A4A4A4A4A4A4A4A4A4A4A4A4A4A4A4A4A4A4A4A4A4
310
A4A4A4A4A4A4A4A4A4A4A4A4A4A4A4A4A4A4A4A4A4A4A4A4A4A4A4A4A4A4A4A4A4A4A4A4A4A4A4A4A4A4A4A4A4A4A4A4A4A4A4A4A4A4A4A4A4A4A4A4A4A4A4A4A4A4A4A4A4A4A4A4A4A4A4A4A4A4A4A4A4A4A4A4A4A4A4A4A4A4A4A4A4A4A4A4A4A4A4A4A4A4A4A4A4A4A4A4A4A4A4A4A4A4A4A4A4A4A4A4A4A4A4A4A4A4A4
310
A4A4A4A4A4A4A4A4A4A4A4A4A4A4A4A4A4A4A4A4A4A4A4A4A4A4A4A4A4A4A4A4A4A4A4A4A4A4A4A4A4A4A4A4A4A4A4A4A4A4A4A4A4A4A4A4A4A4A4A4A4A4A4A4A4A4A4A4A4A4A4A4A4A4A4A4A4A4A4A4A4A4A4A4A4A4A4A4A4A4A4A4A4A4A4A4A4A4A4A4A4A4A4A4A4A4A4A4A4A4A4A4A4A4A4A4F9F9F9F9F9F9F9F9F9F9F9
310
F9F9F9F9F9F9F9F9F9F9F9F9F9F9F9F9F9F9F9A4A4F9F9F9F9F9F9F9F9F9F9F9F9F9F9F9F9F9F9F9F9F9F9F9F9F9F9F9F9F9F9A4A4F9F9F9F9F9F9F9F9F9F9F9F9F9F9F9F9F9F9F9F9F9F9F9F9F9F9F9F9F9F9A4A4F9A4A4A4A4A4A4A4A4A4A4A4A4A4A4A4A4A4A4A4A4A4A4A4A4A4A4A4A4F9A4A4A4A4A4A4A4A4A4A4A4A4
310
A4A4A4A4A4A4A4A4A4A4A4A4A4A4A4A4A4A4A4A4A4A4A4A4A4A4A4A4A4A4A4A4A4A4A4A4A4A4A4A4A4A4A4A4A4A4A4A4A4A4A4A4A4A4A4A4A4A4A4A4A4A4A4A4A4A4A4A4A4A4A4A4A4A4A4A4A4A4A4A4A4A4A4A4A4A4A4A4A4A4A4A4A4A4A4A4A4A4A4A4A4A4A4A4A4A4A4A4A4A4A4A4A4A4A4A4A4A4A4A4A4A4A4A4A4A4A4
310
A4A4A4A4A4A4A4A4A4A4A4A4A4A4A4A4A4A4A4A4A4A4A4A4A4A4A4A4A4A4A4A4A4A4A4A4A4A4A4A4A4A4A4A4A4A4A4A4A4A4A4A4A4A4A4A4A4A4A4A4A4A4A4A4A4A4A4A4A4A4A4A4A4A4A4A4A4A4A4A4A4A4A4A4A4A4A4A4A4A4A4A4A4A4A4A4A4A4A4A4A4A4A4A4A4A4A4A4A4A4A4A4A4A4A4A4A4A4A4A4A4A4A4A4A4A4A4
310
A4A4A4A4A4A4A4A4A4A4A4A4A4A4A4A4A4A4A4A4A4A4A4A4A4A4A4A4A4A4A4A4A4A4A4A4A4A4A4A4A4A4A4A4A4A4A4A4A4A4A4A4A4A4A4A4A4A4A4A4A4A4A4A4A4A4A4A4A4A4A4A4A4A4A4A4A4A4A4A4A4A4A4A4A4A4A4A4A4A4A4A4A4A4A4A4A4A4A4A4A4A4A4A4A4A4A4A4A4A4A4A4A4A4A4A4A4A4A4A4A4A4A4A4A4A4A4
310
A4A4A4A4A4A4A4A4A4A4A4A4A4A4A4A4A4A4A4A4A4A4A4A4A4A4A4A4A4A4A4A4A4A4A4A4A4A4A4A4A4A4A4A4A4A4A4A4A4A4A4A4A4A4A4A4
1001
ACAD
1000
DesignCenter Data
1002
{
1070
     1
1070
     4
1002
}
  0
BLOCK_RECORD
  5
AA8
330
1
100
AcDbSymbolTableRecord
100
AcDbBlockTableRecord
  2
_CLOSED
340
0
  0
BLOCK_RECORD
  5
B79
330
1
100
AcDbSymbolTableRecord
100
AcDbBlockTableRecord
  2
nota revisoes
340
0
1001
ACAD
1000
DesignCenter Data
1002
{
1070
     1
1070
     4
1002
}
  0
BLOCK_RECORD
  5
B8E
330
1
100
AcDbSymbolTableRecord
100
AcDbBlockTableRecord
  2
a3l
340
0
1001
ACAD
1000
DesignCenter Data
1002
{
1070
     1
1070
     4
1002
}
  0
BLOCK_RECORD
  5
B9E
330
1
100
AcDbSymbolTableRecord
100
AcDbBlockTableRecord
  2
legenda desenvolvimento
340
0
1001
ACAD
1000
DesignCenter Data
1002
{
1070
     1
1070
     4
1002
}
  0
ENDTAB
  0
ENDSEC
  0
SECTION
  2
BLOCKS
  0
BLOCK
  5
20
330
1F
100
AcDbEntity
  8
0
100
AcDbBlockBegin
  2
*Model_Space
 70
     0
 10
0.0
 20
0.0
 30
0.0
  3
*Model_Space
  1

  0
ENDBLK
  5
21
330
1F
100
AcDbEntity
  8
0
100
AcDbBlockEnd
  0
BLOCK
  5
1C
330
1B
100
AcDbEntity
 67
     1
  8
0
100
AcDbBlockBegin
  2
*Paper_Space
 70
     0
 10
0.0
 20
0.0
 30
0.0
  3
*Paper_Space
  1

  0
ENDBLK
  5
1D
330
1B
100
AcDbEntity
 67
     1
  8
0
100
AcDbBlockEnd
  0
BLOCK
  5
24
330
23
100
AcDbEntity
 67
     1
  8
0
100
AcDbBlockBegin
  2
*Paper_Space0
 70
     0
 10
0.0
 20
0.0
 30
0.0
  3
*Paper_Space0
  1

  0
ENDBLK
  5
25
330
23
100
AcDbEntity
 67
     1
  8
0
100
AcDbBlockEnd
  0
BLOCK
  5
91B
330
919
100
AcDbEntity
  8
0
100
AcDbBlockBegin
  2
_DotSmall
 70
     0
 10
0.0
 20
0.0
 30
0.0
  3
_DotSmall
  1

  0
LWPOLYLINE
  5
91A
330
919
100
AcDbEntity
  8
0
  6
ByBlock
 62
     0
100
AcDbPolyline
 90
        2
 70
     1
 43
0.5
 10
-0.0625
 20
0.0
 42
1.0
 10
0.0625
 20
0.0
 42
1.0
  0
ENDBLK
  5
91C
330
919
100
AcDbEntity
  8
0
100
AcDbBlockEnd
  0
BLOCK
  5
92A
330
922
100
AcDbEntity
  8
0
100
AcDbBlockBegin
  2
base para cotas
 70
     0
 10
0.0
 20
0.0
 30
0.0
  3
base para cotas
  1

  0
LINE
  5
B36
330
922
100
AcDbEntity
  8
cotas
100
AcDbLine
 10
0.0
 20
-30.0
 30
0.0
 11
327.1260136525398
 21
-30.0
 31
0.0
  0
LINE
  5
B37
330
922
100
AcDbEntity
  8
cotas
100
AcDbLine
 10
0.0
 20
-25.0
 30
0.0
 11
327.1260136525398
 21
-25.0
 31
0.0
  0
LINE
  5
B38
330
922
100
AcDbEntity
  8
cotas
100
AcDbLine
 10
0.0
 20
-20.0
 30
0.0
 11
327.1260136525398
 21
-20.0
 31
0.0
  0
LINE
  5
B39
330
922
100
AcDbEntity
  8
cotas
100
AcDbLine
 10
0.0
 20
-15.0
 30
0.0
 11
327.1260136525398
 21
-15.0
 31
0.0
  0
LINE
  5
B3A
330
922
100
AcDbEntity
  8
cotas
100
AcDbLine
 10
0.0
 20
-10.0
 30
0.0
 11
327.1260136525398
 21
-10.0
 31
0.0
  0
LINE
  5
B3B
330
922
100
AcDbEntity
  8
cotas
100
AcDbLine
 10
0.0
 20
0.0
 30
0.0
 11
0.0
 21
-30.0
 31
0.0
  0
LINE
  5
B3C
330
922
100
AcDbEntity
  8
cotas
100
AcDbLine
 10
327.1260136525398
 20
-30.0
 30
0.0
 11
327.1260136525398
 21
0.0
 31
0.0
  0
ENDBLK
  5
92B
330
922
100
AcDbEntity
  8
0
100
AcDbBlockEnd
  0
BLOCK
  5
AAD
330
AA8
100
AcDbEntity
  8
0
100
AcDbBlockBegin
  2
_CLOSED
 70
     0
 10
0.0
 20
0.0
 30
0.0
  3
_CLOSED
  1

  0
LINE
  5
AA9
330
AA8
100
AcDbEntity
  8
0
100
AcDbLine
 10
-1.0
 20
0.166667
 30
0.0
 11
0.0
 21
0.0
 31
0.0
  0
LINE
  5
AAA
330
AA8
100
AcDbEntity
  8
0
100
AcDbLine
 10
0.0
 20
0.0
 30
0.0
 11
-1.0
 21
-0.166667
 31
0.0
  0
LINE
  5
AAB
330
AA8
100
AcDbEntity
  8
0
100
AcDbLine
 10
-1.0
 20
0.166667
 30
0.0
 11
-1.0
 21
-0.166667
 31
0.0
  0
LINE
  5
AAC
330
AA8
100
AcDbEntity
  8
0
100
AcDbLine
 10
0.0
 20
0.0
 30
0.0
 11
-1.0
 21
0.0
 31
0.0
  0
ENDBLK
  5
AAE
330
AA8
100
AcDbEntity
  8
0
100
AcDbBlockEnd
  0
BLOCK
  5
B7C
330
B79
100
AcDbEntity
  8
0
100
AcDbBlockBegin
  2
nota revisoes
 70
     0
 10
0.0
 20
0.0
 30
0.0
  3
nota revisoes
  1

  0
CIRCLE
  5
B7A
330
B79
100
AcDbEntity
  8
4
100
AcDbCircle
 10
0.0
 20
0.0
 30
0.0
 40
13.69426055101189
  0
TEXT
  5
B7B
330
B79
100
AcDbEntity
  8
4
100
AcDbText
 10
-5.496248358154345
 20
-5.354545554066362
 30
0.0
 40
12.0
  1
1
  7
SANINDUSA
 72
     1
 11
-0.249774214433728
 21
-5.354545554066362
 31
0.0
100
AcDbText
  0
ENDBLK
  5
B7D
330
B79
100
AcDbEntity
  8
0
100
AcDbBlockEnd
  0
BLOCK
  5
B9C
330
B8E
100
AcDbEntity
  8
0
100
AcDbBlockBegin
  2
a3l
 70
     0
 10
0.0
 20
0.0
 30
0.0
  3
a3l
  1

  0
LINE
  5
B8F
330
B8E
100
AcDbEntity
  8
1
100
AcDbLine
 10
-364.2925296599447
 20
-362.1188951399395
 30
0.0
 11
-364.2925296599447
 21
-65.11889513993946
 31
0.0
  0
LINE
  5
B90
330
B8E
100
AcDbEntity
  8
4
100
AcDbLine
 10
-369.2925296599447
 20
-357.1188951399395
 30
0.0
 11
-369.2925296599447
 21
-70.11889513993946
 31
0.0
  0
LINE
  5
B91
330
B8E
100
AcDbEntity
  8
1
100
AcDbLine
 10
-784.2925296599446
 20
-65.11889513993946
 30
0.0
 11
-784.2925296599446
 21
-362.1188951399395
 31
0.0
  0
LINE
  5
B92
330
B8E
100
AcDbEntity
  8
4
100
AcDbLine
 10
-759.2925296599446
 20
-357.1188951399395
 30
0.0
 11
-759.2925296599446
 21
-70.11889513993946
 31
0.0
  0
LINE
  5
B93
330
B8E
100
AcDbEntity
  8
1
100
AcDbLine
 10
-784.2925296599446
 20
-362.1188951399395
 30
0.0
 11
-364.2925296599447
 21
-362.1188951399395
 31
0.0
  0
LINE
  5
B94
330
B8E
100
AcDbEntity
  8
4
100
AcDbLine
 10
-759.2925296599446
 20
-357.1188951399395
 30
0.0
 11
-369.2925296599447
 21
-357.1188951399395
 31
0.0
  0
LINE
  5
B95
330
B8E
100
AcDbEntity
  8
1
100
AcDbLine
 10
-654.2925296599446
 20
-357.1188951399395
 30
0.0
 11
-654.2925296599446
 21
-362.1188951399395
 31
0.0
  0
LINE
  5
B96
330
B8E
100
AcDbEntity
  8
1
100
AcDbLine
 10
-364.2925296599447
 20
-65.11889513993946
 30
0.0
 11
-784.2925296599446
 21
-65.11889513993946
 31
0.0
  0
LINE
  5
B97
330
B8E
100
AcDbEntity
  8
4
100
AcDbLine
 10
-369.2925296599447
 20
-70.11889513993946
 30
0.0
 11
-759.2925296599446
 21
-70.11889513993946
 31
0.0
  0
LINE
  5
B98
330
B8E
100
AcDbEntity
  8
1
100
AcDbLine
 10
-654.2925296599446
 20
-65.11889513993946
 30
0.0
 11
-654.2925296599446
 21
-70.11889513993946
 31
0.0
  0
LINE
  5
B99
330
B8E
100
AcDbEntity
  8
1
100
AcDbLine
 10
-549.2925296599446
 20
-70.11889513993946
 30
0.0
 11
-549.2925296599446
 21
-65.11889513993946
 31
0.0
  0
LINE
  5
B9A
330
B8E
100
AcDbEntity
  8
1
100
AcDbLine
 10
-369.2925296599447
 20
-65.11889513993946
 30
0.0
 11
-364.2925296599447
 21
-65.11889513993946
 31
0.0
  0
LINE
  5
B9B
330
B8E
100
AcDbEntity
  8
1
100
AcDbLine
 10
-549.2925296599446
 20
-357.1188951399395
 30
0.0
 11
-549.2925296599446
 21
-362.1188951399395
 31
0.0
  0
ENDBLK
  5
B9D
330
B8E
100
AcDbEntity
  8
0
100
AcDbBlockEnd
  0
BLOCK
  5
C13
330
B9E
100
AcDbEntity
  8
0
100
AcDbBlockBegin
  2
legenda desenvolvimento
 70
     2
 10
0.0
 20
0.0
 30
0.0
  3
legenda desenvolvimento
  1

  0
ATTDEF
  5
B9F
330
B9E
100
AcDbEntity
  8
1
100
AcDbText
 10
-108.606245802552
 20
55.5
 30
0.0
 40
4.0
  1
XXXXXXXXXXXXXX
 41
0.8
  7
SANINDUSA
 72
     4
 11
-87.5
 21
57.5
 31
0.0
100
AcDbAttributeDefinition
  3
Nome do Produto:
  2
PRODUTO
 70
     0
  0
ATTDEF
  5
BA0
330
B9E
100
AcDbEntity
  8
1
100
AcDbText
 10
-97.9997966101695
 20
41.25
 30
0.0
 40
3.0
  1
XXXXXXXXX
 41
0.8
  7
futura
 72
     4
 11
-87.5
 21
42.75
 31
0.0
100
AcDbAttributeDefinition
  3
Nome da Peça:
  2
PECA
 70
     0
  0
ATTDEF
  5
BA1
330
B9E
100
AcDbEntity
  8
1
100
AcDbText
 10
-133.4422431161853
 20
21.11745296763252
 30
0.0
 40
2.5
  1
X
 41
0.8
  7
SANINDUSA
 72
     4
 11
-132.5
 21
22.36745296763252
 31
0.0
100
AcDbAttributeDefinition
  3
Cod. TESTE:
  2
TESTE
 70
     0
  0
ATTDEF
  5
BA2
330
B9E
100
AcDbEntity
  8
1
100
AcDbText
 10
-124.3844862323707
 20
21.11745296763252
 30
0.0
 40
2.5
  1
XX
 41
0.8
  7
SANINDUSA
 72
     4
 11
-122.5
 21
22.36745296763252
 31
0.0
100
AcDbAttributeDefinition
  3
Cod. Ano:
  2
ANO
 70
     0
  0
ATTDEF
  5
BA3
330
B9E
100
AcDbEntity
  8
1
100
AcDbText
 10
-112.526889953052
 20
21.11745296763252
 30
0.0
 40
2.5
  1
XXX
 41
0.8
  7
SANINDUSA
 72
     4
 11
-109.700160604496
 21
22.36745296763252
 31
0.0
100
AcDbAttributeDefinition
  3
Cod. Sequência:
  2
SEQUENCIA
 70
     0
  0
ATTDEF
  5
BA4
330
B9E
100
AcDbEntity
  8
1
100
AcDbText
 10
-99.35382430979316
 20
21.11745296763252
 30
0.0
 40
2.5
  1
XX
 41
0.8
  7
SANINDUSA
 72
     4
 11
-97.46933807742244
 21
22.36745296763252
 31
0.0
100
AcDbAttributeDefinition
  3
Cod. Tipo:
  2
TIPO
 70
     0
  0
ATTDEF
  5
BA5
330
B9E
100
AcDbEntity
  8
1
100
AcDbText
 10
-87.42035911468438
 20
21.11745296763252
 30
0.0
 40
2.5
  1
XXX
 41
0.8
  7
SANINDUSA
 72
     4
 11
-84.59362976612828
 21
22.36745296763252
 31
0.0
100
AcDbAttributeDefinition
  3
Cod. Produto:
  2
PRODUTO
 70
     0
  0
ATTDEF
  5
BA6
330
B9E
100
AcDbEntity
  8
1
100
AcDbText
 10
-74.62051971917853
 20
21.11745296763252
 30
0.0
 40
2.5
  1
XXX
 41
0.8
  7
SANINDUSA
 72
     4
 11
-71.79379037062244
 21
22.36745296763252
 31
0.0
100
AcDbAttributeDefinition
  3
Cod. Peça:
  2
PECA
 70
     0
  0
ATTDEF
  5
BA7
330
B9E
100
AcDbEntity
  8
1
100
AcDbText
 10
-61.10603446650329
 20
21.11745296763252
 30
0.0
 40
2.5
  1
XX
 41
0.8
  7
SANINDUSA
 72
     4
 11
-59.22154823413257
 21
22.36745296763252
 31
0.0
100
AcDbAttributeDefinition
  3
Cod. Revisão:
  2
REV
 70
     0
  0
ATTDEF
  5
BA8
330
B9E
100
AcDbEntity
  8
1
100
AcDbText
 10
-48.43615325006194
 20
21.11745296763252
 30
0.0
 40
2.5
  1
XX
 41
0.8
  7
SANINDUSA
 72
     4
 11
-46.55166701769121
 21
22.36745296763252
 31
0.0
100
AcDbAttributeDefinition
  3
Cod. Alteração:
  2
ALT
 70
     0
  0
ATTDEF
  5
BA9
330
B9E
100
AcDbEntity
  8
1
100
AcDbText
 10
-35.19086635325722
 20
23.98875083948959
 30
0.0
 40
3.0
  1
1/XXX
 41
0.8
  7
SANINDUSA
 72
     4
 11
-30.0
 21
25.25
 31
0.0
100
AcDbAttributeDefinition
  3
Escala geral:
  2
ESCALA
 70
     0
  0
ATTDEF
  5
BAA
330
B9E
100
AcDbEntity
  8
1
100
AcDbText
 10
-15.65345869711215
 20
23.75
 30
0.0
 40
3.0
  1
XXXXX
 41
0.8
  7
SANINDUSA
 72
     4
 11
-10.0
 21
25.25
 31
0.0
100
AcDbAttributeDefinition
  3
Folha:
  2
FOLHA
 70
     0
  0
ATTDEF
  5
BAB
330
B9E
100
AcDbEntity
  8
1
100
AcDbText
 10
-178.5146998822042
 20
56.9531347542807
 30
0.0
 40
2.0
  1
xx
 41
0.8
  7
SANINDUSA
 72
     4
 11
-177.2123493113513
 21
57.70330265219877
 31
0.0
100
AcDbAttributeDefinition
  3
revisão
  2
REV.
 70
     0
  0
ATTDEF
  5
BAC
330
B9E
100
AcDbEntity
  8
1
100
AcDbText
 10
-172.7849640077129
 20
56.9531347542807
 30
0.0
 40
2.0
  1
xx
 41
0.8
  7
SANINDUSA
 72
     4
 11
-171.48261343686
 21
57.70330265219877
 31
0.0
100
AcDbAttributeDefinition
  3
alteração
  2
ALT.
 70
     0
  0
ATTDEF
  5
BAD
330
B9E
100
AcDbEntity
  8
1
100
AcDbText
 10
-168.007199951307
 20
56.70330265219877
 30
0.0
 40
2.0
  1
xx/xx/xxxx
 41
0.8
  7
SANINDUSA
 11
-168.007199951307
 21
57.70330265219877
 31
0.0
100
AcDbAttributeDefinition
  3
data
  2
DATA
 70
     0
 74
     2
  0
ATTDEF
  5
BAE
330
B9E
100
AcDbEntity
  8
1
100
AcDbText
 10
-168.5396372253371
 20
13.15916722632639
 30
0.0
 40
2.0
  1
XX/XX/XXXX
 41
0.8
  7
SANINDUSA
 72
     4
 11
-161.5099528734231
 21
14.0
 31
0.0
100
AcDbAttributeDefinition
  3
Data projecto
  2
DATA_PROJ
 70
     0
  0
ATTDEF
  5
BAF
330
B9E
100
AcDbEntity
  8
1
100
AcDbText
 10
-150.8658110728766
 20
13.24983210208193
 30
0.0
 40
2.0
  1
xxxxxxxx
 41
0.8
  7
SANINDUSA
 72
     4
 11
-145.6564087894649
 21
14.0
 31
0.0
100
AcDbAttributeDefinition
  3
nome de quem projectou
  2
NOME
 70
     0
  0
ATTDEF
  5
BB0
330
B9E
100
AcDbEntity
  8
1
100
AcDbText
 10
-168.5396372253371
 20
9.159167226326394
 30
0.0
 40
2.0
  1
XX/XX/XXXX
 41
0.8
  7
SANINDUSA
 72
     4
 11
-161.5099528734231
 21
10.0
 31
0.0
100
AcDbAttributeDefinition
  3
Data desenhou
  2
DATA_DES
 70
     0
  0
ATTDEF
  5
BB1
330
B9E
100
AcDbEntity
  8
1
100
AcDbText
 10
-151.516986358303
 20
9.249832102081933
 30
0.0
 40
2.0
  1
xxxxxxxxx
 41
0.8
  7
SANINDUSA
 72
     4
 11
-145.6564087894649
 21
10.0
 31
0.0
100
AcDbAttributeDefinition
  3
nome
  2
NOME
 70
     0
  0
ATTDEF
  5
BB2
330
B9E
100
AcDbEntity
  8
1
100
AcDbText
 10
-127.2924214135946
 20
14.1979876583216
 30
0.0
 40
2.0
  1
Vitreous China
 41
0.8
  7
SANINDUSA
 72
     4
 11
-119.231709526422
 21
15.22216495852308
 31
0.0
100
AcDbAttributeDefinition
  3
Nome do Material:
  2
MATERIAL
 70
     0
  0
ATTDEF
  5
BB3
330
B9E
100
AcDbEntity
  8
1
100
AcDbText
 10
-103.1563452122093
 20
14.38019043949261
 30
0.0
 40
2.0
  1
Branco
 41
0.8
  7
SANINDUSA
 72
     4
 11
-99.33418268702462
 21
15.35937109765245
 31
0.0
100
AcDbAttributeDefinition
  3
cor da peça
  2
COR
 70
     0
  0
ATTDEF
  5
BB4
330
B9E
100
AcDbEntity
  8
1
100
AcDbText
 10
-116.7235057085292
 20
5.975822699798522
 30
0.0
 40
2.0
  1
Vidrado
 41
0.8
  7
SANINDUSA
 72
     4
 11
-112.5
 21
7.0
 31
0.0
100
AcDbAttributeDefinition
  3
Tipo de acabamento:
  2
ACABAMENTO
 70
     0
  0
ATTDEF
  5
BB5
330
B9E
100
AcDbEntity
  8
1
100
AcDbText
 10
-79.18527869967246
 20
16.65066409850533
 30
0.0
 40
2.0
  1
XXXXXXX
 41
0.8
  7
SANINDUSA
 72
     4
 11
-73.90871724903445
 21
17.65066409850533
 31
0.0
100
AcDbAttributeDefinition
  3
Normas
  2
NORMAS
 70
     0
  0
ATTDEF
  5
BB6
330
B9E
100
AcDbEntity
  8
1
100
AcDbText
 10
-30.55312290127603
 20
14.0
 30
0.0
 40
2.0
  1
XXXXXXXXXXXXXX
 41
0.8
  7
SANINDUSA
 72
     4
 11
-20.0
 21
15.0
 31
0.0
100
AcDbAttributeDefinition
  3
Substitui o desenho:
  2
SUBSTITUI
 70
     0
  0
ATTDEF
  5
BB7
330
B9E
100
AcDbEntity
  8
1
100
AcDbText
 10
-31.30691739422431
 20
6.0
 30
0.0
 40
2.0
  1
XXXXXXXXXXXXXXX
 41
0.8
  7
SANINDUSA
 72
     4
 11
-20.0
 21
7.0
 31
0.0
100
AcDbAttributeDefinition
  3
Substituido por:
  2
SUBSTITUIDO
 70
     0
  0
ATTDEF
  5
BB8
330
B9E
100
AcDbEntity
  8
1
100
AcDbText
 10
-110.0220608548302
 20
1.478208457928303
 30
0.0
 40
2.0
  1
XXXXXXXXXXXXXXXXXXXXXXXXXXXXXXXXXX
 41
0.8
  7
SANINDUSA
 11
-110.0220608548302
 21
2.478208457928303
 31
0.0
100
AcDbAttributeDefinition
  3
Localização do desenho:
  2
LOC-DWG
 70
     0
 74
     2
  0
LINE
  5
BB9
330
B9E
100
AcDbEntity
  8
3
100
AcDbLine
 10
-135.0
 20
4.0
 30
0.0
 11
0.0000000000004547
 21
4.0
 31
0.0
  0
LINE
  5
BBA
330
B9E
100
AcDbEntity
  8
3
100
AcDbLine
 10
-90.00000000000046
 20
12.0
 30
0.0
 11
-135.0
 21
12.0
 31
0.0
  0
LINE
  5
BBB
330
B9E
100
AcDbEntity
  8
3
100
AcDbLine
 10
-135.0
 20
32.5
 30
0.0
 11
-40.0
 21
32.5
 31
0.0
  0
TEXT
  5
BBC
330
B9E
100
AcDbEntity
  8
1
100
AcDbText
 10
-134.0
 20
1.25
 30
0.0
 40
2.0
  1
Localização do des.:
 41
0.8
  7
SANINDUSA
 11
-134.0
 21
2.25
 31
0.0
100
AcDbText
 73
     2
  0
LINE
  5
BBD
330
B9E
100
AcDbEntity
  8
3
100
AcDbLine
 10
-180.0
 20
65.0
 30
0.0
 11
0.0
 21
65.0
 31
0.0
  0
LINE
  5
BBE
330
B9E
100
AcDbEntity
  8
leg fin
100
AcDbLine
 10
-40.0
 20
25.05956924886846
 30
0.0
 11
-135.0
 21
25.05956924886846
 31
0.0
  0
LINE
  5
BBF
330
B9E
100
AcDbEntity
  8
leg fin
100
AcDbLine
 10
-40.0
 20
28.5
 30
0.0
 11
-135.0
 21
28.5
 31
0.0
  0
LINE
  5
BC0
330
B9E
100
AcDbEntity
  8
3
100
AcDbLine
 10
-135.0
 20
50.0
 30
0.0
 11
-40.0
 21
50.0
 31
0.0
  0
TEXT
  5
BC1
330
B9E
100
AcDbEntity
  8
1
100
AcDbText
 10
-134.0
 20
29.75
 30
0.0
 40
2.0
  1
Desenho nº:
 41
0.8
  7
SANINDUSA
 11
-134.0
 21
30.75
 31
0.0
100
AcDbText
 73
     2
  0
TEXT
  5
BC2
330
B9E
100
AcDbEntity
  8
1
100
AcDbText
 10
-134.0
 20
9.25
 30
0.0
 40
2.0
  1
Acabamento:
 41
0.8
  7
SANINDUSA
 11
-134.0
 21
10.25
 31
0.0
100
AcDbText
 73
     2
  0
LINE
  5
BC3
330
B9E
100
AcDbEntity
  8
3
100
AcDbLine
 10
-180.0
 20
20.0
 30
0.0
 11
0.0
 21
20.0
 31
0.0
  0
LINE
  5
BC4
330
B9E
100
AcDbEntity
  8
1
100
AcDbLine
 10
-174.5810776056337
 20
55.5
 30
0.0
 11
-174.5810776056337
 21
65.0
 31
0.0
  0
LINE
  5
BC5
330
B9E
100
AcDbEntity
  8
1
100
AcDbLine
 10
-168.9210461879161
 20
55.5
 30
0.0
 11
-168.9210461879161
 21
65.0
 31
0.0
  0
LINE
  5
BC6
330
B9E
100
AcDbEntity
  8
1
100
AcDbLine
 10
-154.0988595589306
 20
55.5
 30
0.0
 11
-154.0988595589306
 21
65.0
 31
0.0
  0
LINE
  5
BC7
330
B9E
100
AcDbEntity
  8
3
100
AcDbLine
 10
-180.0
 20
65.0
 30
0.0
 11
-180.0
 21
0.0
 31
0.0
  0
LINE
  5
BC8
330
B9E
100
AcDbEntity
  8
3
100
AcDbLine
 10
-135.0
 20
0.0
 30
0.0
 11
-135.0
 21
65.0
 31
0.0
  0
TEXT
  5
BC9
330
B9E
100
AcDbEntity
  8
1
100
AcDbText
 10
-179.0
 20
9.75
 30
0.0
 40
1.5
  1
Des.
 41
0.8
  7
SANINDUSA
 11
-179.0
 21
10.5
 31
0.0
100
AcDbText
 73
     2
  0
LINE
  5
BCA
330
B9E
100
AcDbEntity
  8
1
100
AcDbLine
 10
-168.9210461879161
 20
20.0
 30
0.0
 11
-168.9210461879161
 21
0.0
 31
0.0
  0
LINE
  5
BCB
330
B9E
100
AcDbEntity
  8
1
100
AcDbLine
 10
-154.0988595589306
 20
20.0
 30
0.0
 11
-154.0988595589306
 21
0.0
 31
0.0
  0
LINE
  5
BCC
330
B9E
100
AcDbEntity
  8
1
100
AcDbLine
 10
-180.0
 20
4.0
 30
0.0
 11
-135.0
 21
4.0
 31
0.0
  0
LINE
  5
BCD
330
B9E
100
AcDbEntity
  8
1
100
AcDbLine
 10
-180.0
 20
8.0
 30
0.0
 11
-135.0
 21
8.0
 31
0.0
  0
TEXT
  5
BCE
330
B9E
100
AcDbEntity
  8
1
100
AcDbText
 10
-179.0
 20
1.73257823687436
 30
0.0
 40
1.5
  1
Aprov.
 41
0.8
  7
SANINDUSA
 11
-179.0
 21
2.48257823687436
 31
0.0
100
AcDbText
 73
     2
  0
TEXT
  5
BCF
330
B9E
100
AcDbEntity
  8
1
100
AcDbText
 10
-179.0
 20
5.75
 30
0.0
 40
1.5
  1
Ver.
 41
0.8
  7
SANINDUSA
 11
-179.0
 21
6.5
 31
0.0
100
AcDbText
 73
     2
  0
LINE
  5
BD0
330
B9E
100
AcDbEntity
  8
1
100
AcDbLine
 10
-180.0
 20
16.0
 30
0.0
 11
-135.0
 21
16.0
 31
0.0
  0
LINE
  5
BD1
330
B9E
100
AcDbEntity
  8
1
100
AcDbLine
 10
-180.0
 20
12.0
 30
0.0
 11
-135.0
 21
12.0
 31
0.0
  0
TEXT
  5
BD2
330
B9E
100
AcDbEntity
  8
1
100
AcDbText
 10
-179.0
 20
13.75
 30
0.0
 40
1.5
  1
Proj.
 41
0.8
  7
SANINDUSA
 11
-179.0
 21
14.5
 31
0.0
100
AcDbText
 73
     2
  0
TEXT
  5
BD3
330
B9E
100
AcDbEntity
  8
1
100
AcDbText
 10
-167.9210461879161
 20
17.75
 30
0.0
 40
1.5
  1
Data
 41
0.8
  7
SANINDUSA
 11
-167.9210461879161
 21
18.5
 31
0.0
100
AcDbText
 73
     2
  0
TEXT
  5
BD4
330
B9E
100
AcDbEntity
  8
1
100
AcDbText
 10
-153.0988595589306
 20
17.75
 30
0.0
 40
1.5
  1
Nome
 41
0.8
  7
SANINDUSA
 11
-153.0988595589306
 21
18.5
 31
0.0
100
AcDbText
 73
     2
  0
LINE
  5
BD5
330
B9E
100
AcDbEntity
  8
leg fin
100
AcDbLine
 10
-130.0
 20
20.0
 30
0.0
 11
-130.0
 21
28.5
 31
0.0
  0
TEXT
  5
BD6
330
B9E
100
AcDbEntity
  8
1
100
AcDbText
 10
-134.0
 20
17.25
 30
0.0
 40
2.0
  1
Material:
 41
0.8
  7
SANINDUSA
 11
-134.0
 21
18.25
 31
0.0
100
AcDbText
 73
     2
  0
TEXT
  5
BD7
330
B9E
100
AcDbEntity
  8
1
100
AcDbText
 10
-129.0
 20
26.43288406845113
 30
0.0
 40
1.5
  1
Ano:
 41
0.8
  7
SANINDUSA
 11
-129.0
 21
27.18288406845113
 31
0.0
100
AcDbText
 73
     2
  0
LINE
  5
BD8
330
B9E
100
AcDbEntity
  8
1
100
AcDbLine
 10
-180.0
 20
55.5
 30
0.0
 11
-135.0
 21
55.5
 31
0.0
  0
TEXT
  5
BD9
330
B9E
100
AcDbEntity
  8
1
100
AcDbText
 10
-179.0
 20
52.67772246885193
 30
0.0
 40
1.5
  1
descrição
 41
0.8
  7
SANINDUSA
 11
-179.0
 21
53.42772246885193
 31
0.0
100
AcDbText
 73
     2
  0
TEXT
  5
BDA
330
B9E
100
AcDbEntity
  8
1
100
AcDbText
 10
-134.0
 20
47.25
 30
0.0
 40
2.0
  1
Peça:
 41
0.8
  7
SANINDUSA
 11
-134.0
 21
48.25
 31
0.0
100
AcDbText
 73
     2
  0
LINE
  5
BDB
330
B9E
100
AcDbEntity
  8
1
100
AcDbLine
 10
-180.0
 20
59.5
 30
0.0
 11
-135.0
 21
59.5
 31
0.0
  0
TEXT
  5
BDC
330
B9E
100
AcDbEntity
  8
1
100
AcDbText
 10
-173.5810776056337
 20
62.75
 30
0.0
 40
1.5
  1
Alt.
 41
0.8
  7
SANINDUSA
 11
-173.5810776056337
 21
63.5
 31
0.0
100
AcDbText
 73
     2
  0
TEXT
  5
BDD
330
B9E
100
AcDbEntity
  8
1
100
AcDbText
 10
-179.0
 20
62.75
 30
0.0
 40
1.5
  1
Rev.
 41
0.8
  7
SANINDUSA
 11
-179.0
 21
63.5
 31
0.0
100
AcDbText
 73
     2
  0
TEXT
  5
BDE
330
B9E
100
AcDbEntity
  8
1
100
AcDbText
 10
-167.9210461879161
 20
62.75
 30
0.0
 40
1.5
  1
Data
 41
0.8
  7
SANINDUSA
 11
-167.9210461879161
 21
63.5
 31
0.0
100
AcDbText
 73
     2
  0
TEXT
  5
BDF
330
B9E
100
AcDbEntity
  8
1
100
AcDbText
 10
-153.0988595589306
 20
62.75
 30
0.0
 40
1.5
  1
Nome
 41
0.8
  7
SANINDUSA
 11
-153.0988595589306
 21
63.5
 31
0.0
100
AcDbText
 73
     2
  0
TEXT
  5
BE0
330
B9E
100
AcDbEntity
  8
1
100
AcDbText
 10
-134.0
 20
62.25
 30
0.0
 40
2.0
  1
Produto:
 41
0.8
  7
SANINDUSA
 11
-134.0
 21
63.25
 31
0.0
100
AcDbText
 73
     2
  0
LINE
  5
BE1
330
B9E
100
AcDbEntity
  8
3
100
AcDbLine
 10
-40.0
 20
4.0
 30
0.0
 11
-40.0
 21
65.0
 31
0.0
  0
LWPOLYLINE
  5
BE2
102
{ACAD_REACTORS
330
BEC
102
}
330
B9E
100
AcDbEntity
  8
9
100
AcDbPolyline
 90
       12
 70
     1
 43
0.0
 10
-3.038714600644652
 20
58.90010174665076
 10
-5.726962862472191
 20
58.90010174665076
 10
-5.726962862472191
 20
58.5001017466509
 10
-3.038748516195028
 20
58.5001017466509
 42
-0.4142135623731731
 10
-2.638748516194482
 20
58.1001017466508
 10
-2.638748516194482
 20
57.42799728675596
 10
-5.21497371544865
 20
57.42799728675596
 42
0.4142135623731289
 10
-6.014973715448377
 20
56.627997286756
 10
-6.014973715448377
 20
55.92380871629643
 42
0.4142135623731132
 10
-5.21497371544865
 20
55.12380871629648
 10
-2.23871460064447
 20
55.12380871629648
 10
-2.23871460064447
 20
58.10010174665103
 42
0.4142135623730717
  0
LWPOLYLINE
  5
BE3
102
{ACAD_REACTORS
330
BEC
102
}
330
B9E
100
AcDbEntity
  8
9
100
AcDbPolyline
 90
       20
 70
     1
 43
0.0
 10
-10.01531287095122
 20
57.82799728675581
 10
-10.01531287095122
 20
58.10010174665103
 42
-0.4142135623730744
 10
-9.615312870951584
 20
58.5001017466509
 10
-6.92703069357276
 20
58.5001017466509
 10
-6.92703069357276
 20
58.90010174665076
 10
-9.615346786501959
 20
58.90010174665076
 42
0.4142135623730883
 10
-10.41534678650168
 20
58.1001017466508
 10
-10.41534678650168
 20
57.82796337120567
 42
0.4142135623730717
 10
-9.615346786501959
 20
57.02796337120571
 10
-7.423079531965413
 20
57.02796337120571
 42
-0.4142135623730847
 10
-7.023079531965322
 20
56.62796337120562
 10
-7.023079531965322
 20
55.90786840766487
 42
-0.4142135623730744
 10
-7.423079531965413
 20
55.507868407665
 10
-10.41534678650168
 20
55.507868407665
 10
-10.41534678650168
 20
55.12380871629648
 10
-7.445787917283723
 20
55.12380871629648
 42
0.4114777732064574
 10
-6.645822882998345
 20
55.9163291493976
 10
-6.639238813324936
 20
56.62051771985716
 42
0.4169546541682913
 10
-7.439203847610315
 20
57.42799728675596
 10
-9.615312870951584
 20
57.42799728675596
 42
-0.4142135623731576
  0
LWPOLYLINE
  5
BE4
102
{ACAD_REACTORS
330
BEC
102
}
330
B9E
100
AcDbEntity
  8
9
100
AcDbPolyline
 90
       12
 70
     1
 43
0.0
 10
-14.41561811090378
 20
58.90010174665076
 10
-14.79964388672215
 20
58.90010174665076
 10
-14.79964388672215
 20
55.92380871629643
 42
0.4142135623731133
 10
-13.99964388672242
 20
55.12380871629648
 10
-11.8233508563676
 20
55.12380871629648
 42
0.4142135623730872
 10
-11.02335085636741
 20
55.92380871629643
 10
-11.02335085636741
 20
58.90010174665076
 10
-11.42338477191788
 20
58.90010174665076
 10
-11.42338477191788
 20
55.91567577726095
 42
-0.4131711701795318
 10
-11.82196067063523
 20
55.51567831234956
 10
-14.0141940096214
 20
55.50787335710947
 42
-0.4152567234624407
 10
-14.41561811090378
 20
55.90787082202087
  0
LWPOLYLINE
  5
BE5
102
{ACAD_REACTORS
330
BEC
102
}
330
B9E
100
AcDbEntity
  8
9
100
AcDbPolyline
 90
        6
 70
     1
 43
0.0
 10
-15.80771578768872
 20
55.507868407665
 10
-18.39994912667453
 20
55.507868407665
 42
-0.4142135623731731
 10
-18.79994912667462
 20
55.90786840766487
 10
-18.79994912667462
 20
58.10010174665103
 42
-0.4142135623730744
 10
-18.39994912667453
 20
58.5001017466509
 10
-15.80771578768872
 20
58.5001017466509
  0
LWPOLYLINE
  5
BE6
102
{ACAD_REACTORS
330
BEC
102
}
330
B9E
100
AcDbEntity
  8
9
100
AcDbPolyline
 90
        8
 70
     1
 43
0.0
 10
-15.4236900118708
 20
59.87619128370352
 10
-15.80771578768872
 20
59.87619128370352
 10
-15.80771578768872
 20
58.90010174665076
 10
-18.39176256411201
 20
58.90010174665076
 42
0.4131164467977967
 10
-19.19175694739761
 20
58.1030995310698
 10
-19.1999120763262
 20
55.92680650071542
 42
0.4153115297271718
 10
-18.39991769304061
 20
55.12380871629648
 10
-15.4236900118708
 20
55.12380871629648
  0
LWPOLYLINE
  5
BE7
102
{ACAD_REACTORS
330
BEC
102
}
330
B9E
100
AcDbEntity
  8
9
100
AcDbPolyline
 90
       10
 70
     1
 43
0.0
 10
-20.59201288790928
 20
58.90010174665076
 10
-23.56830591826338
 20
58.90010174665076
 10
-23.56830591826338
 20
55.12380871629648
 10
-23.18424622689509
 20
55.12380871629648
 10
-23.18424622689509
 20
58.5001017466509
 10
-20.59204680345965
 20
58.5001017466509
 42
-0.4142135623730898
 10
-20.19204680345956
 20
58.1001017466508
 10
-20.19204680345956
 20
55.12380871629648
 10
-19.79201288790909
 20
55.12380871629648
 10
-19.79201288790909
 20
58.10010174665103
 42
0.4142135623731132
  0
LWPOLYLINE
  5
BE8
102
{ACAD_REACTORS
330
BEC
102
}
330
B9E
100
AcDbEntity
  8
9
100
AcDbPolyline
 90
        4
 70
     1
 43
0.0
 10
-24.19231812786165
 20
58.90010174665076
 10
-24.57637781922995
 20
58.90010174665076
 10
-24.57637781922995
 20
55.12380871629648
 10
-24.19231812786165
 20
55.12380871629648
  0
LWPOLYLINE
  5
BE9
102
{ACAD_REACTORS
330
BEC
102
}
330
B9E
100
AcDbEntity
  8
9
100
AcDbPolyline
 90
       10
 70
     1
 43
0.0
 10
-28.57661522808212
 20
58.5001017466509
 10
-25.98444972019706
 20
58.5001017466509
 42
-0.4142135623731731
 10
-25.58444972019652
 20
58.1001017466508
 10
-25.58444972019652
 20
55.12380871629648
 10
-25.2004239443786
 20
55.12380871629648
 10
-25.2004239443786
 20
58.10010174665103
 42
0.4142135623730717
 10
-26.00042394437833
 20
58.90010174665076
 10
-28.97664914363259
 20
58.90010174665076
 10
-28.97664914363259
 20
55.12380871629648
 10
-28.57661522808212
 20
55.12380871629648
  0
LWPOLYLINE
  5
BEA
102
{ACAD_REACTORS
330
BEC
102
}
330
B9E
100
AcDbEntity
  8
9
100
AcDbPolyline
 90
       12
 70
     1
 43
0.0
 10
-29.58465321349832
 20
58.10010174665103
 42
0.4142135623730716
 10
-30.3846532134985
 20
58.90010174665076
 10
-33.07296930642724
 20
58.90010174665076
 10
-33.07296930642724
 20
58.5001017466509
 10
-30.38468712904842
 20
58.5001017466509
 42
-0.4142135623730067
 10
-29.98468712904878
 20
58.1001017466508
 10
-29.98468712904878
 20
57.42799728675618
 10
-32.56098015940324
 20
57.42799728675596
 42
0.4142135623731289
 10
-33.36098015940343
 20
56.627997286756
 10
-33.36098015940343
 20
55.92380871629643
 42
0.4142135623731132
 10
-32.56098015940324
 20
55.12380871629648
 10
-29.58465321349832
 20
55.12380871629648
  0
LWPOLYLINE
  5
BEB
102
{ACAD_REACTORS
330
BEC
102
}
330
B9E
100
AcDbEntity
  8
9
100
AcDbPolyline
 90
       20
 70
     1
 43
0.0
 10
-34.7850262845518
 20
57.42799728675596
 10
-36.96125148380543
 20
57.42799728675596
 42
-0.4142135623730898
 10
-37.36125148380552
 20
57.82799728675604
 10
-37.36125148380552
 20
58.10010174665103
 42
-0.4142135623730744
 10
-36.96125148380543
 20
58.5001017466509
 10
-34.27303713752781
 20
58.50010174665067
 10
-34.27303713752781
 20
58.90010174665076
 10
-36.96128539935535
 20
58.90010174665076
 42
0.4142135623731289
 10
-37.76128539935553
 20
58.1001017466508
 10
-37.76128539935553
 20
57.82796337120567
 42
0.4142135623730716
 10
-36.9612853993558
 20
57.02796337120571
 10
-34.76901814481926
 20
57.02796337120571
 42
-0.414213562373168
 10
-34.36901814481962
 20
56.62796337120562
 10
-34.36901814481962
 20
55.90786840766487
 42
-0.4142135623730744
 10
-34.76901814481926
 20
55.507868407665
 10
-37.76128539935553
 20
55.507868407665
 10
-37.76128539935553
 20
55.12380871629648
 10
-34.7850262845518
 20
55.12380871629648
 42
0.4142135623731289
 10
-33.98502628455162
 20
55.92380871629643
 10
-33.98502628455162
 20
56.627997286756
 42
0.4142135623731132
  0
HATCH
  5
BEC
330
B9E
100
AcDbEntity
  8
9
100
AcDbHatch
 10
0.0
 20
0.0
 30
0.0
210
0.0
220
0.0
230
1.0
  2
SOLID
 70
     1
 71
     1
 91
       13
 92
        7
 72
     1
 73
     1
 93
       20
 10
-34.36901814481962
 20
55.90786840766487
 42
-0.414213562372991
 10
-34.76901814481926
 20
55.507868407665
 42
0.0
 10
-37.76128539935553
 20
55.507868407665
 42
0.0
 10
-37.76128539935553
 20
55.12380871629648
 42
0.0
 10
-34.7850262845518
 20
55.12380871629648
 42
0.4142135623731705
 10
-33.98502628455162
 20
55.92380871629666
 42
0.0
 10
-33.98502628455162
 20
56.627997286756
 42
0.4142135623731547
 10
-34.7850262845518
 20
57.42799728675596
 42
0.0
 10
-36.96125148380543
 20
57.42799728675596
 42
-0.4142135623730898
 10
-37.36125148380552
 20
57.82799728675604
 42
0.0
 10
-37.36125148380552
 20
58.1001017466508
 42
-0.4142135623731575
 10
-36.96125148380543
 20
58.5001017466509
 42
0.0
 10
-34.27303713752781
 20
58.50010174665067
 42
0.0
 10
-34.27303713752781
 20
58.90010174665076
 42
0.0
 10
-36.96128539935535
 20
58.90010174665076
 42
0.4142135623731705
 10
-37.76128539935553
 20
58.10010174665058
 42
0.0
 10
-37.76128539935553
 20
57.82796337120544
 42
0.4142135623730299
 10
-36.9612853993558
 20
57.02796337120571
 42
0.0
 10
-34.76901814481926
 20
57.02796337120571
 42
-0.4142135623730015
 10
-34.36901814481962
 20
56.62796337120608
 42
0.0
 97
        1
330
BEB
 92
        7
 72
     1
 73
     1
 93
       12
 10
-33.36098015940343
 20
55.92380871629666
 42
0.4142135623731547
 10
-32.56098015940324
 20
55.12380871629648
 42
0.0
 10
-29.58465321349877
 20
55.12380871629648
 42
0.0
 10
-29.58465321349832
 20
58.10010174665058
 42
0.4142135623731964
 10
-30.3846532134985
 20
58.90010174665076
 42
0.0
 10
-33.07296930642724
 20
58.90010174665076
 42
0.0
 10
-33.07296930642724
 20
58.50010174665067
 42
0.0
 10
-30.38468712904887
 20
58.5001017466509
 42
-0.4142135623732564
 10
-29.98468712904878
 20
58.10010174665103
 42
0.0
 10
-29.98468712904923
 20
57.42799728675596
 42
0.0
 10
-32.56098015940324
 20
57.42799728675596
 42
0.4142135623731705
 10
-33.36098015940343
 20
56.627997286756
 42
0.0
 97
        1
330
BEA
 92
       22
 72
     1
 73
     1
 93
        6
 10
-32.97692046803468
 20
56.62796337120562
 42
-0.4142135623731576
 10
-32.57692046803459
 20
57.02796337120571
 42
0.0
 10
-29.98468712904878
 20
57.02796337120571
 42
0.0
 10
-29.98468712904878
 20
55.507868407665
 42
0.0
 10
-32.57692046803459
 20
55.507868407665
 42
-0.4142135623731731
 10
-32.97692046803468
 20
55.90786840766487
 42
0.0
 97
        1
330
C11
 92
        7
 72
     1
 73
     1
 93
       10
 10
-28.57661522808212
 20
58.5001017466509
 42
0.0
 10
-25.98444972019661
 20
58.5001017466509
 42
-0.4142135623730067
 10
-25.58444972019652
 20
58.10010174665058
 42
0.0
 10
-25.58444972019606
 20
55.12380871629648
 42
0.0
 10
-25.20042394437906
 20
55.12380871629648
 42
0.0
 10
-25.2004239443786
 20
58.1001017466508
 42
0.4142135623731134
 10
-26.00042394437833
 20
58.90010174665076
 42
0.0
 10
-28.97664914363259
 20
58.90010174665076
 42
0.0
 10
-28.97664914363259
 20
55.12380871629648
 42
0.0
 10
-28.57661522808212
 20
55.12380871629648
 42
0.0
 97
        1
330
BE9
 92
        7
 72
     0
 73
     1
 93
        4
 10
-24.57637781922995
 20
55.12380871629648
 10
-24.19231812786165
 20
55.12380871629648
 10
-24.19231812786165
 20
58.90010174665076
 10
-24.57637781922995
 20
58.90010174665076
 97
        1
330
BE8
 92
        7
 72
     0
 73
     1
 93
        4
 10
-24.19231812786165
 20
59.87619128370352
 10
-24.5763778192304
 20
59.87619128370352
 10
-24.5763778192304
 20
59.28412752246913
 10
-24.1923181278612
 20
59.28412752246913
 97
        1
330
C12
 92
        7
 72
     1
 73
     1
 93
       10
 10
-23.18424622689509
 20
58.5001017466509
 42
0.0
 10
-20.59204680345965
 20
58.5001017466509
 42
-0.4142135623730898
 10
-20.19204680345956
 20
58.1001017466508
 42
0.0
 10
-20.19204680345956
 20
55.12380871629648
 42
0.0
 10
-19.79201288790909
 20
55.12380871629648
 42
0.0
 10
-19.79201288790909
 20
58.1001017466508
 42
0.4142135623731547
 10
-20.59201288790928
 20
58.90010174665076
 42
0.0
 10
-23.56830591826338
 20
58.90010174665076
 42
0.0
 10
-23.56830591826338
 20
55.12380871629648
 42
0.0
 10
-23.18424622689463
 20
55.12380871629648
 42
0.0
 97
        1
330
BE7
 92
        7
 72
     1
 73
     1
 93
        8
 10
-19.1999120763262
 20
55.92680650071542
 42
0.4153115297271299
 10
-18.39991769304061
 20
55.12380871629648
 42
0.0
 10
-15.4236900118708
 20
55.12380871629648
 42
0.0
 10
-15.4236900118708
 20
59.87619128370352
 42
0.0
 10
-15.80771578768872
 20
59.87619128370352
 42
0.0
 10
-15.80771578768872
 20
58.90010174665076
 42
0.0
 10
-18.39176256411201
 20
58.90010174665076
 42
0.4131164467977965
 10
-19.19175694739761
 20
58.1030995310698
 42
0.0
 97
        1
330
BE6
 92
       22
 72
     1
 73
     1
 93
        6
 10
-18.79994912667462
 20
58.1001017466508
 42
-0.4142135623731575
 10
-18.39994912667453
 20
58.5001017466509
 42
0.0
 10
-15.80771578768872
 20
58.50010174665067
 42
0.0
 10
-15.80771578768827
 20
55.507868407665
 42
0.0
 10
-18.39994912667453
 20
55.507868407665
 42
-0.4142135623731731
 10
-18.79994912667462
 20
55.90786840766487
 42
0.0
 97
        1
330
BE5
 92
        7
 72
     1
 73
     1
 93
       12
 10
-14.79964388672215
 20
55.92380871629621
 42
0.4142135623729885
 10
-13.99964388672242
 20
55.12380871629648
 42
0.0
 10
-11.8233508563676
 20
55.12380871629648
 42
0.4142135623731289
 10
-11.02335085636741
 20
55.92380871629666
 42
0.0
 10
-11.02335085636741
 20
58.90010174665076
 42
0.0
 10
-11.42338477191788
 20
58.90010174665076
 42
0.0
 10
-11.42338477191788
 20
55.91567577726095
 42
-0.4131711701795319
 10
-11.82196067063523
 20
55.51567831234956
 42
0.0
 10
-14.01419400962095
 20
55.50787335710947
 42
-0.4152567234626918
 10
-14.41561811090378
 20
55.90787082202087
 42
0.0
 10
-14.41561811090378
 20
58.90010174665076
 42
0.0
 10
-14.7996438867226
 20
58.90010174665076
 42
0.0
 97
        1
330
BE4
 92
        7
 72
     1
 73
     1
 93
       20
 10
-7.423079531965413
 20
57.02796337120571
 42
-0.414213562373168
 10
-7.023079531965322
 20
56.62796337120562
 42
0.0
 10
-7.023079531965322
 20
55.90786840766487
 42
-0.4142135623731575
 10
-7.423079531965413
 20
55.507868407665
 42
0.0
 10
-10.41534678650168
 20
55.507868407665
 42
0.0
 10
-10.41534678650168
 20
55.12380871629648
 42
0.0
 10
-7.445787917283723
 20
55.12380871629648
 42
0.4114777732065809
 10
-6.645822882998345
 20
55.91632914939783
 42
0.0
 10
-6.639238813324936
 20
56.62051771985716
 42
0.4169546541682913
 10
-7.439203847610315
 20
57.42799728675596
 42
0.0
 10
-9.615312870951584
 20
57.42799728675596
 42
-0.4142135623729911
 10
-10.01531287095122
 20
57.82799728675581
 42
0.0
 10
-10.01531287095122
 20
58.10010174665103
 42
-0.414213562372991
 10
-9.615312870951584
 20
58.5001017466509
 42
0.0
 10
-6.92703069357276
 20
58.50010174665067
 42
0.0
 10
-6.927030693572305
 20
58.90010174665076
 42
0.0
 10
-9.615346786501959
 20
58.90010174665076
 42
0.4142135623730467
 10
-10.41534678650168
 20
58.10010174665103
 42
0.0
 10
-10.41534678650168
 20
57.82796337120544
 42
0.4142135623730301
 10
-9.615346786501959
 20
57.02796337120571
 42
0.0
 97
        1
330
BE3
 92
        7
 72
     1
 73
     1
 93
       12
 10
-5.21497371544865
 20
57.42799728675596
 42
0.4142135623730871
 10
-6.014973715448377
 20
56.627997286756
 42
0.0
 10
-6.014973715448377
 20
55.92380871629621
 42
0.4142135623730715
 10
-5.21497371544865
 20
55.12380871629648
 42
0.0
 10
-2.23871460064447
 20
55.12380871629648
 42
0.0
 10
-2.23871460064447
 20
58.10010174665058
 42
0.414213562373155
 10
-3.038714600644652
 20
58.90010174665076
 42
0.0
 10
-5.726962862471737
 20
58.90010174665076
 42
0.0
 10
-5.726962862472191
 20
58.5001017466509
 42
0.0
 10
-3.038748516194573
 20
58.5001017466509
 42
-0.4142135623730067
 10
-2.638748516194482
 20
58.10010174665058
 42
0.0
 10
-2.638748516194482
 20
57.42799728675596
 42
0.0
 97
        1
330
BE2
 92
       22
 72
     1
 73
     1
 93
        6
 10
-2.638748516194937
 20
57.02796337120571
 42
0.0
 10
-2.638748516194482
 20
55.50786840766477
 42
0.0
 10
-5.21497371544865
 20
55.507868407665
 42
-0.4142135623731731
 10
-5.614973715448741
 20
55.90786840766509
 42
0.0
 10
-5.614973715448741
 20
56.62796337120562
 42
-0.4142135623731576
 10
-5.21497371544865
 20
57.02796337120571
 42
0.0
 97
        1
330
C0D
 75
     0
 76
     1
 47
0.0407044778999864
 98
       13
 10
-34.18710075113677
 20
56.16907953933765
 10
-33.12851374392494
 20
56.49471602641233
 10
-33.12851374392494
 20
56.49471602641233
 10
-28.77202873835904
 20
57.51232930166111
 10
-24.41554807250941
 20
57.91937341678636
 10
-24.41554807250941
 20
59.384734621186
 10
-23.31624584658039
 20
58.3264175319116
 10
-19.04119127844888
 20
57.75655517324913
 10
-19.04119127844888
 20
57.75655517324913
 10
-14.64399105416578
 20
57.43091868617466
 10
-8.048195057457178
 20
57.22739662861204
 10
-4.017427461911665
 20
57.18669281458665
 10
-4.017427461911665
 20
57.18669281458665
  0
TEXT
  5
BED
330
B9E
100
AcDbEntity
  8
leg fin
100
AcDbText
 10
3.391127401597259
 20
2.107634911895729
 30
0.0
 40
1.5
  1
Este desenho é propriedade da Sanindusa, S.A., e não pode ser copiado nem divulgado sem nossa autorização.
 50
90.0
 41
0.8
  7
SANINDUSA
100
AcDbText
  0
LINE
  5
BEE
330
B9E
100
AcDbEntity
  8
3
100
AcDbLine
 10
-90.0
 20
4.0
 30
0.0
 11
-90.0
 21
12.0
 31
0.0
  0
TEXT
  5
BEF
330
B9E
100
AcDbEntity
  8
1
100
AcDbText
 10
-39.0
 20
9.25
 30
0.0
 40
2.0
  1
Substituido por:
 41
0.8
  7
SANINDUSA
 11
-39.0
 21
10.25
 31
0.0
100
AcDbText
 73
     2
  0
POINT
  5
BF0
330
B9E
100
AcDbEntity
  8
SANINDUSA
100
AcDbPoint
 10
0.0
 20
0.0
 30
0.0
  0
TEXT
  5
BF1
330
B9E
100
AcDbEntity
  8
1
100
AcDbText
 10
-89.0
 20
16.74927010445663
 30
0.0
 40
2.0
  1
Normas:
 41
0.8
  7
SANINDUSA
 11
-89.0
 21
17.74927010445663
 31
0.0
100
AcDbText
 73
     2
  0
LINE
  5
BF2
330
B9E
100
AcDbEntity
  8
3
100
AcDbLine
 10
-90.0
 20
12.0
 30
0.0
 11
-90.0
 21
20.0
 31
0.0
  0
LINE
  5
BF3
330
B9E
100
AcDbEntity
  8
3
100
AcDbLine
 10
-110.546019464768
 20
12.0
 30
0.0
 11
-110.546019464768
 21
20.0
 31
0.0
  0
TEXT
  5
BF4
330
B9E
100
AcDbEntity
  8
1
100
AcDbText
 10
-109.6177520618648
 20
17.25
 30
0.0
 40
2.0
  1
Cor:
 41
0.8
  7
SANINDUSA
 11
-109.6177520618648
 21
18.25
 31
0.0
100
AcDbText
 73
     2
  0
LINE
  5
BF5
330
B9E
100
AcDbEntity
  8
leg fin
100
AcDbLine
 10
-91.42857142857156
 20
20.0
 30
0.0
 11
-91.42857142857156
 21
28.5
 31
0.0
  0
LINE
  5
BF6
330
B9E
100
AcDbEntity
  8
leg fin
100
AcDbLine
 10
-104.2857142857142
 20
20.0
 30
0.0
 11
-104.2857142857142
 21
28.5
 31
0.0
  0
LINE
  5
BF7
330
B9E
100
AcDbEntity
  8
leg fin
100
AcDbLine
 10
-117.1428571428573
 20
20.0
 30
0.0
 11
-117.1428571428573
 21
28.5
 31
0.0
  0
POINT
  5
BF8
330
B9E
100
AcDbEntity
  8
SANINDUSA
100
AcDbPoint
 10
-117.1428571428573
 20
28.5
 30
0.0
  0
POINT
  5
BF9
330
B9E
100
AcDbEntity
  8
SANINDUSA
100
AcDbPoint
 10
-104.2857142857142
 20
28.5
 30
0.0
  0
POINT
  5
BFA
330
B9E
100
AcDbEntity
  8
SANINDUSA
100
AcDbPoint
 10
-91.42857142857156
 20
28.5
 30
0.0
  0
TEXT
  5
BFB
330
B9E
100
AcDbEntity
  8
1
100
AcDbText
 10
-116.200160604496
 20
26.43288406845113
 30
0.0
 40
1.5
  1
Nº Seq.:
 41
0.8
  7
SANINDUSA
 11
-116.200160604496
 21
27.18288406845113
 31
0.0
100
AcDbText
 73
     2
  0
TEXT
  5
BFC
330
B9E
100
AcDbEntity
  8
1
100
AcDbText
 10
-103.2106584078738
 20
26.43288406845113
 30
0.0
 40
1.5
  1
Tipo:
 41
0.8
  7
SANINDUSA
 11
-103.2106584078738
 21
27.18288406845113
 31
0.0
100
AcDbText
 73
     2
  0
TEXT
  5
BFD
330
B9E
100
AcDbEntity
  8
1
100
AcDbText
 10
-90.22114672289353
 20
26.43288406845113
 30
0.0
 40
1.5
  1
Prod.:
 41
0.8
  7
SANINDUSA
 11
-90.22114672289353
 21
27.18288406845113
 31
0.0
100
AcDbText
 73
     2
  0
TEXT
  5
BFE
330
B9E
100
AcDbEntity
  8
1
100
AcDbText
 10
-64.77320576346574
 20
26.43288406845113
 30
0.0
 40
1.5
  1
Rev.:
 41
0.8
  7
SANINDUSA
 11
-64.77320576346574
 21
27.18288406845113
 31
0.0
100
AcDbText
 73
     2
  0
LINE
  5
BFF
330
B9E
100
AcDbEntity
  8
leg fin
100
AcDbLine
 10
-52.85714285714266
 20
20.0
 30
0.0
 11
-52.85714285714266
 21
28.5
 31
0.0
  0
LINE
  5
C00
330
B9E
100
AcDbEntity
  8
leg fin
100
AcDbLine
 10
-65.71428571428578
 20
20.0
 30
0.0
 11
-65.71428571428578
 21
28.5
 31
0.0
  0
LINE
  5
C01
330
B9E
100
AcDbEntity
  8
leg fin
100
AcDbLine
 10
-78.57142857142844
 20
20.0
 30
0.0
 11
-78.57142857142844
 21
28.5
 31
0.0
  0
POINT
  5
C02
330
B9E
100
AcDbEntity
  8
SANINDUSA
100
AcDbPoint
 10
-78.57142857142844
 20
28.5
 30
0.0
  0
POINT
  5
C03
330
B9E
100
AcDbEntity
  8
SANINDUSA
100
AcDbPoint
 10
-65.71428571428578
 20
28.5
 30
0.0
  0
POINT
  5
C04
330
B9E
100
AcDbEntity
  8
SANINDUSA
100
AcDbPoint
 10
-52.85714285714266
 20
28.5
 30
0.0
  0
TEXT
  5
C05
330
B9E
100
AcDbEntity
  8
1
100
AcDbText
 10
-77.61097961686573
 20
26.43288406845113
 30
0.0
 40
1.5
  1
Peça:
 41
0.8
  7
SANINDUSA
 11
-77.61097961686573
 21
27.18288406845113
 31
0.0
100
AcDbText
 73
     2
  0
TEXT
  5
C06
330
B9E
100
AcDbEntity
  8
1
100
AcDbText
 10
-52.06538060077036
 20
26.43288406845113
 30
0.0
 40
1.5
  1
Alt.:
 41
0.8
  7
SANINDUSA
 11
-52.06538060077036
 21
27.18288406845113
 31
0.0
100
AcDbText
 73
     2
  0
LINE
  5
C07
330
B9E
100
AcDbEntity
  8
3
100
AcDbLine
 10
0.0
 20
12.0
 30
0.0
 11
-40.0
 21
12.0
 31
0.0
  0
LINE
  5
C08
330
B9E
100
AcDbEntity
  8
3
100
AcDbLine
 10
-40.0
 20
32.5
 30
0.0
 11
0.0
 21
32.5
 31
0.0
  0
TEXT
  5
C09
330
B9E
100
AcDbEntity
  8
1
100
AcDbText
 10
-19.0
 20
29.75
 30
0.0
 40
2.0
  1
Folha:
 41
0.8
  7
SANINDUSA
 11
-19.0
 21
30.75
 31
0.0
100
AcDbText
 73
     2
  0
LINE
  5
C0A
330
B9E
100
AcDbEntity
  8
3
100
AcDbLine
 10
-20.0
 20
32.5
 30
0.0
 11
-20.0
 21
20.0
 31
0.0
  0
TEXT
  5
C0B
330
B9E
100
AcDbEntity
  8
1
100
AcDbText
 10
-39.0
 20
29.75
 30
0.0
 40
2.0
  1
Escala:
 41
0.8
  7
SANINDUSA
 11
-39.0
 21
30.75
 31
0.0
100
AcDbText
 73
     2
  0
TEXT
  5
C0C
330
B9E
100
AcDbEntity
  8
1
100
AcDbText
 10
-39.0
 20
17.25
 30
0.0
 40
2.0
  1
Substitui:
 41
0.8
  7
SANINDUSA
 11
-39.0
 21
18.25
 31
0.0
100
AcDbText
 73
     2
  0
LWPOLYLINE
  5
C0D
102
{ACAD_REACTORS
330
BEC
102
}
330
B9E
100
AcDbEntity
  8
9
100
AcDbPolyline
 90
        6
 70
     1
 43
0.0
 10
-2.638748516194482
 20
57.02796337120571
 10
-2.638748516194482
 20
55.50786840766477
 10
-5.21497371544865
 20
55.507868407665
 42
-0.4142135623730898
 10
-5.614973715448741
 20
55.90786840766487
 10
-5.614973715448741
 20
56.62796337120562
 42
-0.4142135623731576
 10
-5.21497371544865
 20
57.02796337120571
  0
LINE
  5
C0E
330
B9E
100
AcDbEntity
  8
3
100
AcDbLine
 10
-40.0
 20
50.0
 30
0.0
 11
0.0
 21
50.0
 31
0.0
  0
ATTDEF
  5
C0F
330
B9E
100
AcDbEntity
  8
1
100
AcDbText
 10
-31.30691739422431
 20
40.25
 30
0.0
 40
2.0
  1
XXXXXXXXXXXXXXX
 41
0.8
  7
SANINDUSA
 72
     4
 11
-20.0
 21
41.25
 31
0.0
100
AcDbAttributeDefinition
  3
Observações:
  2
OBS
 70
     0
  0
TEXT
  5
C10
330
B9E
100
AcDbEntity
  8
1
100
AcDbText
 10
-39.0
 20
47.25
 30
0.0
 40
2.0
  1
Observações:
 41
0.8
  7
SANINDUSA
 11
-39.0
 21
48.25
 31
0.0
100
AcDbText
 73
     2
  0
LWPOLYLINE
  5
C11
102
{ACAD_REACTORS
330
BEC
102
}
330
B9E
100
AcDbEntity
  8
9
100
AcDbPolyline
 90
        6
 70
     1
 43
0.0
 10
-29.98468712904878
 20
57.02796337120571
 10
-29.98468712904878
 20
55.507868407665
 10
-32.57692046803459
 20
55.507868407665
 42
-0.4142135623731731
 10
-32.97692046803468
 20
55.90786840766487
 10
-32.97692046803468
 20
56.62796337120562
 42
-0.4142135623731576
 10
-32.57692046803459
 20
57.02796337120571
  0
LWPOLYLINE
  5
C12
102
{ACAD_REACTORS
330
BEC
102
}
330
B9E
100
AcDbEntity
  8
9
100
AcDbPolyline
 90
        4
 70
     1
 43
0.0
 10
-24.19231812786165
 20
59.87619128370352
 10
-24.57637781922995
 20
59.87619128370352
 10
-24.57637781922995
 20
59.28412752246913
 10
-24.19231812786165
 20
59.28412752246913
  0
ENDBLK
  5
C14
330
B9E
100
AcDbEntity
  8
0
100
AcDbBlockEnd
  0
ENDSEC
  0
SECTION
  2
ENTITIES
  0
SPLINE
  5
143A
330
1F
100
AcDbEntity
  8
SANINDUSA
370
    15
100
AcDbSpline
210
0.0
220
0.0
230
1.0
 70
     8
 71
     3
 72
    16
 73
    12
 74
     0
 42
0.0000000001
 43
0.0000000001
 40
0.0
 40
0.0
 40
0.0
 40
0.0
 40
0.029031995282659
 40
0.2111586354055233
 40
0.3726837465320832
 40
0.5184744061180551
 40
0.6512647849041344
 40
0.7716493909446771
 40
0.8787800838817979
 40
0.9697722265785632
 40
1.0
 40
1.0
 40
1.0
 40
1.0
 10
4585.216854431365
 20
2350.814998680994
 30
0.0
 10
4585.216850535545
 20
2350.815066900042
 30
0.0
 10
4585.216822200044
 20
2350.815563078166
 30
0.0
 10
4585.217061342992
 20
2350.816431594644
 30
0.0
 10
4585.217545625502
 20
2350.817476785447
 30
0.0
 10
4585.218193498856
 20
2350.81829583138
 30
0.0
 10
4585.218906915718
 20
2350.818907924381
 30
0.0
 10
4585.21963995898
 20
2350.819337045955
 30
0.0
 10
4585.220323210507
 20
2350.819601105592
 30
0.0
 10
4585.220840175948
 20
2350.81972894917
 30
0.0
 10
4585.221066174331
 20
2350.819756377722
 30
0.0
 10
4585.221122529988
 20
2350.81976321739
 30
0.0
  0
SPLINE
  5
143B
330
1F
100
AcDbEntity
  8
SANINDUSA
370
    15
100
AcDbSpline
210
0.0
220
0.0
230
1.0
 70
     8
 71
     3
 72
    15
 73
    11
 74
     0
 42
0.0000000001
 43
0.0000000001
 40
0.0
 40
0.0
 40
0.0
 40
0.0
 40
0.0678013673045722
 40
0.176614034785156
 40
0.3027346963131147
 40
0.4415116899976431
 40
0.5969894692828283
 40
0.7614934676708995
 40
0.9298925594922081
 40
1.0
 40
1.0
 40
1.0
 40
1.0
 10
4585.093469765667
 20
2350.819761786879
 30
0.0
 10
4585.093604921914
 20
2350.819741923281
 30
0.0
 10
4585.09395698694
 20
2350.819690181106
 30
0.0
 10
4585.094636625648
 20
2350.819477409932
 30
0.0
 10
4585.095416761874
 20
2350.819090516191
 30
0.0
 10
4585.096208391749
 20
2350.818490880886
 30
0.0
 10
4585.096923806019
 20
2350.817671141249
 30
0.0
 10
4585.097454017263
 20
2350.816648119901
 30
0.0
 10
4585.097737750677
 20
2350.815723196331
 30
0.0
 10
4585.097724756209
 20
2350.815161025457
 30
0.0
 10
4585.097720936571
 20
2350.814995778993
 30
0.0
  0
SPLINE
  5
143C
330
1F
100
AcDbEntity
  8
SANINDUSA
370
    15
100
AcDbSpline
210
0.0
220
0.0
230
1.0
 70
    24
 71
     1
 72
     4
 73
     2
 74
     0
 42
0.0000000001
 43
0.0000000001
 40
0.0
 40
0.0
 40
1.0
 40
1.0
 10
4585.097758778069
 20
2350.814995806933
 30
0.0
 10
4585.098092213903
 20
2350.805447470666
 30
0.0
  0
SPLINE
  5
143D
330
1F
100
AcDbEntity
  8
SANINDUSA
370
    15
100
AcDbSpline
210
0.0
220
0.0
230
1.0
 70
    24
 71
     1
 72
     4
 73
     2
 74
     0
 42
0.0000000001
 43
0.0000000001
 40
0.0
 40
0.0
 40
1.0
 40
1.0
 10
4585.21650082681
 20
2350.805447470666
 30
0.0
 10
4585.216834284995
 20
2350.814996458859
 30
0.0
  0
LINE
  5
144E
330
1F
100
AcDbEntity
  8
SANINDUSA
370
    15
100
AcDbLine
 10
4585.462296527508
 20
2350.918407731027
 30
0.0
 11
4585.468296509866
 21
2350.918407731027
 31
0.0
  0
ARC
  5
144F
330
1F
100
AcDbEntity
  8
SANINDUSA
370
    15
100
AcDbCircle
 10
4585.468296520356
 20
2350.914407735795
 30
0.0
 40
0.0040000000000002
100
AcDbArc
 50
0.0
 51
90.0
  0
LINE
  5
1453
330
1F
100
AcDbEntity
  8
SANINDUSA
370
    15
100
AcDbLine
 10
4584.842296522741
 20
2350.890407733888
 30
0.0
 11
4584.842296522741
 21
2350.914407737822
 31
0.0
  0
LINE
  5
1456
330
1F
100
AcDbEntity
  8
SANINDUSA
370
    15
100
AcDbLine
 10
4584.852296513203
 20
2350.918407731027
 30
0.0
 11
4585.462296527508
 21
2350.918407731027
 31
0.0
  0
ARC
  5
1459
330
1F
100
AcDbEntity
  8
SANINDUSA
370
    15
100
AcDbCircle
 10
4584.846296520356
 20
2350.914407735795
 30
0.0
 40
0.0040000000000001
100
AcDbArc
 50
90.0
 51
180.0
  0
LINE
  5
145A
330
1F
100
AcDbEntity
  8
SANINDUSA
370
    15
100
AcDbLine
 10
4584.846296530847
 20
2350.918407731027
 30
0.0
 11
4584.852296513203
 21
2350.918407731027
 31
0.0
  0
LINE
  5
145B
330
1F
100
AcDbEntity
  8
SANINDUSA
370
    15
100
AcDbLine
 10
4585.462296527508
 20
2350.888407737286
 30
0.0
 11
4584.852296513203
 21
2350.888407737286
 31
0.0
  0
LINE
  5
145E
330
1F
100
AcDbEntity
  8
SANINDUSA
370
    15
100
AcDbLine
 10
4584.852296513203
 20
2350.888407737286
 30
0.0
 11
4584.844296526794
 21
2350.888407737286
 31
0.0
  0
ARC
  5
145F
330
1F
100
AcDbEntity
  8
SANINDUSA
370
    15
100
AcDbCircle
 10
4584.844296520357
 20
2350.890407735795
 30
0.0
 40
0.002
100
AcDbArc
 50
180.0
 51
270.0
  0
LINE
  5
1460
330
1F
100
AcDbEntity
  8
SANINDUSA
370
    15
100
AcDbLine
 10
4585.472296517973
 20
2350.914407737822
 30
0.0
 11
4585.472296517973
 21
2350.890407733888
 31
0.0
  0
LINE
  5
1462
330
1F
100
AcDbEntity
  8
SANINDUSA
370
    15
100
AcDbLine
 10
4585.47029651392
 20
2350.888407737286
 30
0.0
 11
4585.462296527508
 21
2350.888407737286
 31
0.0
  0
ARC
  5
1463
330
1F
100
AcDbEntity
  8
SANINDUSA
370
    15
100
AcDbCircle
 10
4585.470296520355
 20
2350.890407735795
 30
0.0
 40
0.002
100
AcDbArc
 50
270.0
 51
0.0
  0
LINE
  5
1466
330
1F
100
AcDbEntity
  8
SANINDUSA
370
    15
100
AcDbLine
 10
4584.897444081192
 20
2350.858612463147
 30
0.0
 11
4584.892190348987
 21
2350.888407737286
 31
0.0
  0
LINE
  5
1467
330
1F
100
AcDbEntity
  8
SANINDUSA
370
    15
100
AcDbLine
 10
4585.422402691726
 20
2350.888407737286
 30
0.0
 11
4585.417148959521
 21
2350.858612463147
 31
0.0
  0
ARC
  5
1469
330
1F
100
AcDbEntity
  8
SANINDUSA
370
    15
100
AcDbCircle
 10
4584.902338654944
 20
2350.859490612441
 30
0.0
 40
0.004972725450826
100
AcDbArc
 50
190.1713834245332
 51
270.3393868579174
  0
LINE
  5
146B
330
1F
100
AcDbEntity
  8
SANINDUSA
370
    15
100
AcDbLine
 10
4585.412224930411
 20
2350.854517974228
 30
0.0
 11
4584.902368110303
 21
2350.854517974228
 31
0.0
  0
ARC
  5
146D
330
1F
100
AcDbEntity
  8
SANINDUSA
370
    15
100
AcDbCircle
 10
4585.412254385768
 20
2350.859490612441
 30
0.0
 40
0.0049727254508261
100
AcDbArc
 50
269.6606131420826
 51
349.8286165754668
  0
SPLINE
  5
146E
330
1F
100
AcDbEntity
  8
SANINDUSA
370
    15
100
AcDbSpline
210
0.0
220
0.0
230
1.0
 70
     8
 71
     3
 72
     8
 73
     4
 74
     0
 42
0.0000000001
 43
0.0000000001
 40
0.0
 40
0.0
 40
0.0
 40
0.0
 40
1.0
 40
1.0
 40
1.0
 40
1.0
 10
4585.273197111847
 20
2350.8288771364
 30
0.0
 10
4585.272525484291
 20
2350.82853531574
 30
0.0
 10
4585.271800415689
 20
2350.828195222316
 30
0.0
 10
4585.270979794546
 20
2350.827858217192
 30
0.0
  0
SPLINE
  5
146F
330
1F
100
AcDbEntity
  8
SANINDUSA
370
    15
100
AcDbSpline
210
0.0
220
0.0
230
1.0
 70
     8
 71
     3
 72
    16
 73
    12
 74
     0
 42
0.0000000001
 43
0.0000000001
 40
0.0
 40
0.0
 40
0.0
 40
0.0
 40
0.2499999999999997
 40
0.2499999999999997
 40
0.4999999999999995
 40
0.4999999999999995
 40
0.7499999999999991
 40
0.7499999999999991
 40
0.8749999999999994
 40
0.8749999999999994
 40
1.0
 40
1.0
 40
1.0
 40
1.0
 10
4585.288045599256
 20
2350.835092172469
 30
0.0
 10
4585.286638857943
 20
2350.834580471202
 30
0.0
 10
4585.285282230282
 20
2350.834066766676
 30
0.0
 10
4585.282643128309
 20
2350.833036773896
 30
0.0
 10
4585.281362571439
 20
2350.832520352905
 30
0.0
 10
4585.278878199313
 20
2350.831484707264
 30
0.0
 10
4585.277673948172
 20
2350.830965479798
 30
0.0
 10
4585.275932739253
 20
2350.830184316002
 30
0.0
 10
4585.275363302524
 20
2350.829923582716
 30
0.0
 10
4585.274253600465
 20
2350.829401197468
 30
0.0
 10
4585.273712743906
 20
2350.829139564124
 30
0.0
 10
4585.273197111847
 20
2350.8288771364
 30
0.0
  0
SPLINE
  5
1470
330
1F
100
AcDbEntity
  8
SANINDUSA
370
    15
100
AcDbSpline
210
0.0
220
0.0
230
1.0
 70
     8
 71
     3
 72
    16
 73
    12
 74
     0
 42
0.0000000001
 43
0.0000000001
 40
0.0
 40
0.0
 40
0.0
 40
0.0
 40
0.2500000000000007
 40
0.2500000000000007
 40
0.3750000000000038
 40
0.3750000000000038
 40
0.500000000000007
 40
0.500000000000007
 40
0.7500000000000036
 40
0.7500000000000036
 40
1.0
 40
1.0
 40
1.0
 40
1.0
 10
4585.287124407666
 20
2350.836188113971
 30
0.0
 10
4585.287516591477
 20
2350.836105662244
 30
0.0
 10
4585.287831743516
 20
2350.836019431335
 30
0.0
 10
4585.288191518552
 20
2350.835884543489
 30
0.0
 10
4585.28829284588
 20
2350.835838390161
 30
0.0
 10
4585.288453704023
 20
2350.835745601396
 30
0.0
 10
4585.288513421589
 20
2350.835699028073
 30
0.0
 10
4585.288631983429
 20
2350.835558784622
 30
0.0
 10
4585.288630701127
 20
2350.835464338687
 30
0.0
 10
4585.288460468567
 20
2350.835275063619
 30
0.0
 10
4585.28829405369
 20
2350.835182547613
 30
0.0
 10
4585.288045599256
 20
2350.835092172469
 30
0.0
  0
SPLINE
  5
1471
330
1F
100
AcDbEntity
  8
SANINDUSA
370
    15
100
AcDbSpline
210
0.0
220
0.0
230
1.0
 70
     8
 71
     3
 72
    18
 73
    14
 74
     0
 42
0.0000000001
 43
0.0000000001
 40
0.0
 40
0.0
 40
0.0
 40
0.0
 40
0.125
 40
0.125
 40
0.25
 40
0.25
 40
0.5
 40
0.5
 40
0.75
 40
0.75
 40
0.8749999999999998
 40
0.8749999999999998
 40
1.0
 40
1.0
 40
1.0
 40
1.0
 10
4585.255429228319
 20
2350.843531783465
 30
0.0
 10
4585.256631104551
 20
2350.843218455886
 30
0.0
 10
4585.25786609067
 20
2350.842907097165
 30
0.0
 10
4585.260367564528
 20
2350.842286252948
 30
0.0
 10
4585.261635166001
 20
2350.841976817307
 30
0.0
 10
4585.265472245435
 20
2350.841050667025
 30
0.0
 10
4585.268075125966
 20
2350.840436120929
 30
0.0
 10
4585.273360723154
 20
2350.839212171126
 30
0.0
 10
4585.276044724524
 20
2350.83860285017
 30
0.0
 10
4585.280140293274
 20
2350.837693349652
 30
0.0
 10
4585.281517108685
 20
2350.837390913001
 30
0.0
 10
4585.284297695054
 20
2350.836787920638
 30
0.0
 10
4585.285701159214
 20
2350.836487334106
 30
0.0
 10
4585.287124407666
 20
2350.836188113971
 30
0.0
  0
SPLINE
  5
1472
330
1F
100
AcDbEntity
  8
SANINDUSA
370
    15
100
AcDbSpline
210
0.0
220
0.0
230
1.0
 70
     8
 71
     3
 72
     8
 73
     4
 74
     0
 42
0.0000000001
 43
0.0000000001
 40
0.0
 40
0.0
 40
0.0
 40
0.0
 40
1.0
 40
1.0
 40
1.0
 40
1.0
 10
4585.250861176597
 20
2350.844651272444
 30
0.0
 10
4585.25247191246
 20
2350.844283445737
 30
0.0
 10
4585.253980613953
 20
2350.843909435357
 30
0.0
 10
4585.255429228319
 20
2350.843531783465
 30
0.0
  0
LINE
  5
1473
330
1F
100
AcDbEntity
  8
SANINDUSA
370
    15
100
AcDbLine
 10
4585.228645217304
 20
2350.84972449419
 30
0.0
 11
4585.250861179714
 21
2350.844651270927
 31
0.0
  0
ELLIPSE
  5
1474
330
1F
100
AcDbEntity
  8
SANINDUSA
370
    15
100
AcDbEllipse
 10
4585.222466424993
 20
2350.849323433168
 30
0.0
 11
0.0070062037113045
 21
-0.0000019093984314
 31
0.0
210
0.0
220
0.0
230
0.9999999999999998
 40
0.1219282272495543
 41
0.4909448904401278
 42
1.573031487830709
  0
LINE
  5
1475
330
1F
100
AcDbEntity
  8
SANINDUSA
370
    15
100
AcDbLine
 10
4585.092142042403
 20
2350.850177690656
 30
0.0
 11
4585.222450998311
 21
2350.850177690656
 31
0.0
  0
ELLIPSE
  5
1476
330
1F
100
AcDbEntity
  8
SANINDUSA
370
    15
100
AcDbEllipse
 10
4585.092126615719
 20
2350.849323433168
 30
0.0
 11
0.0070062037113045
 21
0.0000019093984312
 31
0.0
210
0.0
220
0.0
230
1.0
 40
0.1219282272495543
 41
1.568561165759075
 42
2.650647763149794
  0
LINE
  5
1477
330
1F
100
AcDbEntity
  8
SANINDUSA
370
    15
100
AcDbLine
 10
4585.063731861
 20
2350.844651270927
 30
0.0
 11
4585.08594782341
 21
2350.84972449419
 31
0.0
  0
SPLINE
  5
1478
330
1F
100
AcDbEntity
  8
SANINDUSA
370
    15
100
AcDbSpline
210
0.0
220
0.0
230
1.0
 70
     8
 71
     3
 72
     8
 73
     4
 74
     0
 42
0.0000000001
 43
0.0000000001
 40
0.0
 40
0.0
 40
0.0
 40
0.0
 40
1.0
 40
1.0
 40
1.0
 40
1.0
 10
4585.059163812394
 20
2350.843531783465
 30
0.0
 10
4585.060612426761
 20
2350.843909435357
 30
0.0
 10
4585.062121128252
 20
2350.844283445737
 30
0.0
 10
4585.063731864114
 20
2350.844651272444
 30
0.0
  0
SPLINE
  5
1479
330
1F
100
AcDbEntity
  8
SANINDUSA
370
    15
100
AcDbSpline
210
0.0
220
0.0
230
1.0
 70
     8
 71
     3
 72
    18
 73
    14
 74
     0
 42
0.0000000001
 43
0.0000000001
 40
0.0
 40
0.0
 40
0.0
 40
0.0
 40
0.1249999999999999
 40
0.1249999999999999
 40
0.25
 40
0.25
 40
0.5000000000000004
 40
0.5000000000000004
 40
0.7500000000000007
 40
0.7500000000000007
 40
0.8750000000000003
 40
0.8750000000000003
 40
1.0
 40
1.0
 40
1.0
 40
1.0
 10
4585.027468633046
 20
2350.836188113971
 30
0.0
 10
4585.02889186901
 20
2350.836487331481
 30
0.0
 10
4585.03029530808
 20
2350.836787912621
 30
0.0
 10
4585.033075828618
 20
2350.837390890443
 30
0.0
 10
4585.03445263309
 20
2350.837693324391
 30
0.0
 10
4585.038548303063
 20
2350.83860284699
 30
0.0
 10
4585.041232347078
 20
2350.8392121778
 30
0.0
 10
4585.046517989492
 20
2350.840436138399
 30
0.0
 10
4585.049120873115
 20
2350.841050685584
 30
0.0
 10
4585.05295792708
 20
2350.841976830062
 30
0.0
 10
4585.054225516543
 20
2350.842286262879
 30
0.0
 10
4585.056726969805
 20
2350.842907102156
 30
0.0
 10
4585.057961945789
 20
2350.843218458396
 30
0.0
 10
4585.059163812394
 20
2350.843531783465
 30
0.0
  0
SPLINE
  5
147A
330
1F
100
AcDbEntity
  8
SANINDUSA
370
    15
100
AcDbSpline
210
0.0
220
0.0
230
1.0
 70
     8
 71
     3
 72
    18
 73
    14
 74
     0
 42
0.0000000001
 43
0.0000000001
 40
0.0
 40
0.0
 40
0.0
 40
0.0
 40
0.2499999999999918
 40
0.2499999999999918
 40
0.3749999999999923
 40
0.3749999999999923
 40
0.4999999999999928
 40
0.4999999999999928
 40
0.6249999999999933
 40
0.6249999999999933
 40
0.7499999999999937
 40
0.7499999999999937
 40
1.0
 40
1.0
 40
1.0
 40
1.0
 10
4585.026547441456
 20
2350.835092172469
 30
0.0
 10
4585.026299010208
 20
2350.835182539179
 30
0.0
 10
4585.026133380124
 20
2350.83527476306
 30
0.0
 10
4585.026005722708
 20
2350.835415808063
 30
0.0
 10
4585.025983554806
 20
2350.83546354205
 30
0.0
 10
4585.025981092368
 20
2350.835558300805
 30
0.0
 10
4585.026000482497
 20
2350.835605360302
 30
0.0
 10
4585.026079423974
 20
2350.835698856311
 30
0.0
 10
4585.026138977544
 20
2350.835745292789
 30
0.0
 10
4585.026298544105
 20
2350.835837538133
 30
0.0
 10
4585.026399063784
 20
2350.83588353096
 30
0.0
 10
4585.026760231977
 20
2350.836019211379
 30
0.0
 10
4585.027076489207
 20
2350.836105670648
 30
0.0
 10
4585.027468633046
 20
2350.836188113971
 30
0.0
  0
SPLINE
  5
147B
330
1F
100
AcDbEntity
  8
SANINDUSA
370
    15
100
AcDbSpline
210
0.0
220
0.0
230
1.0
 70
     8
 71
     3
 72
    16
 73
    12
 74
     0
 42
0.0000000001
 43
0.0000000001
 40
0.0
 40
0.0
 40
0.0
 40
0.0
 40
0.1249999999999993
 40
0.1249999999999993
 40
0.2499999999999987
 40
0.2499999999999987
 40
0.4999999999999992
 40
0.4999999999999992
 40
0.7499999999999996
 40
0.7499999999999996
 40
1.0
 40
1.0
 40
1.0
 40
1.0
 10
4585.041395928866
 20
2350.8288771364
 30
0.0
 10
4585.040880297014
 20
2350.829139564018
 30
0.0
 10
4585.040339441444
 20
2350.829401196879
 30
0.0
 10
4585.039229742417
 20
2350.82992358075
 30
0.0
 10
4585.038660307735
 20
2350.830184313132
 30
0.0
 10
4585.036919106301
 20
2350.830965473733
 30
0.0
 10
4585.035714844583
 20
2350.831484705928
 30
0.0
 10
4585.033230468087
 20
2350.832520353408
 30
0.0
 10
4585.031949909917
 20
2350.833036774889
 30
0.0
 10
4585.029310807526
 20
2350.834066767786
 30
0.0
 10
4585.027954181174
 20
2350.834580471782
 30
0.0
 10
4585.026547441456
 20
2350.835092172469
 30
0.0
  0
SPLINE
  5
147C
330
1F
100
AcDbEntity
  8
SANINDUSA
370
    15
100
AcDbSpline
210
0.0
220
0.0
230
1.0
 70
     8
 71
     3
 72
     8
 73
     4
 74
     0
 42
0.0000000001
 43
0.0000000001
 40
0.0
 40
0.0
 40
0.0
 40
0.0
 40
1.0
 40
1.0
 40
1.0
 40
1.0
 10
4585.043613246167
 20
2350.827858217192
 30
0.0
 10
4585.042792625023
 20
2350.828195222316
 30
0.0
 10
4585.042067556422
 20
2350.82853531574
 30
0.0
 10
4585.041395928866
 20
2350.8288771364
 30
0.0
  0
LINE
  5
147D
330
1F
100
AcDbEntity
  8
SANINDUSA
370
    15
100
AcDbLine
 10
4585.089736339335
 20
2350.808916811169
 30
0.0
 11
4585.043613244478
 21
2350.827858217329
 31
0.0
  0
LINE
  5
147F
330
1F
100
AcDbEntity
  8
SANINDUSA
370
    15
100
AcDbLine
 10
4585.064524736885
 20
2350.808407735348
 30
0.0
 11
4585.091934111599
 21
2350.808407735348
 31
0.0
  0
ELLIPSE
  5
1481
330
1F
100
AcDbEntity
  8
SANINDUSA
370
    15
100
AcDbEllipse
 10
4585.05965535173
 20
2350.80907586547
 30
0.0
 11
0.0070323429095706
 21
-0.0000161317917593
 31
0.0
210
0.0
220
0.0
230
1.0
 40
0.1235580542816262
 41
5.439606047153917
 42
6.593917359001544
  0
LINE
  5
1482
330
1F
100
AcDbEntity
  8
SANINDUSA
370
    15
100
AcDbLine
 10
4585.01301182497
 20
2350.829989455909
 30
0.0
 11
4585.066351522391
 21
2350.809326177732
 31
0.0
  0
ELLIPSE
  5
1483
330
1F
100
AcDbEntity
  8
SANINDUSA
370
    15
100
AcDbEllipse
 10
4585.006334254627
 20
2350.829731939402
 30
0.0
 11
0.0070009915378023
 21
0.0000008458685622
 31
0.0
210
0.0
220
0.0
230
1.0
 40
0.1220570790581146
 41
0.305126487936637
 42
2.650499454114072
  0
LINE
  5
1484
330
1F
100
AcDbEntity
  8
SANINDUSA
370
    15
100
AcDbLine
 10
4584.936315041665
 20
2350.815554442153
 30
0.0
 11
4585.00016060162
 21
2350.830134175987
 31
0.0
  0
ELLIPSE
  5
1485
330
1F
100
AcDbEntity
  8
SANINDUSA
370
    15
100
AcDbEllipse
 10
4584.946911487139
 20
2350.81486787053
 30
0.0
 11
0.0120296179288742
 21
0.0000109564713826
 31
0.0
210
0.0
220
0.0
230
1.0
 40
0.122237189242353
 41
2.648366380834749
 42
3.132933329004137
  0
LINE
  5
1486
330
1F
100
AcDbEntity
  8
SANINDUSA
370
    15
100
AcDbLine
 10
4584.934520062689
 20
2350.809689367459
 30
0.0
 11
4584.934882309918
 21
2350.814869648115
 31
0.0
  0
ELLIPSE
  5
1487
330
1F
100
AcDbEntity
  8
SANINDUSA
370
    15
100
AcDbEllipse
 10
4584.946549877877
 20
2350.809696617144
 30
0.0
 11
0.0120302604974164
 21
0.000020463633342
 31
0.0
210
0.0
220
0.0
230
1.0
 40
0.1238263683797913
 41
3.132722417649045
 42
4.158955376123875
  0
LINE
  5
1489
330
1F
100
AcDbEntity
  8
SANINDUSA
370
    15
100
AcDbLine
 10
4584.939977776889
 20
2350.808407735348
 30
0.0
 11
4584.910498586181
 21
2350.808407735348
 31
0.0
  0
LINE
  5
148C
330
1F
100
AcDbEntity
  8
SANINDUSA
370
    15
100
AcDbLine
 10
4585.374615263824
 20
2350.808407735348
 30
0.0
 11
4585.40409445453
 21
2350.808407735348
 31
0.0
  0
ELLIPSE
  5
148E
330
1F
100
AcDbEntity
  8
SANINDUSA
370
    15
100
AcDbEllipse
 10
4585.368043162835
 20
2350.809696617144
 30
0.0
 11
0.0120302604974164
 21
-0.0000204636333419
 31
0.0
210
0.0
220
0.0
230
1.0
 40
0.1238263683797909
 41
5.265822584645533
 42
6.292055543120348
  0
LINE
  5
148F
330
1F
100
AcDbEntity
  8
SANINDUSA
370
    15
100
AcDbLine
 10
4585.379710730795
 20
2350.814869648115
 30
0.0
 11
4585.380072978024
 21
2350.809689367459
 31
0.0
  0
ELLIPSE
  5
1490
330
1F
100
AcDbEntity
  8
SANINDUSA
370
    15
100
AcDbEllipse
 10
4585.367681553573
 20
2350.81486787053
 30
0.0
 11
0.0120296179288742
 21
-0.0000109564713824
 31
0.0
210
0.0
220
0.0
230
1.0
 40
0.1222371892423526
 41
0.0086593245855591
 42
0.4932262727549696
  0
LINE
  5
1491
330
1F
100
AcDbEntity
  8
SANINDUSA
370
    15
100
AcDbLine
 10
4585.314432439093
 20
2350.830134175987
 30
0.0
 11
4585.378277999048
 21
2350.815554442153
 31
0.0
  0
ELLIPSE
  5
1492
330
1F
100
AcDbEntity
  8
SANINDUSA
370
    15
100
AcDbEllipse
 10
4585.308258786085
 20
2350.829731939402
 30
0.0
 11
0.0070009915378023
 21
-0.0000008458685622
 31
0.0
210
0.0
220
0.0
230
0.9999999999999998
 40
0.122057079058114
 41
0.4910931994757208
 42
2.836466165653157
  0
LINE
  5
1493
330
1F
100
AcDbEntity
  8
SANINDUSA
370
    15
100
AcDbLine
 10
4585.248241518323
 20
2350.809326177732
 30
0.0
 11
4585.301581215744
 21
2350.829989455909
 31
0.0
  0
ELLIPSE
  5
1494
330
1F
100
AcDbEntity
  8
SANINDUSA
370
    15
100
AcDbEllipse
 10
4585.254937688983
 20
2350.80907586547
 30
0.0
 11
0.0070323429095706
 21
0.0000161317917593
 31
0.0
210
0.0
220
0.0
230
1.0
 40
0.1235580542816249
 41
2.830860601767937
 42
3.985171913615569
  0
LINE
  5
1496
330
1F
100
AcDbEntity
  8
SANINDUSA
370
    15
100
AcDbLine
 10
4585.250068303827
 20
2350.808407735348
 30
0.0
 11
4585.222658929114
 21
2350.808407735348
 31
0.0
  0
SPLINE
  5
1497
330
1F
100
AcDbEntity
  8
SANINDUSA
370
    15
100
AcDbSpline
210
0.0
220
0.0
230
1.0
 70
     8
 71
     3
 72
    12
 73
     8
 74
     0
 42
0.0000000001
 43
0.0000000001
 40
0.0
 40
0.0
 40
0.0
 40
0.0
 40
0.4999999999999978
 40
0.4999999999999978
 40
0.749999999999999
 40
0.749999999999999
 40
1.0
 40
1.0
 40
1.0
 40
1.0
 10
4585.224856704289
 20
2350.808916811799
 30
0.0
 10
4585.224629618401
 20
2350.80882355426
 30
0.0
 10
4585.224331934695
 20
2350.808734519768
 30
0.0
 10
4585.22378280942
 20
2350.808607105379
 30
0.0
 10
4585.223582543846
 20
2350.808565664217
 30
0.0
 10
4585.223146605029
 20
2350.808484899922
 30
0.0
 10
4585.222910385748
 20
2350.808445517977
 30
0.0
 10
4585.2226589345
 20
2350.808407736872
 30
0.0
  0
LINE
  5
1498
330
1F
100
AcDbEntity
  8
SANINDUSA
370
    15
100
AcDbLine
 10
4585.270979796235
 20
2350.827858217329
 30
0.0
 11
4585.224856701379
 21
2350.808916811169
 31
0.0
  0
ELLIPSE
  5
1499
330
1F
100
AcDbEntity
  8
SANINDUSA
370
    15
100
AcDbEllipse
 10
4585.371993016357
 20
2350.82488901531
 30
0.0
 11
0.0070186160920184
 21
-0.0000265108400703
 31
0.0
210
0.0
220
0.0
230
0.9999999999999998
 40
0.1317553798700004
 41
3.656367091558396
 42
6.292898469717791
  0
LINE
  5
149A
330
1F
100
AcDbEntity
  8
SANINDUSA
370
    15
100
AcDbLine
 10
4585.377301198129
 20
2350.849327590585
 30
0.0
 11
4585.379011329894
 21
2350.824871488184
 31
0.0
  0
ELLIPSE
  5
149B
330
1F
100
AcDbEntity
  8
SANINDUSA
370
    15
100
AcDbEllipse
 10
4585.370284395414
 20
2350.849323433168
 30
0.0
 11
0.0070170568645227
 21
-0.0000031622486782
 31
0.0
210
0.0
220
0.0
230
1.0
 40
0.1217391130940803
 41
0.0085677503575435
 42
1.574498092320552
  0
LINE
  5
149C
330
1F
100
AcDbEntity
  8
SANINDUSA
370
    15
100
AcDbLine
 10
4585.268899929409
 20
2350.850177690656
 30
0.0
 11
4585.370258805041
 21
2350.850177690656
 31
0.0
  0
ELLIPSE
  5
149D
330
1F
100
AcDbEntity
  8
SANINDUSA
370
    15
100
AcDbEllipse
 10
4585.268857477948
 20
2350.849323433168
 30
0.0
 11
0.0070468340380124
 21
0.0000052226838002
 31
0.0
210
0.0
220
0.0
230
0.9999999999999998
 40
0.1212232560611698
 41
1.564682567537757
 42
3.613198318600471
  0
LINE
  5
149E
330
1F
100
AcDbEntity
  8
SANINDUSA
370
    15
100
AcDbLine
 10
4585.365882259492
 20
2350.824456803769
 30
0.0
 11
4585.262580160682
 21
2350.848930683256
 31
0.0
  0
ELLIPSE
  5
149F
330
1F
100
AcDbEntity
  8
SANINDUSA
370
    15
100
AcDbEllipse
 10
4584.944308645298
 20
2350.849323433168
 30
0.0
 11
0.0070170568645228
 21
0.000003162248678
 31
0.0
210
0.0
220
0.0
230
0.9999999999999998
 40
0.1217391130940784
 41
1.567094561269243
 42
3.133024903232416
  0
LINE
  5
14A0
330
1F
100
AcDbEntity
  8
SANINDUSA
370
    15
100
AcDbLine
 10
4584.935581710819
 20
2350.824871488184
 30
0.0
 11
4584.937291842584
 21
2350.849327590585
 31
0.0
  0
ELLIPSE
  5
14A1
330
1F
100
AcDbEntity
  8
SANINDUSA
370
    15
100
AcDbEllipse
 10
4584.942600024357
 20
2350.82488901531
 30
0.0
 11
0.0070186160920185
 21
0.0000265108400703
 31
0.0
210
0.0
220
0.0
230
0.9999999999999998
 40
0.1317553798699991
 41
3.131879491051689
 42
5.768410869211143
  0
LINE
  5
14A2
330
1F
100
AcDbEntity
  8
SANINDUSA
370
    15
100
AcDbLine
 10
4585.052012880032
 20
2350.848930683256
 30
0.0
 11
4584.948710781221
 21
2350.824456803769
 31
0.0
  0
ELLIPSE
  5
14A3
330
1F
100
AcDbEntity
  8
SANINDUSA
370
    15
100
AcDbEllipse
 10
4585.045735562764
 20
2350.849323433168
 30
0.0
 11
0.0070468340380123
 21
-0.0000052226838004
 31
0.0
210
0.0
220
0.0
230
0.9999999999999998
 40
0.121223256061171
 41
5.811579642169227
 42
7.860095393231626
  0
LINE
  5
14A4
330
1F
100
AcDbEntity
  8
SANINDUSA
370
    15
100
AcDbLine
 10
4584.944334235673
 20
2350.850177690656
 30
0.0
 11
4585.045693111305
 21
2350.850177690656
 31
0.0
  0
ARC
  5
14A6
330
1F
100
AcDbEntity
  8
SANINDUSA
370
    15
100
AcDbCircle
 10
4584.910492018512
 20
2350.813407735795
 30
0.0
 40
0.005
100
AcDbArc
 50
189.9999999966986
 51
270.0
  0
LINE
  5
14A7
330
1F
100
AcDbEntity
  8
SANINDUSA
370
    15
100
AcDbLine
 10
4584.905567985658
 20
2350.812539495796
 30
0.0
 11
4584.897444081192
 21
2350.858612463147
 31
0.0
  0
ARC
  5
14A8
330
1F
100
AcDbEntity
  8
SANINDUSA
370
    15
100
AcDbCircle
 10
4585.404101022201
 20
2350.813407735795
 30
0.0
 40
0.005
100
AcDbArc
 50
270.0
 51
350.0000000033014
  0
LINE
  5
14AA
330
1F
100
AcDbEntity
  8
SANINDUSA
370
    15
100
AcDbLine
 10
4585.417148959521
 20
2350.858612463147
 30
0.0
 11
4585.409025055056
 21
2350.812539495796
 31
0.0
  0
LINE
  5
14B9
330
1F
100
AcDbEntity
  8
SANINDUSA
370
    15
100
AcDbLine
 10
4585.157296520356
 20
2350.778369442073
 30
0.0
 11
4585.123764787499
 21
2350.778369442073
 31
0.0
  0
LINE
  5
14BA
330
1F
100
AcDbEntity
  8
SANINDUSA
370
    15
100
AcDbLine
 10
4585.190828253214
 20
2350.778369442073
 30
0.0
 11
4585.157296520356
 21
2350.778369442073
 31
0.0
  0
SPLINE
  5
14DE
330
1F
100
AcDbEntity
  8
SANINDUSA
370
    15
100
AcDbSpline
210
0.0
220
0.0
230
1.0
 70
    24
 71
     3
 72
    11
 73
     7
 74
     0
 42
0.0000000001
 43
0.0000000001
 40
0.0
 40
0.0
 40
0.0
 40
0.0
 40
0.0534804763785629
 40
0.2620160565751424
 40
0.6832729039342932
 40
1.0
 40
1.0
 40
1.0
 40
1.0
 10
4585.222658929114
 20
2350.808407735348
 30
0.0
 10
4585.222542324001
 20
2350.808407735348
 30
0.0
 10
4585.221971042408
 20
2350.808407735348
 30
0.0
 10
4585.220723984851
 20
2350.808407735348
 30
0.0
 10
4585.218865209092
 20
2350.808407735348
 30
0.0
 10
4585.217283175317
 20
2350.808407735348
 30
0.0
 10
4585.21660419989
 20
2350.808407735348
 30
0.0
  0
SPLINE
  5
14DF
330
1F
100
AcDbEntity
  8
SANINDUSA
370
    15
100
AcDbSpline
210
0.0
220
0.0
230
1.0
 70
    24
 71
     3
 72
    12
 73
     8
 74
     0
 42
0.0000000001
 43
0.0000000001
 40
0.0
 40
0.0
 40
0.0
 40
0.0
 40
0.2378971374073834
 40
0.6174321976380667
 40
0.8668741076882877
 40
0.9538715557960346
 40
0.9999999999999998
 40
0.9999999999999998
 40
0.9999999999999998
 40
0.9999999999999998
 10
4585.097988840822
 20
2350.808407735348
 30
0.0
 10
4585.09746584206
 20
2350.808407735348
 30
0.0
 10
4585.096108464335
 20
2350.808407735348
 30
0.0
 10
4585.094409980716
 20
2350.808407735348
 30
0.0
 10
4585.09306540754
 20
2350.808407735348
 30
0.0
 10
4585.092327110211
 20
2350.808407735348
 30
0.0
 10
4585.092035243961
 20
2350.808407735348
 30
0.0
 10
4585.091934111599
 20
2350.808407735348
 30
0.0
  0
LINE
  5
14E2
330
1F
100
AcDbEntity
  8
SANINDUSA
370
    15
100
AcDbLine
 10
4585.374615263824
 20
2350.808407735348
 30
0.0
 11
4585.368190777187
 21
2350.808407735348
 31
0.0
  0
LINE
  5
14E3
330
1F
100
AcDbEntity
  8
SANINDUSA
370
    15
100
AcDbLine
 10
4584.946402263526
 20
2350.808407735348
 30
0.0
 11
4584.939977776889
 21
2350.808407735348
 31
0.0
  0
LINE
  5
14E5
330
1F
100
AcDbEntity
  8
SANINDUSA
370
    15
100
AcDbLine
 10
4585.064524736885
 20
2350.808407735348
 30
0.0
 11
4585.059763458256
 21
2350.808407735348
 31
0.0
  0
LINE
  5
14E8
330
1F
100
AcDbEntity
  8
SANINDUSA
370
    15
100
AcDbLine
 10
4585.254829582457
 20
2350.808407735348
 30
0.0
 11
4585.250068303827
 21
2350.808407735348
 31
0.0
  0
LINE
  5
14E9
330
1F
100
AcDbEntity
  8
SANINDUSA
370
    15
100
AcDbLine
 10
4585.059763458256
 20
2350.808407735348
 30
0.0
 11
4584.946402263526
 21
2350.808407735348
 31
0.0
  0
LINE
  5
14EA
330
1F
100
AcDbEntity
  8
SANINDUSA
370
    15
100
AcDbLine
 10
4585.368190777187
 20
2350.808407735348
 30
0.0
 11
4585.254829582457
 21
2350.808407735348
 31
0.0
  0
SPLINE
  5
14F6
330
1F
100
AcDbEntity
  8
SANINDUSA
370
    15
100
AcDbSpline
210
0.0
220
0.0
230
1.0
 70
     8
 71
     3
 72
    24
 73
    20
 74
     0
 42
0.0000000001
 43
0.0000000001
 40
0.0
 40
0.0
 40
0.0
 40
0.0
 40
0.0434100402013362
 40
0.1013666391542261
 40
0.1593247247905556
 40
0.2157065917610271
 40
0.2720896389006169
 40
0.3301451402453623
 40
0.3882014360119356
 40
0.4446717041495206
 40
0.5011424917756907
 40
0.5592275087313887
 40
0.6173133018689619
 40
0.6736343423757142
 40
0.729955292556669
 40
0.7878517567625119
 40
0.8457481948076004
 40
0.9223857969706758
 40
1.0
 40
1.0
 40
1.0
 40
1.0
 10
4585.093757037703
 20
2350.819795847208
 30
0.0
 10
4585.093898368118
 20
2350.819808712729
 30
0.0
 10
4585.094228388294
 20
2350.819838754965
 30
0.0
 10
4585.095297387637
 20
2350.819947826952
 30
0.0
 10
4585.096853915526
 20
2350.820100233764
 30
0.0
 10
4585.098845510338
 20
2350.820281655467
 30
0.0
 10
4585.101240954222
 20
2350.820480227479
 30
0.0
 10
4585.104062098944
 20
2350.820688494026
 30
0.0
 10
4585.107264798577
 20
2350.820897667697
 30
0.0
 10
4585.110789003521
 20
2350.821099905514
 30
0.0
 10
4585.11463093655
 20
2350.821294723616
 30
0.0
 10
4585.118809445924
 20
2350.821480708802
 30
0.0
 10
4585.123254030609
 20
2350.821652607494
 30
0.0
 10
4585.127886894432
 20
2350.82180492604
 30
0.0
 10
4585.132712037203
 20
2350.821935327401
 30
0.0
 10
4585.137753081936
 20
2350.822040684461
 30
0.0
 10
4585.143541243996
 20
2350.822127228627
 30
0.0
 10
4585.150069569429
 20
2350.822185532757
 30
0.0
 10
4585.154877390269
 20
2350.822192833001
 30
0.0
 10
4585.157296520356
 20
2350.822196506233
 30
0.0
  0
SPLINE
  5
14F8
330
1F
100
AcDbEntity
  8
SANINDUSA
370
    15
100
AcDbSpline
210
0.0
220
0.0
230
1.0
 70
     8
 71
     3
 72
    24
 73
    20
 74
     0
 42
0.0000000001
 43
0.0000000001
 40
0.0
 40
0.0
 40
0.0
 40
0.0
 40
0.0434128117565818
 40
0.1013692427901722
 40
0.159327160502895
 40
0.2157088641165828
 40
0.2720917478959696
 40
0.330147081034863
 40
0.3882032085932825
 40
0.4446733131179565
 40
0.5011439371297107
 40
0.5592287857940402
 40
0.617314410637996
 40
0.6736352879641987
 40
0.7299560749648659
 40
0.7878523714256394
 40
0.8457486417257344
 40
0.9223860218445095
 40
1.0
 40
1.0
 40
1.0
 40
1.0
 10
4585.220836040263
 20
2350.819795843483
 30
0.0
 10
4585.220694699263
 20
2350.819808710051
 30
0.0
 10
4585.220364666967
 20
2350.819838753584
 30
0.0
 10
4585.219295654542
 20
2350.819947826771
 30
0.0
 10
4585.217739124805
 20
2350.820100233812
 30
0.0
 10
4585.215747530475
 20
2350.820281655455
 30
0.0
 10
4585.213352086461
 20
2350.820480227482
 30
0.0
 10
4585.210530941777
 20
2350.820688494025
 30
0.0
 10
4585.207328242133
 20
2350.820897667698
 30
0.0
 10
4585.203804037191
 20
2350.821099905514
 30
0.0
 10
4585.199962104161
 20
2350.821294723616
 30
0.0
 10
4585.195783594788
 20
2350.821480708802
 30
0.0
 10
4585.191339010104
 20
2350.821652607494
 30
0.0
 10
4585.18670614628
 20
2350.82180492604
 30
0.0
 10
4585.181881003509
 20
2350.821935327401
 30
0.0
 10
4585.176839958776
 20
2350.822040684461
 30
0.0
 10
4585.171051796717
 20
2350.822127228627
 30
0.0
 10
4585.164523471283
 20
2350.822185532757
 30
0.0
 10
4585.159715650443
 20
2350.822192833001
 30
0.0
 10
4585.157296520356
 20
2350.822196506233
 30
0.0
  0
SPLINE
  5
1520
330
1F
100
AcDbEntity
  8
SANINDUSA
370
    15
100
AcDbSpline
210
0.0
220
0.0
230
1.0
 70
    24
 71
     1
 72
     4
 73
     2
 74
     0
 42
0.0000000001
 43
0.0000000001
 40
0.0
 40
0.0
 40
1.0
 40
1.0
 10
4585.82232849678
 20
2350.818293029711
 30
0.0
 10
4585.822777081336
 20
2350.805447470666
 30
0.0
  0
SPLINE
  5
1521
330
1F
100
AcDbEntity
  8
SANINDUSA
370
    15
100
AcDbSpline
210
0.0
220
0.0
230
1.0
 70
    24
 71
     1
 72
     4
 73
     2
 74
     0
 42
0.0000000001
 43
0.0000000001
 40
0.0
 40
0.0
 40
1.0
 40
1.0
 10
4585.941185686793
 20
2350.805447470666
 30
0.0
 10
4585.941612813677
 20
2350.817678844825
 30
0.0
  0
LINE
  5
1522
330
1F
100
AcDbEntity
  8
SANINDUSA
370
    15
100
AcDbLine
 10
4585.666981387939
 20
2350.888407737286
 30
0.0
 11
4585.658981371726
 21
2350.888407737286
 31
0.0
  0
ARC
  5
1523
330
1F
100
AcDbEntity
  8
SANINDUSA
370
    15
100
AcDbCircle
 10
4585.658981385554
 20
2350.890407735795
 30
0.0
 40
0.002
100
AcDbArc
 50
180.0
 51
270.0
  0
ARC
  5
1527
330
1F
100
AcDbEntity
  8
SANINDUSA
370
    15
100
AcDbCircle
 10
4585.660981385554
 20
2350.914407735795
 30
0.0
 40
0.0040000000000001
100
AcDbArc
 50
90.0
 51
180.0
  0
LINE
  5
1528
330
1F
100
AcDbEntity
  8
SANINDUSA
370
    15
100
AcDbLine
 10
4585.66098137578
 20
2350.918407731027
 30
0.0
 11
4585.666981387939
 21
2350.918407731027
 31
0.0
  0
LINE
  5
152B
330
1F
100
AcDbEntity
  8
SANINDUSA
370
    15
100
AcDbLine
 10
4585.656981397476
 20
2350.890407733888
 30
0.0
 11
4585.656981397476
 21
2350.914407737822
 31
0.0
  0
LINE
  5
152C
330
1F
100
AcDbEntity
  8
SANINDUSA
370
    15
100
AcDbLine
 10
4586.111981385442
 20
2350.888407737286
 30
0.0
 11
4585.666981387939
 21
2350.888407737286
 31
0.0
  0
LINE
  5
1531
330
1F
100
AcDbEntity
  8
SANINDUSA
370
    15
100
AcDbLine
 10
4585.666981387939
 20
2350.918407731027
 30
0.0
 11
4586.111981385442
 21
2350.918407731027
 31
0.0
  0
LINE
  5
1534
330
1F
100
AcDbEntity
  8
SANINDUSA
370
    15
100
AcDbLine
 10
4586.121981385219
 20
2350.914407737822
 30
0.0
 11
4586.121981385219
 21
2350.890407733888
 31
0.0
  0
LINE
  5
1536
330
1F
100
AcDbEntity
  8
SANINDUSA
370
    15
100
AcDbLine
 10
4586.111981385442
 20
2350.918407731027
 30
0.0
 11
4586.117981385495
 21
2350.918407731027
 31
0.0
  0
ARC
  5
1537
330
1F
100
AcDbEntity
  8
SANINDUSA
370
    15
100
AcDbCircle
 10
4586.117981385554
 20
2350.914407735795
 30
0.0
 40
0.0040000000000001
100
AcDbArc
 50
0.0
 51
90.0
  0
LINE
  5
1538
330
1F
100
AcDbEntity
  8
SANINDUSA
370
    15
100
AcDbLine
 10
4586.119981385823
 20
2350.888407737286
 30
0.0
 11
4586.111981385442
 21
2350.888407737286
 31
0.0
  0
ARC
  5
1539
330
1F
100
AcDbEntity
  8
SANINDUSA
370
    15
100
AcDbCircle
 10
4586.119981385555
 20
2350.890407735795
 30
0.0
 40
0.002
100
AcDbArc
 50
270.0
 51
0.0
  0
LINE
  5
153D
330
1F
100
AcDbEntity
  8
SANINDUSA
370
    15
100
AcDbLine
 10
4586.072087545003
 20
2350.888407737286
 30
0.0
 11
4586.06683383515
 21
2350.858612463147
 31
0.0
  0
LINE
  5
1540
330
1F
100
AcDbEntity
  8
SANINDUSA
370
    15
100
AcDbLine
 10
4585.656981397476
 20
2350.813407736168
 30
0.0
 11
4585.656981397476
 21
2350.890407733888
 31
0.0
  0
LINE
  5
1542
330
1F
100
AcDbEntity
  8
SANINDUSA
370
    15
100
AcDbLine
 10
4586.062519140597
 20
2350.854517974228
 30
0.0
 11
4585.686981398668
 21
2350.808407735348
 31
0.0
  0
ARC
  5
1545
330
1F
100
AcDbEntity
  8
SANINDUSA
370
    15
100
AcDbCircle
 10
4586.061909794959
 20
2350.859480705041
 30
0.0
 40
0.0050000000000001
100
AcDbArc
 50
276.9999999915293
 51
350.0000000033014
  0
ARC
  5
1546
330
1F
100
AcDbEntity
  8
SANINDUSA
370
    15
100
AcDbCircle
 10
4585.661981385555
 20
2350.813407735795
 30
0.0
 40
0.005
100
AcDbArc
 50
180.0
 51
270.0
  0
LINE
  5
1548
330
1F
100
AcDbEntity
  8
SANINDUSA
370
    15
100
AcDbLine
 10
4585.686981339063
 20
2350.808407735348
 30
0.0
 11
4585.661981392707
 21
2350.808407735348
 31
0.0
  0
SPLINE
  5
1549
330
1F
100
AcDbEntity
  8
SANINDUSA
370
    15
100
AcDbSpline
210
0.0
220
0.0
230
1.0
 70
     8
 71
     3
 72
    11
 73
     7
 74
     0
 42
0.0000000001
 43
0.0000000001
 40
0.0
 40
0.0
 40
0.0
 40
0.0
 40
0.2039071956340368
 40
0.4084153801888432
 40
0.7139545727315689
 40
1.0
 40
1.0
 40
1.0
 40
1.0
 10
4585.944882456269
 20
2350.822196506233
 30
0.0
 10
4585.948111810907
 20
2350.823444473197
 30
0.0
 10
4585.95458003827
 20
2350.825944085339
 30
0.0
 10
4585.96555948748
 20
2350.831090455218
 30
0.0
 10
4585.977467523213
 20
2350.837509271107
 30
0.0
 10
4585.985898035037
 20
2350.842970138961
 30
0.0
 10
4585.989974390771
 20
2350.845610600234
 30
0.0
  0
SPLINE
  5
154A
330
1F
100
AcDbEntity
  8
SANINDUSA
370
    15
100
AcDbSpline
210
0.0
220
0.0
230
1.0
 70
     8
 71
     3
 72
    43
 73
    39
 74
     0
 42
0.0000000001
 43
0.0000000001
 40
0.0
 40
0.0
 40
0.0
 40
0.0
 40
0.0338320895606371
 40
0.0680420517894843
 40
0.0943027392617549
 40
0.1205634191463516
 40
0.1475458255534439
 40
0.1745282469469285
 40
0.2008725472035589
 40
0.2272166133699647
 40
0.2543014826735078
 40
0.2813860689159446
 40
0.3079119712603249
 40
0.3344374727854998
 40
0.3617479964603799
 40
0.3890579665489317
 40
0.4157522376701726
 40
0.4424458837350806
 40
0.469993002849424
 40
0.4975406529185914
 40
0.5239543057247863
 40
0.5503674485578816
 40
0.5776091869779464
 40
0.6048516241940432
 40
0.6313531805205793
 40
0.6578552915701151
 40
0.6851435177609724
 40
0.7124321173593801
 40
0.7389752254938906
 40
0.7655185778071899
 40
0.7928206774234625
 40
0.8201231418738347
 40
0.8465961075196959
 40
0.8730690307091022
 40
0.9002825035808324
 40
0.9274959641560435
 40
0.9635184628703747
 40
1.0
 40
1.0
 40
1.0
 40
1.0
 10
4585.819345016088
 20
2350.822695210845
 30
0.0
 10
4585.819413139655
 20
2350.822691138063
 30
0.0
 10
4585.819550147667
 20
2350.822682947009
 30
0.0
 10
4585.820570439689
 20
2350.822617189611
 30
0.0
 10
4585.821988647413
 20
2350.822520478065
 30
0.0
 10
4585.823704153451
 20
2350.822401272429
 30
0.0
 10
4585.825840444726
 20
2350.822251819252
 30
0.0
 10
4585.828375212304
 20
2350.822077418403
 30
0.0
 10
4585.83126393359
 20
2350.821885085997
 30
0.0
 10
4585.834505651649
 20
2350.821677489312
 30
0.0
 10
4585.838118199418
 20
2350.821455567505
 30
0.0
 10
4585.842056968332
 20
2350.821223520306
 30
0.0
 10
4585.846257521925
 20
2350.820986169493
 30
0.0
 10
4585.850726235112
 20
2350.820746605872
 30
0.0
 10
4585.855473135259
 20
2350.820509341798
 30
0.0
 10
4585.860431934572
 20
2350.820286650867
 30
0.0
 10
4585.865518011043
 20
2350.820091237504
 30
0.0
 10
4585.870744731788
 20
2350.819932051919
 30
0.0
 10
4585.876117692469
 20
2350.819821360028
 30
0.0
 10
4585.881519482959
 20
2350.819767004406
 30
0.0
 10
4585.886849674269
 20
2350.819773411545
 30
0.0
 10
4585.892124237958
 20
2350.819834009865
 30
0.0
 10
4585.897375539564
 20
2350.819946738405
 30
0.0
 10
4585.902513791668
 20
2350.820100516605
 30
0.0
 10
4585.907450065366
 20
2350.820281580636
 30
0.0
 10
4585.912204372567
 20
2350.820480248194
 30
0.0
 10
4585.916781168198
 20
2350.820688488402
 30
0.0
 10
4585.921102640228
 20
2350.820897669158
 30
0.0
 10
4585.925100298129
 20
2350.821099905127
 30
0.0
 10
4585.928795261916
 20
2350.821294723723
 30
0.0
 10
4585.932186503113
 20
2350.821480708773
 30
0.0
 10
4585.93521300445
 20
2350.821652607501
 30
0.0
 10
4585.937833038416
 20
2350.821804926037
 30
0.0
 10
4585.940065952772
 20
2350.821935327401
 30
0.0
 10
4585.941910617893
 20
2350.822040684461
 30
0.0
 10
4585.943484662942
 20
2350.822127228627
 30
0.0
 10
4585.944644608375
 20
2350.822185532757
 30
0.0
 10
4585.944802839705
 20
2350.822192833001
 30
0.0
 10
4585.944882456269
 20
2350.822196506233
 30
0.0
  0
SPLINE
  5
154B
330
1F
100
AcDbEntity
  8
SANINDUSA
370
    15
100
AcDbSpline
210
0.0
220
0.0
230
1.0
 70
    24
 71
     1
 72
     4
 73
     2
 74
     0
 42
0.0000000001
 43
0.0000000001
 40
0.0
 40
0.0
 40
1.0
 40
1.0
 10
4585.81601934513
 20
2350.824251603604
 30
0.0
 10
4585.819345016088
 20
2350.822695210845
 30
0.0
  0
SPLINE
  5
154D
330
1F
100
AcDbEntity
  8
SANINDUSA
370
    15
100
AcDbSpline
210
0.0
220
0.0
230
1.0
 70
     8
 71
     3
 72
    19
 73
    15
 74
     0
 42
0.0000000001
 43
0.0000000001
 40
0.0
 40
0.0
 40
0.0
 40
0.0
 40
0.2499999999999905
 40
0.2499999999999905
 40
0.374999999999992
 40
0.374999999999992
 40
0.4999999999999937
 40
0.4999999999999937
 40
0.6249999999999952
 40
0.6249999999999952
 40
0.7499999999999968
 40
0.8749999999999984
 40
0.8749999999999984
 40
1.0
 40
1.0
 40
1.0
 40
1.0
 10
4585.822328503446
 20
2350.818293029318
 30
0.0
 10
4585.822312053394
 20
2350.818764097148
 30
0.0
 10
4585.82223068053
 20
2350.819221761568
 30
0.0
 10
4585.822013576797
 20
2350.819888636137
 30
0.0
 10
4585.821924541087
 20
2350.820108205673
 30
0.0
 10
4585.82171942235
 20
2350.82052704707
 30
0.0
 10
4585.821602896491
 20
2350.820728077602
 30
0.0
 10
4585.821342096217
 20
2350.821113469122
 30
0.0
 10
4585.821196797321
 20
2350.821298933361
 30
0.0
 10
4585.820881846114
 20
2350.821647056832
 30
0.0
 10
4585.82054567943
 20
2350.821969603843
 30
0.0
 10
4585.820168364619
 20
2350.822242544451
 30
0.0
 10
4585.81976988833
 20
2350.822489973699
 30
0.0
 10
4585.819560738157
 20
2350.82260030168
 30
0.0
 10
4585.819345014312
 20
2350.822695207341
 30
0.0
  0
ARC
  5
154E
330
1F
100
AcDbEntity
  8
SANINDUSA
370
    15
100
AcDbCircle
 10
4585.946609774034
 20
2350.817504348182
 30
0.0
 40
0.0050000000000205
100
AcDbArc
 50
110.2101516591625
 51
177.9999999962464
  0
LINE
  5
154F
330
1F
100
AcDbEntity
  8
SANINDUSA
370
    15
100
AcDbLine
 10
4585.915513109472
 20
2350.778369442073
 30
0.0
 11
4585.848449658658
 21
2350.778369442073
 31
0.0
  0
SPLINE
  5
1556
330
1F
100
AcDbEntity
  8
SANINDUSA
100
AcDbSpline
210
0.0
220
0.0
230
1.0
 70
     8
 71
     3
 72
    30
 73
    26
 74
     0
 42
0.0000000001
 43
0.0000000001
 40
0.0
 40
0.0
 40
0.0
 40
0.0
 40
0.053252918435721
 40
0.106483027601706
 40
0.1596869892793603
 40
0.2130740718316088
 40
0.2662598725095873
 40
0.3178520303967543
 40
0.3695734248935056
 40
0.4211418552321201
 40
0.4590073836660647
 40
0.4969487275412338
 40
0.5347687601604577
 40
0.5682035069978846
 40
0.6040803260384516
 40
0.6400809579194392
 40
0.6759627485868834
 40
0.7085821401534957
 40
0.7543905369028173
 40
0.8004124227200524
 40
0.8462455305590699
 40
0.890865002026349
 40
0.9356605997449662
 40
0.9802942472299667
 40
1.0
 40
1.0
 40
1.0
 40
1.0
 10
4584.374430674942
 20
2350.936527436451
 30
0.0
 10
4584.370772702862
 20
2350.936498921196
 30
0.0
 10
4584.363458325484
 20
2350.9364419029
 30
0.0
 10
4584.352507844128
 20
2350.936319484178
 30
0.0
 10
4584.341648655558
 20
2350.936912698814
 30
0.0
 10
4584.331059630449
 20
2350.938440752664
 30
0.0
 10
4584.320991860289
 20
2350.940919637007
 30
0.0
 10
4584.311551438667
 20
2350.944269229641
 30
0.0
 10
4584.302743054627
 20
2350.948333334163
 30
0.0
 10
4584.29530738596
 20
2350.952766255588
 30
0.0
 10
4584.28917559748
 20
2350.957373471312
 30
0.0
 10
4584.284237309288
 20
2350.961986713433
 30
0.0
 10
4584.280100415853
 20
2350.966918829861
 30
0.0
 10
4584.276708223248
 20
2350.972215741292
 30
0.0
 10
4584.274085820821
 20
2350.977831678864
 30
0.0
 10
4584.272179574223
 20
2350.98392712525
 30
0.0
 10
4584.271100072064
 20
2350.990099279962
 30
0.0
 10
4584.270738422025
 20
2350.997036989326
 30
0.0
 10
4584.271324343593
 20
2351.004724808122
 30
0.0
 10
4584.27316316936
 20
2351.013227004044
 30
0.0
 10
4584.276101038557
 20
2351.021512252802
 30
0.0
 10
4584.28009424458
 20
2351.029432086457
 30
0.0
 10
4584.285014153286
 20
2351.036865120157
 30
0.0
 10
4584.28970719603
 20
2351.042517440502
 30
0.0
 10
4584.292791888638
 20
2351.045587238647
 30
0.0
 10
4584.293736662598
 20
2351.046527450757
 30
0.0
  0
SPLINE
  5
155A
330
1F
100
AcDbEntity
  8
SANINDUSA
100
AcDbSpline
210
0.0
220
0.0
230
1.0
 70
     8
 71
     3
 72
    17
 73
    13
 74
     0
 42
0.0000000001
 43
0.0000000001
 40
0.0
 40
0.0
 40
0.0
 40
0.0
 40
0.0615554364965656
 40
0.1231102806063517
 40
0.2270259239029448
 40
0.3309343179920873
 40
0.4392188368433665
 40
0.5475051456507851
 40
0.660785095477252
 40
0.7741078770555752
 40
0.8870271514700432
 40
1.0
 40
1.0
 40
1.0
 40
1.0
 10
4584.33506016794
 20
2351.02208519526
 30
0.0
 10
4584.335108391651
 20
2351.02084379843
 30
0.0
 10
4584.335204838608
 20
2351.018361016719
 30
0.0
 10
4584.335941809129
 20
2351.013832256945
 30
0.0
 10
4584.337494856828
 20
2351.008601825368
 30
0.0
 10
4584.340309529371
 20
2351.002847809486
 30
0.0
 10
4584.344138067518
 20
2350.997599637268
 30
0.0
 10
4584.348945678331
 20
2350.992954038964
 30
0.0
 10
4584.354606703291
 20
2350.989199552256
 30
0.0
 10
4584.360911037444
 20
2350.986458231744
 30
0.0
 10
4584.367590381911
 20
2350.984777811127
 30
0.0
 10
4584.372150215221
 20
2350.984570941427
 30
0.0
 10
4584.374430672597
 20
2350.984467482047
 30
0.0
  0
SPLINE
  5
155B
330
1F
100
AcDbEntity
  8
SANINDUSA
100
AcDbSpline
210
0.0
220
0.0
230
1.0
 70
     8
 71
     3
 72
    30
 73
    26
 74
     0
 42
0.0000000001
 43
0.0000000001
 40
0.0
 40
0.0
 40
0.0
 40
0.0
 40
0.0532529184357843
 40
0.1064830276017658
 40
0.1596869892794165
 40
0.2130740718316613
 40
0.2662598725096363
 40
0.3178520303967999
 40
0.3695734248935477
 40
0.4211418552321588
 40
0.4590073836661008
 40
0.4969487275412674
 40
0.5347687601604888
 40
0.5682035069979135
 40
0.6040803260384781
 40
0.6400809579194632
 40
0.6759627485869051
 40
0.7085821401535151
 40
0.7543905369028338
 40
0.8004124227200657
 40
0.8462455305590802
 40
0.8908650020263563
 40
0.9356605997449706
 40
0.9802942472299681
 40
1.0
 40
1.0
 40
1.0
 40
1.0
 10
4584.374430674942
 20
2350.936527436451
 30
0.0
 10
4584.378088647021
 20
2350.936498921196
 30
0.0
 10
4584.3854030244
 20
2350.9364419029
 30
0.0
 10
4584.396353505757
 20
2350.936319484178
 30
0.0
 10
4584.407212694326
 20
2350.936912698814
 30
0.0
 10
4584.417801719435
 20
2350.938440752664
 30
0.0
 10
4584.427869489594
 20
2350.940919637007
 30
0.0
 10
4584.437309911217
 20
2350.944269229641
 30
0.0
 10
4584.446118295256
 20
2350.948333334163
 30
0.0
 10
4584.453553963924
 20
2350.952766255588
 30
0.0
 10
4584.459685752404
 20
2350.957373471312
 30
0.0
 10
4584.464624040595
 20
2350.961986713433
 30
0.0
 10
4584.468760934032
 20
2350.966918829861
 30
0.0
 10
4584.472153126635
 20
2350.972215741292
 30
0.0
 10
4584.474775529062
 20
2350.977831678864
 30
0.0
 10
4584.476681775661
 20
2350.98392712525
 30
0.0
 10
4584.477761277819
 20
2350.990099279962
 30
0.0
 10
4584.478122927858
 20
2350.997036989326
 30
0.0
 10
4584.477537006292
 20
2351.004724808122
 30
0.0
 10
4584.475698180524
 20
2351.013227004044
 30
0.0
 10
4584.472760311327
 20
2351.021512252802
 30
0.0
 10
4584.468767105304
 20
2351.029432086457
 30
0.0
 10
4584.463847196598
 20
2351.036865120157
 30
0.0
 10
4584.459154153853
 20
2351.042517440502
 30
0.0
 10
4584.456069461245
 20
2351.045587238647
 30
0.0
 10
4584.455124687286
 20
2351.046527450757
 30
0.0
  0
SPLINE
  5
155E
330
1F
100
AcDbEntity
  8
SANINDUSA
100
AcDbSpline
210
0.0
220
0.0
230
1.0
 70
     8
 71
     3
 72
    17
 73
    13
 74
     0
 42
0.0000000001
 43
0.0000000001
 40
0.0
 40
0.0
 40
0.0
 40
0.0
 40
0.1136553174647833
 40
0.227255975682629
 40
0.3412695475377315
 40
0.4552396542028652
 40
0.5634584794805507
 40
0.6716758296385886
 40
0.7755769480630072
 40
0.8794853478225601
 40
0.939742188023017
 40
1.0
 40
1.0
 40
1.0
 40
1.0
 10
4584.374430672597
 20
2350.984467482047
 30
0.0
 10
4584.376724914497
 20
2350.984572231865
 30
0.0
 10
4584.381312294945
 20
2350.984781681125
 30
0.0
 10
4584.388030047492
 20
2350.986482657179
 30
0.0
 10
4584.394365676284
 20
2350.989257475783
 30
0.0
 10
4584.400035000086
 20
2350.993048504394
 30
0.0
 10
4584.404830015983
 20
2350.997723086178
 30
0.0
 10
4584.408634179966
 20
2351.002985300942
 30
0.0
 10
4584.411423784451
 20
2351.008749554068
 30
0.0
 10
4584.412947653567
 20
2351.013960943224
 30
0.0
 10
4584.413661771525
 20
2351.018439590597
 30
0.0
 10
4584.413754711554
 20
2351.020869987173
 30
0.0
 10
4584.413801181944
 20
2351.02208519526
 30
0.0
  0
SPLINE
  5
1560
330
1F
100
AcDbEntity
  8
SANINDUSA
100
AcDbSpline
210
0.0
220
0.0
230
1.0
 70
    24
 71
     1
 72
     4
 73
     2
 74
     0
 42
0.0000000001
 43
0.0000000001
 40
0.0
 40
0.0
 40
1.0
 40
1.0
 10
4584.326610829563
 20
2351.081676846222
 30
0.0
 10
4584.334569707396
 20
2351.081676846222
 30
0.0
  0
ARC
  5
1564
330
1F
100
AcDbEntity
  8
SANINDUSA
100
AcDbCircle
 10
4582.044291733349
 20
2351.078597976293
 30
0.0
 40
2.282321172926784
100
AcDbArc
 50
359.9735133444123
 51
0.0772924893347371
  0
SPLINE
  5
1565
330
1F
100
AcDbEntity
  8
SANINDUSA
100
AcDbSpline
210
0.0
220
0.0
230
1.0
 70
     8
 71
     3
 72
    12
 73
     8
 74
     0
 42
0.0000000001
 43
0.0000000001
 40
0.0
 40
0.0
 40
0.0
 40
0.0
 40
0.3141751964432703
 40
0.629069801021493
 40
0.7602911977632378
 40
0.8916091144031197
 40
0.9999999999999998
 40
0.9999999999999998
 40
0.9999999999999998
 40
0.9999999999999998
 10
4584.293736662598
 20
2351.046527450757
 30
0.0
 10
4584.297148286239
 20
2351.049767001581
 30
0.0
 10
4584.303979345564
 20
2351.056253521256
 30
0.0
 10
4584.312550425429
 20
2351.063882722711
 30
0.0
 10
4584.319003975407
 20
2351.069759027056
 30
0.0
 10
4584.323162289733
 20
2351.073546573372
 30
0.0
 10
4584.32553828928
 20
2351.076298532813
 30
0.0
 10
4584.326612662406
 20
2351.077542906479
 30
0.0
  0
SPLINE
  5
1568
330
1F
100
AcDbEntity
  8
SANINDUSA
100
AcDbSpline
210
0.0
220
0.0
230
1.0
 70
    24
 71
     1
 72
     4
 73
     2
 74
     0
 42
0.0000000001
 43
0.0000000001
 40
0.0
 40
0.0
 40
1.0
 40
1.0
 10
4584.414291642489
 20
2351.081676846222
 30
0.0
 10
4584.42225052032
 20
2351.081676846222
 30
0.0
  0
ARC
  5
1569
330
1F
100
AcDbEntity
  8
SANINDUSA
100
AcDbCircle
 10
4586.704569616485
 20
2351.078597976293
 30
0.0
 40
2.282321172877174
100
AcDbArc
 50
179.9227075106652
 51
180.0264866555877
  0
SPLINE
  5
156D
330
1F
100
AcDbEntity
  8
SANINDUSA
100
AcDbSpline
210
0.0
220
0.0
230
1.0
 70
     8
 71
     3
 72
    12
 73
     8
 74
     0
 42
0.0000000001
 43
0.0000000001
 40
0.0
 40
0.0
 40
0.0
 40
0.0
 40
0.3141751964432703
 40
0.629069801021493
 40
0.7602911977632378
 40
0.8916091144031197
 40
0.9999999999999998
 40
0.9999999999999998
 40
0.9999999999999998
 40
0.9999999999999998
 10
4584.455124687286
 20
2351.046527450757
 30
0.0
 10
4584.451713063644
 20
2351.049767001581
 30
0.0
 10
4584.444882004318
 20
2351.056253521256
 30
0.0
 10
4584.436310924455
 20
2351.063882722711
 30
0.0
 10
4584.429857374477
 20
2351.069759027056
 30
0.0
 10
4584.425699060151
 20
2351.073546573372
 30
0.0
 10
4584.423323060604
 20
2351.076298532813
 30
0.0
 10
4584.422248687477
 20
2351.077542906479
 30
0.0
  0
SPLINE
  5
156E
330
1F
100
AcDbEntity
  8
SANINDUSA
100
AcDbSpline
210
0.0
220
0.0
230
1.0
 70
    24
 71
     3
 72
    13
 73
     9
 74
     0
 42
0.0000000001
 43
0.0000000001
 40
0.0
 40
0.0
 40
0.0
 40
0.0
 40
0.2145756731144356
 40
0.4291233641597731
 40
0.6436922517991403
 40
0.8583461238266913
 40
0.9872089292043549
 40
1.0
 40
1.0
 40
1.0
 40
1.0
 10
4584.414326149853
 20
2351.077676867919
 30
0.0
 10
4584.41432576728
 20
2351.078126458026
 30
0.0
 10
4584.414325002184
 20
2351.079025579609
 30
0.0
 10
4584.41431905145
 20
2351.080222263664
 30
0.0
 10
4584.414310292151
 20
2351.081132743658
 30
0.0
 10
4584.41430080811
 20
2351.081583402063
 30
0.0
 10
4584.414294416404
 20
2351.081674861055
 30
0.0
 10
4584.414291872223
 20
2351.081676681812
 30
0.0
 10
4584.414291642489
 20
2351.081676846222
 30
0.0
  0
SPLINE
  5
1570
330
1F
100
AcDbEntity
  8
SANINDUSA
100
AcDbSpline
210
0.0
220
0.0
230
1.0
 70
    24
 71
     3
 72
    13
 73
     9
 74
     0
 42
0.0000000001
 43
0.0000000001
 40
0.0
 40
0.0
 40
0.0
 40
0.0
 40
0.2145756731144356
 40
0.4291233641597731
 40
0.6436922517991403
 40
0.8583461238266913
 40
0.9872089292043549
 40
1.0
 40
1.0
 40
1.0
 40
1.0
 10
4584.334535200031
 20
2351.077676867919
 30
0.0
 10
4584.334535582604
 20
2351.078126458026
 30
0.0
 10
4584.334536347699
 20
2351.079025579609
 30
0.0
 10
4584.334542298434
 20
2351.080222263664
 30
0.0
 10
4584.334551057732
 20
2351.081132743658
 30
0.0
 10
4584.334560541774
 20
2351.081583402063
 30
0.0
 10
4584.334566933479
 20
2351.081674861055
 30
0.0
 10
4584.33456947766
 20
2351.081676681812
 30
0.0
 10
4584.334569707396
 20
2351.081676846222
 30
0.0
  0
SPLINE
  5
1573
330
1F
100
AcDbEntity
  8
SANINDUSA
100
AcDbSpline
210
0.0
220
0.0
230
1.0
 70
     8
 71
     3
 72
    12
 73
     8
 74
     0
 42
0.0000000001
 43
0.0000000001
 40
0.0
 40
0.0
 40
0.0
 40
0.0
 40
0.25
 40
0.25
 40
0.5
 40
0.5
 40
1.0
 40
1.0
 40
1.0
 40
1.0
 10
4584.334535199624
 20
2351.077676579806
 30
0.0
 10
4584.334553861178
 20
2351.073043782805
 30
0.0
 10
4584.334596936078
 20
2351.068411158437
 30
0.0
 10
4584.334682762145
 20
2351.059145907411
 30
0.0
 10
4584.334728668241
 20
2351.05451330302
 30
0.0
 10
4584.334867968471
 20
2351.040615514656
 30
0.0
 10
4584.334963705106
 20
2351.031350351604
 30
0.0
 10
4584.335060167501
 20
2351.022085195934
 30
0.0
  0
SPLINE
  5
1574
330
1F
100
AcDbEntity
  8
SANINDUSA
100
AcDbSpline
210
0.0
220
0.0
230
1.0
 70
     8
 71
     3
 72
    12
 73
     8
 74
     0
 42
0.0000000001
 43
0.0000000001
 40
0.0
 40
0.0
 40
0.0
 40
0.0
 40
0.5
 40
0.5
 40
0.75
 40
0.75
 40
1.0
 40
1.0
 40
1.0
 40
1.0
 10
4584.413801182382
 20
2351.022085195934
 30
0.0
 10
4584.413897644778
 20
2351.031350351604
 30
0.0
 10
4584.413993381413
 20
2351.040615514656
 30
0.0
 10
4584.414132681643
 20
2351.05451330302
 30
0.0
 10
4584.414178587739
 20
2351.059145907411
 30
0.0
 10
4584.414264413805
 20
2351.068411158437
 30
0.0
 10
4584.414307488706
 20
2351.073043782805
 30
0.0
 10
4584.41432615026
 20
2351.077676579806
 30
0.0
  0
LINE
  5
1577
330
1F
100
AcDbEntity
  8
SANINDUSA
100
AcDbLine
 10
4584.334569707396
 20
2351.081676846222
 30
0.0
 11
4584.414291642489
 21
2351.081676846222
 31
0.0
  0
CIRCLE
  5
1578
330
1F
100
AcDbEntity
  8
SANINDUSA
100
AcDbCircle
 10
4584.374430674942
 20
2351.021676858144
 30
0.0
 40
0.0175
  0
SPLINE
  5
158B
330
1F
100
AcDbEntity
  8
SANINDUSA
100
AcDbSpline
210
0.0
220
0.0
230
1.0
 70
    24
 71
     1
 72
     4
 73
     2
 74
     0
 42
0.0000000001
 43
0.0000000001
 40
0.0
 40
0.0
 40
1.0
 40
1.0
 10
4584.089430678519
 20
2351.081676846222
 30
0.0
 10
4584.326610829563
 20
2351.081676846222
 30
0.0
  0
SPLINE
  5
158D
330
1F
100
AcDbEntity
  8
SANINDUSA
100
AcDbSpline
210
0.0
220
0.0
230
1.0
 70
    24
 71
     1
 72
     4
 73
     2
 74
     0
 42
0.0000000001
 43
0.0000000001
 40
0.0
 40
0.0
 40
1.0
 40
1.0
 10
4584.42225052032
 20
2351.081676846222
 30
0.0
 10
4584.659428138168
 20
2351.081676846222
 30
0.0
  0
LINE
  5
1598
330
1F
100
AcDbEntity
  8
SANINDUSA
100
AcDbLine
 10
4584.069430667789
 20
2351.081676846222
 30
0.0
 11
4584.089430678519
 21
2351.081676846222
 31
0.0
  0
LINE
  5
159A
330
1F
100
AcDbEntity
  8
SANINDUSA
100
AcDbLine
 10
4584.659428138168
 20
2351.081676846222
 30
0.0
 11
4584.679430682094
 21
2351.081676846222
 31
0.0
  0
ARC
  5
159C
330
1F
100
AcDbEntity
  8
SANINDUSA
100
AcDbCircle
 10
4584.069430674942
 20
2351.071676858143
 30
0.0
 40
0.01
100
AcDbArc
 50
90.0
 51
180.0
  0
ARC
  5
159E
330
1F
100
AcDbEntity
  8
SANINDUSA
100
AcDbCircle
 10
4584.679430674942
 20
2351.071676858143
 30
0.0
 40
0.01
100
AcDbArc
 50
0.0
 51
90.0
  0
LINE
  5
15A0
330
1F
100
AcDbEntity
  8
SANINDUSA
100
AcDbLine
 10
4584.059430677326
 20
2350.626676858255
 30
0.0
 11
4584.059430677326
 21
2351.071676855759
 31
0.0
  0
LINE
  5
15A2
330
1F
100
AcDbEntity
  8
SANINDUSA
100
AcDbLine
 10
4584.689430672558
 20
2351.071676855759
 30
0.0
 11
4584.689430672558
 21
2350.626676858255
 31
0.0
  0
ARC
  5
15A4
330
1F
100
AcDbEntity
  8
SANINDUSA
100
AcDbCircle
 10
4584.679430674942
 20
2350.626676858143
 30
0.0
 40
0.0100000000000002
100
AcDbArc
 50
270.0
 51
0.0
  0
LINE
  5
15A6
330
1F
100
AcDbEntity
  8
SANINDUSA
100
AcDbLine
 10
4584.679430682094
 20
2350.616676858479
 30
0.0
 11
4584.069430667789
 21
2350.616676858479
 31
0.0
  0
ARC
  5
15A8
330
1F
100
AcDbEntity
  8
SANINDUSA
100
AcDbCircle
 10
4584.069430674942
 20
2350.626676858143
 30
0.0
 40
0.0100000000000001
100
AcDbArc
 50
180.0
 51
270.0
  0
CIRCLE
  5
15AB
330
1F
100
AcDbEntity
  8
SANINDUSA
100
AcDbCircle
 10
4584.374430674942
 20
2350.856676858143
 30
0.0
 40
0.0492120138052747
  0
CIRCLE
  5
15AC
330
1F
100
AcDbEntity
  8
SANINDUSA
100
AcDbCircle
 10
4584.374430674942
 20
2350.856676858143
 30
0.0
 40
0.0444410741713081
  0
CIRCLE
  5
15AD
330
1F
100
AcDbEntity
  8
SANINDUSA
100
AcDbCircle
 10
4584.374430674942
 20
2350.856676858143
 30
0.0
 40
0.0359490476548638
  0
CIRCLE
  5
15AE
330
1F
100
AcDbEntity
  8
SANINDUSA
100
AcDbCircle
 10
4584.374430674942
 20
2350.856676858143
 30
0.0
 40
0.0235317339737703
  0
SPLINE
  5
15B0
330
1F
100
AcDbEntity
  8
SANINDUSA
100
AcDbSpline
210
0.0
220
0.0
230
1.0
 70
     8
 71
     3
 72
    28
 73
    24
 74
     0
 42
0.0000000001
 43
0.0000000001
 40
0.0
 40
0.0
 40
0.0
 40
0.0
 40
0.1249999999999968
 40
0.1249999999999968
 40
0.2499999999999936
 40
0.2499999999999936
 40
0.3124999999999927
 40
0.3124999999999927
 40
0.3437499999999927
 40
0.3437499999999927
 40
0.3749999999999927
 40
0.3749999999999927
 40
0.499999999999994
 40
0.499999999999994
 40
0.6249999999999952
 40
0.6249999999999952
 40
0.6874999999999958
 40
0.6874999999999958
 40
0.7499999999999964
 40
0.7499999999999964
 40
0.8749999999999982
 40
0.8749999999999982
 40
1.0
 40
1.0
 40
1.0
 40
1.0
 10
4586.43061769957
 20
2350.842919629246
 30
0.0
 10
4586.427439300669
 20
2350.84487032999
 30
0.0
 10
4586.424407107365
 20
2350.846988017178
 30
0.0
 10
4586.418623986478
 20
2350.851544634809
 30
0.0
 10
4586.415873094415
 20
2350.85398360582
 30
0.0
 10
4586.41195822076
 20
2350.857883583151
 30
0.0
 10
4586.410688594756
 20
2350.859223929351
 30
0.0
 10
4586.408838030414
 20
2350.861295980759
 30
0.0
 10
4586.408230160603
 20
2350.861996926605
 30
0.0
 10
4586.407032610534
 20
2350.863419593208
 30
0.0
 10
4586.406442065162
 20
2350.864142446239
 30
0.0
 10
4586.40355223998
 20
2350.86778788602
 30
0.0
 10
4586.401432427279
 20
2350.87081274395
 30
0.0
 10
4586.397563930015
 20
2350.877072145856
 30
0.0
 10
4586.395815280816
 20
2350.88030670981
 30
0.0
 10
4586.393472538956
 20
2350.885316885765
 30
0.0
 10
4586.392738446368
 20
2350.887013398317
 30
0.0
 10
4586.391365667402
 20
2350.890460327581
 30
0.0
 10
4586.390725491754
 20
2350.892215823397
 30
0.0
 10
4586.388970359482
 20
2350.897507567177
 30
0.0
 10
4586.388014743215
 20
2350.901079240985
 30
0.0
 10
4586.386523479293
 20
2350.908308443038
 30
0.0
 10
4586.385987833458
 20
2350.911965971654
 30
0.0
 10
4586.385666391239
 20
2350.915667290045
 30
0.0
  0
SPLINE
  5
15B1
330
1F
100
AcDbEntity
  8
SANINDUSA
100
AcDbSpline
210
0.0
220
0.0
230
1.0
 70
     8
 71
     3
 72
     8
 73
     4
 74
     0
 42
0.0000000001
 43
0.0000000001
 40
0.0
 40
0.0
 40
0.0
 40
0.0
 40
1.0
 40
1.0
 40
1.0
 40
1.0
 10
4586.425386914814
 20
2350.834396784015
 30
0.0
 10
4586.432618655397
 20
2350.829958397843
 30
0.0
 10
4586.440059640465
 20
2350.825914516405
 30
0.0
 10
4586.447831897368
 20
2350.82249520726
 30
0.0
  0
SPLINE
  5
15B3
330
1F
100
AcDbEntity
  8
SANINDUSA
100
AcDbSpline
210
0.0
220
0.0
230
1.0
 70
     8
 71
     3
 72
    18
 73
    14
 74
     0
 42
0.0000000001
 43
0.0000000001
 40
0.0
 40
0.0
 40
0.0
 40
0.0
 40
0.0625000000000004
 40
0.0625000000000004
 40
0.1250000000000008
 40
0.1250000000000008
 40
0.2500000000000007
 40
0.2500000000000007
 40
0.5000000000000006
 40
0.5000000000000006
 40
0.7500000000000004
 40
0.7500000000000004
 40
1.0
 40
1.0
 40
1.0
 40
1.0
 10
4586.573369345368
 20
2350.821996502554
 30
0.0
 10
4586.57500457469
 20
2350.82259847877
 30
0.0
 10
4586.576633572376
 20
2350.823224258465
 30
0.0
 10
4586.579879205445
 20
2350.82452303911
 30
0.0
 10
4586.581497770261
 20
2350.825196890824
 30
0.0
 10
4586.586320797027
 20
2350.827282546662
 30
0.0
 10
4586.58948483201
 20
2350.828754908423
 30
0.0
 10
4586.598834125855
 20
2350.833399986706
 30
0.0
 10
4586.60487571738
 20
2350.836802063176
 30
0.0
 10
4586.616660469903
 20
2350.844082650157
 30
0.0
 10
4586.62240160914
 20
2350.847964388341
 30
0.0
 10
4586.633689374024
 20
2350.85603839895
 30
0.0
 10
4586.6392362418
 20
2350.860230284819
 30
0.0
 10
4586.644756574037
 20
2350.86446453376
 30
0.0
  0
SPLINE
  5
15B4
330
1F
100
AcDbEntity
  8
SANINDUSA
100
AcDbSpline
210
0.0
220
0.0
230
1.0
 70
     8
 71
     3
 72
    19
 73
    15
 74
     0
 42
0.0000000001
 43
0.0000000001
 40
0.0
 40
0.0
 40
0.0
 40
0.0
 40
0.2500000000000096
 40
0.2500000000000096
 40
0.375000000000008
 40
0.375000000000008
 40
0.5000000000000064
 40
0.5000000000000064
 40
0.6250000000000049
 40
0.6250000000000049
 40
0.7500000000000032
 40
0.8750000000000015
 40
0.8750000000000015
 40
1.0
 40
1.0
 40
1.0
 40
1.0
 10
4586.450815397157
 20
2350.81809302455
 30
0.0
 10
4586.450798947072
 20
2350.818564093348
 30
0.0
 10
4586.45071757391
 20
2350.819021758684
 30
0.0
 10
4586.450500469333
 20
2350.819688634544
 30
0.0
 10
4586.450411433284
 20
2350.819908204457
 30
0.0
 10
4586.450206313777
 20
2350.820327046507
 30
0.0
 10
4586.45008978748
 20
2350.820528077333
 30
0.0
 10
4586.44982898621
 20
2350.820913469371
 30
0.0
 10
4586.449683686715
 20
2350.821098933873
 30
0.0
 10
4586.449368734421
 20
2350.821447057532
 30
0.0
 10
4586.449032566576
 20
2350.821769604641
 30
0.0
 10
4586.448655250435
 20
2350.822042545144
 30
0.0
 10
4586.448256772714
 20
2350.822289974163
 30
0.0
 10
4586.448047621905
 20
2350.822400301895
 30
0.0
 10
4586.447831897368
 20
2350.82249520726
 30
0.0
  0
ARC
  5
15B5
330
1F
100
AcDbEntity
  8
SANINDUSA
100
AcDbCircle
 10
4586.575096667746
 20
2350.817304343413
 30
0.0
 40
0.0050000000000008
100
AcDbArc
 50
110.2101516591625
 51
177.9999999962464
  0
LINE
  5
15B6
330
1F
100
AcDbEntity
  8
SANINDUSA
100
AcDbLine
 10
4586.450815397157
 20
2350.81809302455
 30
0.0
 11
4586.451262357191
 21
2350.805293763805
 31
0.0
  0
LINE
  5
15B7
330
1F
100
AcDbEntity
  8
SANINDUSA
100
AcDbLine
 10
4586.569674201342
 20
2350.805293763805
 30
0.0
 11
4586.57009971361
 21
2350.817478840896
 31
0.0
  0
SPLINE
  5
15BB
330
1F
100
AcDbEntity
  8
SANINDUSA
100
AcDbSpline
210
0.0
220
0.0
230
1.0
 70
     8
 71
     3
 72
    32
 73
    28
 74
     0
 42
0.0000000001
 43
0.0000000001
 40
0.0
 40
0.0
 40
0.0
 40
0.0
 40
0.0625000000000003
 40
0.0625000000000003
 40
0.1250000000000006
 40
0.1250000000000006
 40
0.2499999999999998
 40
0.2499999999999998
 40
0.3749999999999991
 40
0.3749999999999991
 40
0.4999999999999984
 40
0.4999999999999984
 40
0.5312499999999987
 40
0.5312499999999987
 40
0.5624999999999992
 40
0.5624999999999992
 40
0.6250000000000001
 40
0.6250000000000001
 40
0.7500000000000006
 40
0.7500000000000006
 40
0.8750000000000008
 40
0.8750000000000008
 40
0.9062500000000008
 40
0.9062500000000008
 40
0.9375000000000007
 40
0.9375000000000007
 40
1.0
 40
1.0
 40
1.0
 40
1.0
 10
4586.425386914814
 20
2350.834396784015
 30
0.0
 10
4586.423870909301
 20
2350.835327212566
 30
0.0
 10
4586.422375176013
 20
2350.836298196111
 30
0.0
 10
4586.419424959705
 20
2350.838322685177
 30
0.0
 10
4586.417966544795
 20
2350.83937935475
 30
0.0
 10
4586.413696212747
 20
2350.842643669155
 30
0.0
 10
4586.410982131421
 20
2350.844948627236
 30
0.0
 10
4586.405811770681
 20
2350.849808467555
 30
0.0
 10
4586.403355510473
 20
2350.852363368411
 30
0.0
 10
4586.398701159099
 20
2350.857723450188
 30
0.0
 10
4586.396503045153
 20
2350.860528609028
 30
0.0
 10
4586.393922055724
 20
2350.864196618096
 30
0.0
 10
4586.39341377053
 20
2350.864939032977
 30
0.0
 10
4586.392419613911
 20
2350.866431832961
 30
0.0
 10
4586.391933090911
 20
2350.867183106001
 30
0.0
 10
4586.390504841854
 20
2350.869451384542
 30
0.0
 10
4586.389594414754
 20
2350.87098283977
 30
0.0
 10
4586.386986369954
 20
2350.875634099808
 30
0.0
 10
4586.38541167765
 20
2350.878810655348
 30
0.0
 10
4586.382587532946
 20
2350.885313919302
 30
0.0
 10
4586.381338068728
 20
2350.888640622261
 30
0.0
 10
4586.379984122305
 20
2350.892894974291
 30
0.0
 10
4586.379723752934
 20
2350.893750655238
 30
0.0
 10
4586.379224075765
 20
2350.895471740589
 30
0.0
 10
4586.378984454223
 20
2350.896338367737
 30
0.0
 10
4586.378300118657
 20
2350.898943197095
 30
0.0
 10
4586.37789031361
 20
2350.900684179907
 30
0.0
 10
4586.377525961672
 20
2350.902429500477
 30
0.0
  0
SPLINE
  5
15BD
330
1F
100
AcDbEntity
  8
SANINDUSA
100
AcDbSpline
210
0.0
220
0.0
230
1.0
 70
     8
 71
     3
 72
    14
 73
    10
 74
     0
 42
0.0000000001
 43
0.0000000001
 40
0.0
 40
0.0
 40
0.0
 40
0.0
 40
0.25
 40
0.25
 40
0.5
 40
0.5
 40
0.75
 40
0.75
 40
1.0
 40
1.0
 40
1.0
 40
1.0
 10
4586.372631476285
 20
2350.906407731027
 30
0.0
 10
4586.373205814243
 20
2350.906407731027
 30
0.0
 10
4586.373764508861
 20
2350.906311368255
 30
0.0
 10
4586.37484617725
 20
2350.905927080594
 30
0.0
 10
4586.375341018987
 20
2350.90564888272
 30
0.0
 10
4586.376231042799
 20
2350.904925132092
 30
0.0
 10
4586.376604700262
 20
2350.904496743471
 30
0.0
 10
4586.377200644132
 20
2350.903517520553
 30
0.0
 10
4586.377408593476
 20
2350.902991718225
 30
0.0
 10
4586.377525961672
 20
2350.902429500477
 30
0.0
  0
ARC
  5
15BF
330
1F
100
AcDbEntity
  8
SANINDUSA
100
AcDbCircle
 10
4586.455587966426
 20
2350.824693063879
 30
0.0
 40
0.005000000000009
100
AcDbArc
 50
2.000000003753603
 51
68.78725703840219
  0
SPLINE
  5
15C0
330
1F
100
AcDbEntity
  8
SANINDUSA
100
AcDbSpline
210
0.0
220
0.0
230
1.0
 70
    24
 71
     3
 72
    10
 73
     6
 74
     0
 42
0.0000000001
 43
0.0000000001
 40
0.0
 40
0.0
 40
0.0
 40
0.0
 40
0.3428434756664869
 40
0.6856931699070128
 40
1.0
 40
1.0
 40
1.0
 40
1.0
 10
4586.563791038406
 20
2350.829254918867
 30
0.0
 10
4586.5637227958
 20
2350.829253559654
 30
0.0
 10
4586.563586309353
 20
2350.8292508412
 30
0.0
 10
4586.562617815798
 20
2350.829233267099
 30
0.0
 10
4586.561483401738
 20
2350.829211835964
 30
0.0
 10
4586.560940830717
 20
2350.829201585815
 30
0.0
  0
SPLINE
  5
15C1
330
1F
100
AcDbEntity
  8
SANINDUSA
100
AcDbSpline
210
0.0
220
0.0
230
1.0
 70
    24
 71
     3
 72
    11
 73
     7
 74
     0
 42
0.0000000001
 43
0.0000000001
 40
0.0
 40
0.0
 40
0.0
 40
0.0
 40
0.0021362063159019
 40
0.3450702358143932
 40
0.6725385728431418
 40
1.0
 40
1.0
 40
1.0
 40
1.0
 10
4586.460144865291
 20
2350.829299678298
 30
0.0
 10
4586.460140367075
 20
2350.829299768319
 30
0.0
 10
4586.459413751719
 20
2350.829314309671
 30
0.0
 10
4586.458549152554
 20
2350.82933114583
 30
0.0
 10
4586.457560130006
 20
2350.829350597738
 30
0.0
 10
4586.457451460292
 20
2350.829353053009
 30
0.0
 10
4586.457397126008
 20
2350.829354280631
 30
0.0
  0
ARC
  5
15C2
330
1F
100
AcDbEntity
  8
SANINDUSA
100
AcDbCircle
 10
4586.565341903182
 20
2350.824501518143
 30
0.0
 40
0.0050000000000004
100
AcDbArc
 50
108.0696538879467
 51
177.9999999962464
  0
LINE
  5
15C4
330
1F
100
AcDbEntity
  8
SANINDUSA
100
AcDbLine
 10
4586.461256265461
 20
2350.805642758771
 30
0.0
 11
4586.460584920561
 21
2350.824867561363
 31
0.0
  0
LINE
  5
15C5
330
1F
100
AcDbEntity
  8
SANINDUSA
100
AcDbLine
 10
4586.560344949047
 20
2350.824676015627
 30
0.0
 11
4586.559680293072
 21
2350.805642758771
 31
0.0
  0
ARC
  5
15C6
330
1F
100
AcDbEntity
  8
SANINDUSA
100
AcDbCircle
 10
4586.382677640813
 20
2350.915407731027
 30
0.0
 40
0.0030000000000278
100
AcDbArc
 50
4.963417669679505
 51
90.0
  0
SPLINE
  5
15C7
330
1F
100
AcDbEntity
  8
SANINDUSA
100
AcDbSpline
210
0.0
220
0.0
230
1.0
 70
     8
 71
     3
 72
    40
 73
    36
 74
     0
 42
0.0000000001
 43
0.0000000001
 40
0.0
 40
0.0
 40
0.0
 40
0.0
 40
0.0156250000000003
 40
0.0156250000000003
 40
0.0312500000000005
 40
0.0312500000000005
 40
0.0625000000000007
 40
0.0625000000000007
 40
0.1250000000000006
 40
0.1250000000000006
 40
0.2500000000000004
 40
0.2500000000000004
 40
0.3125000000000004
 40
0.3125000000000004
 40
0.3750000000000004
 40
0.3750000000000004
 40
0.5000000000000005
 40
0.5000000000000005
 40
0.6250000000000005
 40
0.6250000000000005
 40
0.6875000000000005
 40
0.6875000000000005
 40
0.7187500000000005
 40
0.7187500000000005
 40
0.7500000000000004
 40
0.7500000000000004
 40
0.8750000000000003
 40
0.8750000000000003
 40
0.8906250000000001
 40
0.8906250000000001
 40
0.9062500000000001
 40
0.9062500000000001
 40
0.9375000000000001
 40
0.9375000000000001
 40
1.0
 40
1.0
 40
1.0
 40
1.0
 10
4586.563791038406
 20
2350.829254918867
 30
0.0
 10
4586.564767674081
 20
2350.829573560185
 30
0.0
 10
4586.565744755645
 20
2350.829902116039
 30
0.0
 10
4586.567691392867
 20
2350.830576087032
 30
0.0
 10
4586.568660197477
 20
2350.83092121426
 30
0.0
 10
4586.571553357742
 20
2350.831980500924
 30
0.0
 10
4586.573464465096
 20
2350.832718555822
 30
0.0
 10
4586.57914672884
 20
2350.835024812521
 30
0.0
 10
4586.58286672501
 20
2350.836685290117
 30
0.0
 10
4586.59383762277
 20
2350.842007778906
 30
0.0
 10
4586.600897620668
 20
2350.846014116031
 30
0.0
 10
4586.611204657569
 20
2350.852533986112
 30
0.0
 10
4586.614593092749
 20
2350.85479248801
 30
0.0
 10
4586.621296717183
 20
2350.859441602779
 30
0.0
 10
4586.624611965875
 20
2350.861832108442
 30
0.0
 10
4586.634485929113
 20
2350.869133097484
 30
0.0
 10
4586.640953015172
 20
2350.874162501708
 30
0.0
 10
4586.653942503125
 20
2350.884142703015
 30
0.0
 10
4586.660465863259
 20
2350.889093161235
 30
0.0
 10
4586.670573032636
 20
2350.896072597729
 30
0.0
 10
4586.673996164323
 20
2350.898324165257
 30
0.0
 10
4586.679253209473
 20
2350.901532026387
 30
0.0
 10
4586.681028747917
 20
2350.902574439676
 30
0.0
 10
4586.684608807341
 20
2350.904581335788
 30
0.0
 10
4586.686414243288
 20
2350.905546488374
 30
0.0
 10
4586.695528477654
 20
2350.910155858529
 30
0.0
 10
4586.703100385072
 20
2350.913146062783
 30
0.0
 10
4586.712054812083
 20
2350.915426194481
 30
0.0
 10
4586.713055735165
 20
2350.915664661116
 30
0.0
 10
4586.715069843248
 20
2350.916111114777
 30
0.0
 10
4586.71608163593
 20
2350.916318749327
 30
0.0
 10
4586.719117534289
 20
2350.916891664482
 30
0.0
 10
4586.721147494333
 20
2350.917207778866
 30
0.0
 10
4586.72725510137
 20
2350.917962528183
 30
0.0
 10
4586.73135037556
 20
2350.918208658223
 30
0.0
 10
4586.735468286361
 20
2350.918207576057
 30
0.0
  0
SPLINE
  5
15C8
330
1F
100
AcDbEntity
  8
SANINDUSA
100
AcDbSpline
210
0.0
220
0.0
230
1.0
 70
     8
 71
     3
 72
    16
 73
    12
 74
     0
 42
0.0000000001
 43
0.0000000001
 40
0.5156412641826906
 40
0.5156412641826906
 40
0.5156412641826906
 40
0.5156412641826906
 40
0.5766924254621454
 40
0.5766924254621454
 40
0.6422154767470916
 40
0.6422154767470916
 40
0.6910794939028162
 40
0.6910794939028162
 40
0.7276110119917912
 40
0.7276110119917912
 40
0.7453623953341993
 40
0.7453623953341993
 40
0.7453623953341993
 40
0.7453623953341993
 10
4586.655963485119
 20
2350.873080974927
 30
0.0
 10
4586.659112534426
 20
2350.875489912606
 30
0.0
 10
4586.662249340458
 20
2350.877863067271
 30
0.0
 10
4586.668770192583
 20
2350.882649417245
 30
0.0
 10
4586.672156964313
 20
2350.88505459845
 30
0.0
 10
4586.678120940859
 20
2350.889056945565
 30
0.0
 10
4586.680685775725
 20
2350.890703925348
 30
0.0
 10
4586.685217868562
 20
2350.893444954812
 30
0.0
 10
4586.687173088914
 20
2350.894573608187
 30
0.0
 10
4586.69008703131
 20
2350.896163187615
 30
0.0
 10
4586.691041812984
 20
2350.896669465766
 30
0.0
 10
4586.691998979962
 20
2350.897161598167
 30
0.0
  0
SPLINE
  5
15C9
330
1F
100
AcDbEntity
  8
SANINDUSA
100
AcDbSpline
210
0.0
220
0.0
230
1.0
 70
     8
 71
     3
 72
    12
 73
     8
 74
     0
 42
0.0000000001
 43
0.0000000001
 40
0.0
 40
0.0
 40
0.0
 40
0.0
 40
0.25
 40
0.25
 40
0.5
 40
0.5
 40
1.0
 40
1.0
 40
1.0
 40
1.0
 10
4586.43061769957
 20
2350.842919629246
 30
0.0
 10
4586.432764472821
 20
2350.84160207525
 30
0.0
 10
4586.434930059193
 20
2350.840320704197
 30
0.0
 10
4586.439299313846
 20
2350.837848988322
 30
0.0
 10
4586.441503942125
 20
2350.836657983369
 30
0.0
 10
4586.448186714938
 20
2350.833239452708
 30
0.0
 10
4586.452732937039
 20
2350.831164593822
 30
0.0
 10
4586.457397126008
 20
2350.829354280631
 30
0.0
  0
LINE
  5
15CA
330
1F
100
AcDbEntity
  8
SANINDUSA
100
AcDbLine
 10
4586.655657250889
 20
2350.849977684532
 30
0.0
 11
4586.691006035387
 21
2350.854317969515
 31
0.0
  0
LINE
  5
15CB
330
1F
100
AcDbEntity
  8
SANINDUSA
100
AcDbLine
 10
4586.662805960719
 20
2350.860930533984
 30
0.0
 11
4586.686115114367
 21
2350.863792538179
 31
0.0
  0
ARC
  5
15CC
330
1F
100
AcDbEntity
  8
SANINDUSA
100
AcDbCircle
 10
4586.655413512203
 20
2350.851962776835
 30
0.0
 40
0.0020000000000001
100
AcDbArc
 50
183.9999999992485
 51
276.9999999915293
  0
LINE
  5
15CD
330
1F
100
AcDbEntity
  8
SANINDUSA
100
AcDbLine
 10
4586.653418384102
 20
2350.851823263888
 30
0.0
 11
4586.652787454577
 21
2350.860845976455
 31
0.0
  0
LINE
  5
15CE
330
1F
100
AcDbEntity
  8
SANINDUSA
100
AcDbLine
 10
4586.662805960719
 20
2350.860930533984
 30
0.0
 11
4586.66276309508
 21
2350.861543541193
 31
0.0
  0
ARC
  5
15CF
330
1F
100
AcDbEntity
  8
SANINDUSA
100
AcDbCircle
 10
4586.647799634326
 20
2350.860497194087
 30
0.0
 40
0.0050000000000401
100
AcDbArc
 50
3.999999999248528
 51
127.4892132056109
  0
ARC
  5
15D0
330
1F
100
AcDbEntity
  8
SANINDUSA
100
AcDbCircle
 10
4586.647799634326
 20
2350.860497194087
 30
0.0
 40
0.0150000000000401
100
AcDbArc
 50
3.999999999248528
 51
57.02611491789765
  0
ARC
  5
15D1
330
1F
100
AcDbEntity
  8
SANINDUSA
100
AcDbCircle
 10
4586.554683338937
 20
2350.805817256255
 30
0.0
 40
0.015
100
AcDbArc
 50
272.5908181991662
 51
357.9999999962464
  0
LINE
  5
15D2
330
1F
100
AcDbEntity
  8
SANINDUSA
100
AcDbLine
 10
4586.549545943479
 20
2350.790569445172
 30
0.0
 11
4586.55536138244
 21
2350.790832588858
 31
0.0
  0
ARC
  5
15D3
330
1F
100
AcDbEntity
  8
SANINDUSA
100
AcDbCircle
 10
4586.54977195798
 20
2350.78557455604
 30
0.0
 40
0.0050000000000002
100
AcDbArc
 50
92.59081819916616
 51
175.0000313915668
  0
LINE
  5
15D4
330
1F
100
AcDbEntity
  8
SANINDUSA
100
AcDbLine
 10
4586.54400001324
 20
2350.776969432224
 30
0.0
 11
4586.544790984251
 21
2350.786010332025
 31
0.0
  0
LINE
  5
15D5
330
1F
100
AcDbEntity
  8
SANINDUSA
100
AcDbLine
 10
4586.53400001324
 20
2350.776969429485
 30
0.0
 11
4586.54400001324
 21
2350.776969432224
 31
0.0
  0
LINE
  5
15D6
330
1F
100
AcDbEntity
  8
SANINDUSA
100
AcDbLine
 10
4586.53400001324
 20
2350.789643810359
 30
0.0
 11
4586.53400001324
 21
2350.776969429485
 31
0.0
  0
LINE
  5
15D7
330
1F
100
AcDbEntity
  8
SANINDUSA
100
AcDbLine
 10
4586.546417326922
 20
2350.800438110118
 30
0.0
 11
4586.53400001324
 21
2350.789643810359
 31
0.0
  0
LINE
  5
15D8
330
1F
100
AcDbEntity
  8
SANINDUSA
100
AcDbLine
 10
4586.554909353438
 20
2350.800822367122
 30
0.0
 11
4586.546417326922
 21
2350.800438110118
 31
0.0
  0
ARC
  5
15D9
330
1F
100
AcDbEntity
  8
SANINDUSA
100
AcDbCircle
 10
4586.554683338937
 20
2350.805817256255
 30
0.0
 40
0.005
100
AcDbArc
 50
272.5908181991662
 51
357.9999999962464
  0
LINE
  5
15DA
330
1F
100
AcDbEntity
  8
SANINDUSA
100
AcDbLine
 10
4586.735468279266
 20
2350.918207731027
 30
0.0
 11
4586.746468279267
 21
2350.918207731027
 31
0.0
  0
ARC
  5
15DB
330
1F
100
AcDbEntity
  8
SANINDUSA
100
AcDbCircle
 10
4586.746468279267
 20
2350.914207731027
 30
0.0
 40
0.004
100
AcDbArc
 50
0.0
 51
90.0
  0
LINE
  5
15DC
330
1F
100
AcDbEntity
  8
SANINDUSA
100
AcDbLine
 10
4586.750468279267
 20
2350.914207731027
 30
0.0
 11
4586.750468279267
 21
2350.890207731027
 31
0.0
  0
ARC
  5
15DD
330
1F
100
AcDbEntity
  8
SANINDUSA
100
AcDbCircle
 10
4586.748468279266
 20
2350.890207731027
 30
0.0
 40
0.002
100
AcDbArc
 50
270.0
 51
0.0
  0
LINE
  5
15DE
330
1F
100
AcDbEntity
  8
SANINDUSA
100
AcDbLine
 10
4586.740468279266
 20
2350.888207731027
 30
0.0
 11
4586.748468279266
 21
2350.888207731027
 31
0.0
  0
LINE
  5
15DF
330
1F
100
AcDbEntity
  8
SANINDUSA
100
AcDbLine
 10
4586.73983971155
 20
2350.906207555356
 30
0.0
 11
4586.740468279266
 21
2350.888207731027
 31
0.0
  0
LINE
  5
15E0
330
1F
100
AcDbEntity
  8
SANINDUSA
100
AcDbLine
 10
4586.73983971155
 20
2350.906207555356
 30
0.0
 11
4586.716603838977
 21
2350.906207555356
 31
0.0
  0
SPLINE
  5
15E1
330
1F
100
AcDbEntity
  8
SANINDUSA
100
AcDbSpline
210
0.0
220
0.0
230
1.0
 70
     8
 71
     3
 72
    10
 73
     6
 74
     0
 42
0.0000000001
 43
0.0000000001
 40
0.0
 40
0.0
 40
0.0
 40
0.0
 40
0.5
 40
0.5
 40
1.0
 40
1.0
 40
1.0
 40
1.0
 10
4586.703028639428
 20
2350.902126200538
 30
0.0
 10
4586.70524016749
 20
2350.902976070757
 30
0.0
 10
4586.707475654479
 20
2350.90374625305
 30
0.0
 10
4586.711999598816
 20
2350.905110437047
 30
0.0
 10
4586.714287945684
 20
2350.90570480621
 30
0.0
 10
4586.716603838977
 20
2350.906207555356
 30
0.0
  0
LINE
  5
15E2
330
1F
100
AcDbEntity
  8
SANINDUSA
100
AcDbLine
 10
4586.695320727435
 20
2350.858412459384
 30
0.0
 11
4586.703028639428
 21
2350.902126200538
 31
0.0
  0
LINE
  5
15E3
330
1F
100
AcDbEntity
  8
SANINDUSA
100
AcDbLine
 10
4586.686115114367
 20
2350.863792538179
 30
0.0
 11
4586.691998979962
 21
2350.897161598167
 31
0.0
  0
ARC
  5
15E4
330
1F
100
AcDbEntity
  8
SANINDUSA
100
AcDbCircle
 10
4586.69039668867
 20
2350.859280700273
 30
0.0
 40
0.005
100
AcDbArc
 50
276.9999999915293
 51
350.0000000033014
  0
ARC
  5
15E5
330
1F
100
AcDbEntity
  8
SANINDUSA
100
AcDbCircle
 10
4586.466253219597
 20
2350.805817256255
 30
0.0
 40
0.005
100
AcDbArc
 50
182.0000000037536
 51
267.4091818008339
  0
LINE
  5
15E6
330
1F
100
AcDbEntity
  8
SANINDUSA
100
AcDbLine
 10
4586.474519231612
 20
2350.800438110118
 30
0.0
 11
4586.466027205095
 21
2350.800822367122
 31
0.0
  0
LINE
  5
15E7
330
1F
100
AcDbEntity
  8
SANINDUSA
100
AcDbLine
 10
4586.486936545293
 20
2350.789643810359
 30
0.0
 11
4586.474519231612
 21
2350.800438110118
 31
0.0
  0
LINE
  5
15E8
330
1F
100
AcDbEntity
  8
SANINDUSA
100
AcDbLine
 10
4586.486936545293
 20
2350.776969429485
 30
0.0
 11
4586.486936545293
 21
2350.789643810359
 31
0.0
  0
LINE
  5
15E9
330
1F
100
AcDbEntity
  8
SANINDUSA
100
AcDbLine
 10
4586.476936545293
 20
2350.776969434963
 30
0.0
 11
4586.486936545293
 21
2350.776969429485
 31
0.0
  0
LINE
  5
15EA
330
1F
100
AcDbEntity
  8
SANINDUSA
100
AcDbLine
 10
4586.476145574282
 20
2350.786010332025
 30
0.0
 11
4586.476936545293
 21
2350.776969434963
 31
0.0
  0
ARC
  5
15EB
330
1F
100
AcDbEntity
  8
SANINDUSA
100
AcDbCircle
 10
4586.471164600552
 20
2350.78557455604
 30
0.0
 40
0.0050000000000002
100
AcDbArc
 50
4.999968608433126
 51
87.40918180083381
  0
LINE
  5
15EC
330
1F
100
AcDbEntity
  8
SANINDUSA
100
AcDbLine
 10
4586.465575176092
 20
2350.790832588858
 30
0.0
 11
4586.471390615053
 21
2350.790569445172
 31
0.0
  0
ARC
  5
15ED
330
1F
100
AcDbEntity
  8
SANINDUSA
100
AcDbCircle
 10
4586.466253219597
 20
2350.805817256255
 30
0.0
 40
0.015
100
AcDbArc
 50
182.0000000037536
 51
267.4091818008339
  0
LINE
  5
15EE
330
1F
100
AcDbEntity
  8
SANINDUSA
100
AcDbLine
 10
4586.362968279266
 20
2350.918407731027
 30
0.0
 11
4586.362968279266
 21
2350.906407731027
 31
0.0
  0
LINE
  5
15EF
330
1F
100
AcDbEntity
  8
SANINDUSA
100
AcDbLine
 10
4586.382677640813
 20
2350.918407731027
 30
0.0
 11
4586.362968279266
 21
2350.918407731027
 31
0.0
  0
LINE
  5
15F0
330
1F
100
AcDbEntity
  8
SANINDUSA
100
AcDbLine
 10
4586.372631476285
 20
2350.906407731027
 30
0.0
 11
4586.362968279266
 21
2350.906407731027
 31
0.0
  0
LINE
  5
15F2
330
1F
100
AcDbEntity
  8
SANINDUSA
100
AcDbLine
 10
4586.486936545293
 20
2350.789643810359
 30
0.0
 11
4586.53400001324
 21
2350.789643810359
 31
0.0
  0
LINE
  5
15F3
330
1F
100
AcDbEntity
  8
SANINDUSA
100
AcDbLine
 10
4586.474519231612
 20
2350.800438110118
 30
0.0
 11
4586.546417326922
 21
2350.800438110118
 31
0.0
  0
LINE
  5
15F4
330
1F
100
AcDbEntity
  8
SANINDUSA
100
AcDbLine
 10
4586.486936545293
 20
2350.776969429485
 30
0.0
 11
4586.53400001324
 21
2350.776969429485
 31
0.0
  0
ARC
  5
15F6
330
1F
100
AcDbEntity
  8
SANINDUSA
100
AcDbCircle
 10
4586.303603249095
 20
2350.810207731027
 30
0.0
 40
0.0020000000000001
100
AcDbArc
 50
270.0
 51
356.0000000007515
  0
LINE
  5
15F7
330
1F
100
AcDbEntity
  8
SANINDUSA
100
AcDbLine
 10
4586.290468279266
 20
2350.808207731027
 30
0.0
 11
4586.303603249095
 21
2350.808207731027
 31
0.0
  0
ARC
  5
15F8
330
1F
100
AcDbEntity
  8
SANINDUSA
100
AcDbCircle
 10
4586.290468279266
 20
2350.813207731027
 30
0.0
 40
0.005
100
AcDbArc
 50
180.0
 51
270.0
  0
LINE
  5
15F9
330
1F
100
AcDbEntity
  8
SANINDUSA
100
AcDbLine
 10
4586.285468279267
 20
2350.914407731027
 30
0.0
 11
4586.285468279267
 21
2350.813207731027
 31
0.0
  0
LINE
  5
15FA
330
1F
100
AcDbEntity
  8
SANINDUSA
100
AcDbLine
 10
4586.295468279266
 20
2350.908407731027
 30
0.0
 11
4586.295468279266
 21
2350.837193192004
 31
0.0
  0
ARC
  5
15FB
330
1F
100
AcDbEntity
  8
SANINDUSA
100
AcDbCircle
 10
4586.289468279266
 20
2350.914407731027
 30
0.0
 40
0.0040000000000002
100
AcDbArc
 50
90.0
 51
180.0
  0
LINE
  5
15FC
330
1F
100
AcDbEntity
  8
SANINDUSA
100
AcDbLine
 10
4586.327968279266
 20
2350.906407731027
 30
0.0
 11
4586.327968279266
 21
2350.918407731027
 31
0.0
  0
ARC
  5
15FD
330
1F
100
AcDbEntity
  8
SANINDUSA
100
AcDbCircle
 10
4586.31699766763
 20
2350.901407731027
 30
0.0
 40
0.005
100
AcDbArc
 50
90.0
 51
176.0000000007514
  0
ARC
  5
15FE
330
1F
100
AcDbEntity
  8
SANINDUSA
100
AcDbCircle
 10
4586.31699766763
 20
2350.901407731027
 30
0.0
 40
0.015
100
AcDbArc
 50
152.1818607174891
 51
176.0000000007514
  0
LINE
  5
15FF
330
1F
100
AcDbEntity
  8
SANINDUSA
100
AcDbLine
 10
4586.312009847379
 20
2350.901756513396
 30
0.0
 11
4586.305598377195
 21
2350.810068218079
 31
0.0
  0
LINE
  5
1600
330
1F
100
AcDbEntity
  8
SANINDUSA
100
AcDbLine
 10
4586.302034206876
 20
2350.902454078133
 30
0.0
 11
4586.297465843316
 21
2350.837123435531
 31
0.0
  0
ARC
  5
1601
330
1F
100
AcDbEntity
  8
SANINDUSA
100
AcDbCircle
 10
4586.296468279267
 20
2350.837193192004
 30
0.0
 40
0.001
100
AcDbArc
 50
180.0
 51
356.0000000007515
  0
LINE
  5
1602
330
1F
100
AcDbEntity
  8
SANINDUSA
100
AcDbLine
 10
4586.327968279266
 20
2350.918407731027
 30
0.0
 11
4586.289468279266
 21
2350.918407731027
 31
0.0
  0
LINE
  5
1603
330
1F
100
AcDbEntity
  8
SANINDUSA
100
AcDbLine
 10
4586.303731168469
 20
2350.908407731027
 30
0.0
 11
4586.295468279266
 21
2350.908407731027
 31
0.0
  0
LINE
  5
1604
330
1F
100
AcDbEntity
  8
SANINDUSA
100
AcDbLine
 10
4586.327968279266
 20
2350.906407731027
 30
0.0
 11
4586.31699766763
 21
2350.906407731027
 31
0.0
  0
LINE
  5
1607
330
1F
100
AcDbEntity
  8
SANINDUSA
100
AcDbLine
 10
4586.312029680677
 20
2350.808207731027
 30
0.0
 11
4586.303603249095
 21
2350.808207731027
 31
0.0
  0
LINE
  5
160A
330
1F
100
AcDbEntity
  8
SANINDUSA
100
AcDbLine
 10
4586.362968279266
 20
2350.918407731027
 30
0.0
 11
4586.327968279266
 21
2350.918407731027
 31
0.0
  0
LINE
  5
160B
330
1F
100
AcDbEntity
  8
SANINDUSA
100
AcDbLine
 10
4586.327968279266
 20
2350.906407731027
 30
0.0
 11
4586.362968279266
 21
2350.906407731027
 31
0.0
  0
SPLINE
  5
161C
330
1F
100
AcDbEntity
  8
SANINDUSA
100
AcDbSpline
210
0.0
220
0.0
230
1.0
 70
    24
 71
     3
 72
    12
 73
     8
 74
     0
 42
0.0000000001
 43
0.0000000001
 40
0.0
 40
0.0
 40
0.0
 40
0.0
 40
0.2500000000000038
 40
0.2500000000000038
 40
0.5000000000000076
 40
0.5000000000000076
 40
1.0
 40
1.0
 40
1.0
 40
1.0
 10
4586.315468279266
 20
2350.808207731027
 30
0.0
 10
4586.315074871815
 20
2350.808207731027
 30
0.0
 10
4586.314706205205
 20
2350.808207731027
 30
0.0
 10
4586.314017852989
 20
2350.808207731027
 30
0.0
 10
4586.313697925302
 20
2350.808207731027
 30
0.0
 10
4586.312832388587
 20
2350.808207731027
 30
0.0
 10
4586.312371330121
 20
2350.808207731027
 30
0.0
 10
4586.312029680677
 20
2350.808207731027
 30
0.0
  0
SPLINE
  5
161F
330
1F
100
AcDbEntity
  8
SANINDUSA
100
AcDbSpline
210
0.0
220
0.0
230
1.0
 70
    24
 71
     3
 72
    12
 73
     8
 74
     0
 42
0.0000000001
 43
0.0000000001
 40
0.0
 40
0.0
 40
0.0
 40
0.0
 40
0.5000000000000011
 40
0.5000000000000011
 40
0.7500000000000006
 40
0.7500000000000006
 40
1.0
 40
1.0
 40
1.0
 40
1.0
 10
4586.319557243232
 20
2350.808709792672
 30
0.0
 10
4586.318809879031
 20
2350.808618027887
 30
0.0
 10
4586.318100091491
 20
2350.808530876935
 30
0.0
 10
4586.317090039134
 20
2350.8084068581
 30
0.0
 10
4586.31676252564
 20
2350.8083666445
 30
0.0
 10
4586.316126352971
 20
2350.808288532318
 30
0.0
 10
4586.315817239507
 20
2350.808250577957
 30
0.0
 10
4586.315521901474
 20
2350.808214315006
 30
0.0
  0
LINE
  5
1620
330
1F
100
AcDbEntity
  8
SANINDUSA
100
AcDbLine
 10
4586.444434263706
 20
2350.824042762797
 30
0.0
 11
4586.319557243232
 21
2350.808709792672
 31
0.0
  0
LINE
  5
1623
330
1F
100
AcDbEntity
  8
SANINDUSA
100
AcDbLine
 10
4586.655657250889
 20
2350.849977684532
 30
0.0
 11
4586.651966282427
 21
2350.84952449059
 31
0.0
  0
LINE
  5
1624
330
1F
100
AcDbEntity
  8
SANINDUSA
100
AcDbLine
 10
4586.651966282427
 20
2350.84952449059
 30
0.0
 11
4586.618287422409
 21
2350.845389246551
 31
0.0
  0
LINE
  5
1625
330
1F
100
AcDbEntity
  8
SANINDUSA
100
AcDbLine
 10
4586.700574437723
 20
2350.888207731027
 30
0.0
 11
4586.740468279266
 21
2350.888207731027
 31
0.0
  0
SPLINE
  5
1628
330
1F
100
AcDbEntity
  8
SANINDUSA
100
AcDbSpline
210
0.0
220
0.0
230
1.0
 70
     8
 71
     3
 72
    30
 73
    26
 74
     0
 42
0.0000000001
 43
0.0000000001
 40
0.0
 40
0.0
 40
0.0
 40
0.0
 40
0.0033442551519622
 40
0.0484316219045322
 40
0.0933825985424559
 40
0.1385363181324551
 40
0.1838307698240928
 40
0.2289825203058952
 40
0.2745214722533433
 40
0.3202069750267566
 40
0.3657393797078792
 40
0.4112300883327223
 40
0.4568761726702601
 40
0.5023595037452972
 40
0.5478236483107415
 40
0.5934501641631775
 40
0.6389213758685373
 40
0.6842743862255328
 40
0.7297788470004796
 40
0.7751378095254938
 40
0.8202081636636727
 40
0.865421129554573
 40
0.9104936879081742
 40
0.9553186146407504
 40
1.0
 40
1.0
 40
1.0
 40
1.0
 10
4586.560940830717
 20
2350.829201585815
 30
0.0
 10
4586.560900753769
 20
2350.829200832215
 30
0.0
 10
4586.560320357988
 20
2350.829189918556
 30
0.0
 10
4586.558619834776
 20
2350.829157143174
 30
0.0
 10
4586.555822280804
 20
2350.829105768433
 30
0.0
 10
4586.552369393987
 20
2350.829045496704
 30
0.0
 10
4586.548403739685
 20
2350.828978651706
 30
0.0
 10
4586.543940610616
 20
2350.82890625495
 30
0.0
 10
4586.539021407207
 20
2350.82882822539
 30
0.0
 10
4586.533716988252
 20
2350.828748940497
 30
0.0
 10
4586.528105947743
 20
2350.828674280829
 30
0.0
 10
4586.522251018214
 20
2350.828610348512
 30
0.0
 10
4586.516239639411
 20
2350.828567573875
 30
0.0
 10
4586.510148684438
 20
2350.828556670965
 30
0.0
 10
4586.504064523685
 20
2350.828587583766
 30
0.0
 10
4586.498072625482
 20
2350.828647398406
 30
0.0
 10
4586.492254603817
 20
2350.828726321847
 30
0.0
 10
4586.486696740086
 20
2350.82881359763
 30
0.0
 10
4586.481459330377
 20
2350.82890322435
 30
0.0
 10
4586.476609115652
 20
2350.828989664634
 30
0.0
 10
4586.472219960881
 20
2350.829068589688
 30
0.0
 10
4586.468322842985
 20
2350.829140487318
 30
0.0
 10
4586.464974823258
 20
2350.829203781677
 30
0.0
 10
4586.462179421582
 20
2350.829258774527
 30
0.0
 10
4586.460822325262
 20
2350.829286058293
 30
0.0
 10
4586.460144865291
 20
2350.829299678298
 30
0.0
  0
ARC
  5
162F
330
1F
100
AcDbEntity
  8
SANINDUSA
100
AcDbCircle
 10
4585.113081460685
 20
2350.806017263817
 30
0.0
 40
0.015
100
AcDbArc
 50
182.0000000037536
 51
267.4091818008339
  0
SPLINE
  5
1630
330
1F
100
AcDbEntity
  8
SANINDUSA
100
AcDbSpline
210
0.0
220
0.0
230
1.0
 70
    24
 71
     1
 72
     4
 73
     2
 74
     0
 42
0.0000000001
 43
0.0000000001
 40
0.0
 40
0.0
 40
1.0
 40
1.0
 10
4585.112403415774
 20
2350.791032596527
 30
0.0
 10
4585.1182188547
 20
2350.790769452731
 30
0.0
  0
SPLINE
  5
1631
330
1F
100
AcDbEntity
  8
SANINDUSA
100
AcDbSpline
210
0.0
220
0.0
230
1.0
 70
    24
 71
     1
 72
     4
 73
     2
 74
     0
 42
0.0000000001
 43
0.0000000001
 40
0.0
 40
0.0
 40
1.0
 40
1.0
 10
4585.196374186014
 20
2350.790769452731
 30
0.0
 10
4585.202189624939
 20
2350.791032596527
 30
0.0
  0
ARC
  5
1632
330
1F
100
AcDbEntity
  8
SANINDUSA
100
AcDbCircle
 10
4585.19660019907
 20
2350.785774563602
 30
0.0
 40
0.0050000000000002
100
AcDbArc
 50
92.59081819916618
 51
175.0000313915668
  0
ARC
  5
1633
330
1F
100
AcDbEntity
  8
SANINDUSA
100
AcDbCircle
 10
4585.117992841642
 20
2350.785774563602
 30
0.0
 40
0.0050000000000002
100
AcDbArc
 50
4.999968608433126
 51
87.40918180083381
  0
SPLINE
  5
1634
330
1F
100
AcDbEntity
  8
SANINDUSA
100
AcDbSpline
210
0.0
220
0.0
230
1.0
 70
    24
 71
     1
 72
     4
 73
     2
 74
     0
 42
0.0000000001
 43
0.0000000001
 40
0.0
 40
0.0
 40
1.0
 40
1.0
 10
4585.122973815237
 20
2350.786210339553
 30
0.0
 10
4585.123764787499
 20
2350.778369442073
 30
0.0
  0
SPLINE
  5
1635
330
1F
100
AcDbEntity
  8
SANINDUSA
100
AcDbSpline
210
0.0
220
0.0
230
1.0
 70
    24
 71
     1
 72
     4
 73
     2
 74
     0
 42
0.0000000001
 43
0.0000000001
 40
0.0
 40
0.0
 40
1.0
 40
1.0
 10
4585.190828253214
 20
2350.778369442073
 30
0.0
 10
4585.191619225477
 20
2350.786210339553
 30
0.0
  0
LINE
  5
1638
330
1F
100
AcDbEntity
  8
SANINDUSA
100
AcDbLine
 10
4585.157296520356
 20
2350.790769452731
 30
0.0
 11
4585.1182188547
 21
2350.790769452731
 31
0.0
  0
LINE
  5
1639
330
1F
100
AcDbEntity
  8
SANINDUSA
100
AcDbLine
 10
4585.196374186014
 20
2350.790769452731
 30
0.0
 11
4585.157296520356
 21
2350.790769452731
 31
0.0
  0
ARC
  5
163B
330
1F
100
AcDbEntity
  8
SANINDUSA
100
AcDbCircle
 10
4585.201511580026
 20
2350.806017263817
 30
0.0
 40
0.0150000000000001
100
AcDbArc
 50
272.5908181991662
 51
357.9999999962464
  0
ARC
  5
163C
330
1F
100
AcDbEntity
  8
SANINDUSA
100
AcDbCircle
 10
4585.837766318433
 20
2350.806017263817
 30
0.0
 40
0.015
100
AcDbArc
 50
182.0000000037536
 51
267.4091818008339
  0
ARC
  5
163D
330
1F
100
AcDbEntity
  8
SANINDUSA
100
AcDbCircle
 10
4585.926196437775
 20
2350.806017263817
 30
0.0
 40
0.0150000000000002
100
AcDbArc
 50
272.5908181991662
 51
357.9999999962464
  0
SPLINE
  5
163E
330
1F
100
AcDbEntity
  8
SANINDUSA
100
AcDbSpline
210
0.0
220
0.0
230
1.0
 70
    24
 71
     1
 72
     4
 73
     2
 74
     0
 42
0.0000000001
 43
0.0000000001
 40
0.0
 40
0.0
 40
1.0
 40
1.0
 10
4585.837088268305
 20
2350.791032596527
 30
0.0
 10
4585.842903714683
 20
2350.790769452731
 30
0.0
  0
SPLINE
  5
163F
330
1F
100
AcDbEntity
  8
SANINDUSA
100
AcDbSpline
210
0.0
220
0.0
230
1.0
 70
    24
 71
     1
 72
     4
 73
     2
 74
     0
 42
0.0000000001
 43
0.0000000001
 40
0.0
 40
0.0
 40
1.0
 40
1.0
 10
4585.921059038546
 20
2350.790769452731
 30
0.0
 10
4585.926874484922
 20
2350.791032596527
 30
0.0
  0
ARC
  5
1640
330
1F
100
AcDbEntity
  8
SANINDUSA
100
AcDbCircle
 10
4585.921285056818
 20
2350.785774563602
 30
0.0
 40
0.0050000000000003
100
AcDbArc
 50
92.59081819916616
 51
175.0000313915668
  0
ARC
  5
1641
330
1F
100
AcDbEntity
  8
SANINDUSA
100
AcDbCircle
 10
4585.84267769939
 20
2350.785774563602
 30
0.0
 40
0.0050000000000003
100
AcDbArc
 50
4.999968608433126
 51
87.40918180083381
  0
SPLINE
  5
1642
330
1F
100
AcDbEntity
  8
SANINDUSA
100
AcDbSpline
210
0.0
220
0.0
230
1.0
 70
    24
 71
     1
 72
     4
 73
     2
 74
     0
 42
0.0000000001
 43
0.0000000001
 40
0.0
 40
0.0
 40
1.0
 40
1.0
 10
4585.847658675219
 20
2350.786210339553
 30
0.0
 10
4585.848449658658
 20
2350.778369442073
 30
0.0
  0
SPLINE
  5
1643
330
1F
100
AcDbEntity
  8
SANINDUSA
100
AcDbSpline
210
0.0
220
0.0
230
1.0
 70
    24
 71
     1
 72
     4
 73
     2
 74
     0
 42
0.0000000001
 43
0.0000000001
 40
0.0
 40
0.0
 40
1.0
 40
1.0
 10
4585.915513109472
 20
2350.778369442073
 30
0.0
 10
4585.916304078009
 20
2350.786210339553
 30
0.0
  0
LINE
  5
1645
330
1F
100
AcDbEntity
  8
SANINDUSA
100
AcDbLine
 10
4585.921059038546
 20
2350.790769452731
 30
0.0
 11
4585.842903714683
 21
2350.790769452731
 31
0.0
  0
LINE
  5
1647
330
1F
100
AcDbEntity
  8
SANINDUSA
100
AcDbLine
 10
4586.382677640813
 20
2350.918407731027
 30
0.0
 11
4586.735863648654
 21
2350.918207731027
 31
0.0
  0
ENDSEC
  0
SECTION
  2
OBJECTS
  0
DICTIONARY
  5
C
330
0
100
AcDbDictionary
281
     1
  3
ACAD_2007HEADERVARS_RT
350
3C6A
  3
ACAD_BACKGROUND
350
3C1A
  3
ACAD_COLOR
350
EE6
  3
ACAD_GROUP
350
D
  3
ACAD_LAYOUT
350
1A
  3
ACAD_MATERIAL
350
EE5
  3
ACAD_MLEADERSTYLE
350
10A8
  3
ACAD_MLINESTYLE
350
17
  3
ACAD_PLOTSETTINGS
350
19
  3
ACAD_PLOTSTYLENAME
350
E
  3
ACAD_SCALELIST
350
1096
  3
ACAD_TABLESTYLE
350
EE7
  3
ACAD_VISUALSTYLE
350
1082
  3
ACDB_RECOMPOSE_DATA
350
3C68
  3
AcDbVariableDictionary
350
3D
  3
AEC_PROPERTY_SET_DEFS
350
13F9
  3
ASE_INDEX_DICTIONARY
350
1066
  3
Autodesk_PNP
350
10B2
  3
DWGPROPS
350
3C69
  0
DICTIONARY
  5
3C22
330
8
100
AcDbDictionary
280
     1
281
     1
  0
DICTIONARY
  5
1051
330
2
100
AcDbDictionary
280
     1
281
     1
  3
ACAD_LAYERFILTERS
360
1065
  3
ACAD_LAYERSTATES
360
11A2
  3
ACLYDICTIONARY
360
1064
  0
DICTIONARY
  5
3BB8
330
10
100
AcDbDictionary
280
     1
281
     1
  3
ADSK_XREC_LAYER_RECONCILED
360
3BB9
  0
DICTIONARY
  5
3BBA
330
2F
100
AcDbDictionary
280
     1
281
     1
  3
ADSK_XREC_LAYER_RECONCILED
360
3BBB
  0
DICTIONARY
  5
3BBC
330
30
100
AcDbDictionary
280
     1
281
     1
  3
ADSK_XREC_LAYER_RECONCILED
360
3BBD
  0
DICTIONARY
  5
3BBE
330
31
100
AcDbDictionary
280
     1
281
     1
  3
ADSK_XREC_LAYER_RECONCILED
360
3BBF
  0
DICTIONARY
  5
3BC0
330
32
100
AcDbDictionary
280
     1
281
     1
  3
ADSK_XREC_LAYER_RECONCILED
360
3BC1
  0
DICTIONARY
  5
3BC2
330
33
100
AcDbDictionary
280
     1
281
     1
  3
ADSK_XREC_LAYER_RECONCILED
360
3BC3
  0
DICTIONARY
  5
3BC4
330
34
100
AcDbDictionary
280
     1
281
     1
  3
ADSK_XREC_LAYER_RECONCILED
360
3BC5
  0
DICTIONARY
  5
3BC6
330
35
100
AcDbDictionary
280
     1
281
     1
  3
ADSK_XREC_LAYER_RECONCILED
360
3BC7
  0
DICTIONARY
  5
3BC8
330
36
100
AcDbDictionary
280
     1
281
     1
  3
ADSK_XREC_LAYER_RECONCILED
360
3BC9
  0
DICTIONARY
  5
3BCA
330
37
100
AcDbDictionary
280
     1
281
     1
  3
ADSK_XREC_LAYER_RECONCILED
360
3BCB
  0
DICTIONARY
  5
3BCC
330
5D6
100
AcDbDictionary
280
     1
281
     1
  3
ADSK_XREC_LAYER_RECONCILED
360
3BCD
  0
DICTIONARY
  5
3BCE
330
8AF
100
AcDbDictionary
280
     1
281
     1
  3
ADSK_XREC_LAYER_RECONCILED
360
3BCF
  0
DICTIONARY
  5
3BD0
330
8F8
100
AcDbDictionary
280
     1
281
     1
  3
ADSK_XREC_LAYER_RECONCILED
360
3BD1
  0
DICTIONARY
  5
3BD2
330
91D
100
AcDbDictionary
280
     1
281
     1
  3
ADSK_XREC_LAYER_RECONCILED
360
3BD3
  0
DICTIONARY
  5
3BD4
330
C7B
100
AcDbDictionary
280
     1
281
     1
  3
ADSK_XREC_LAYER_RECONCILED
360
3BD5
  0
DICTIONARY
  5
3BD6
330
1060
100
AcDbDictionary
280
     1
281
     1
  3
ADSK_XREC_LAYER_RECONCILED
360
3BD7
  0
DICTIONARY
  5
3C6A
102
{ACAD_REACTORS
330
C
102
}
330
C
100
AcDbDictionary
281
     1
  3
DIMJOGANG
350
3C6B
  0
DICTIONARY
  5
3C1A
102
{ACAD_REACTORS
330
C
102
}
330
C
100
AcDbDictionary
281
     1
  0
DICTIONARY
  5
EE6
102
{ACAD_REACTORS
330
C
102
}
330
C
100
AcDbDictionary
281
     1
  0
DICTIONARY
  5
D
102
{ACAD_REACTORS
330
C
102
}
330
C
100
AcDbDictionary
281
     1
  0
DICTIONARY
  5
1A
102
{ACAD_REACTORS
330
C
102
}
330
C
100
AcDbDictionary
281
     1
  3
Layout1
350
1E
  3
Layout2
350
26
  3
Model
350
22
  0
DICTIONARY
  5
EE5
102
{ACAD_REACTORS
330
C
102
}
330
C
100
AcDbDictionary
281
     1
  3
ByBlock
350
1072
  3
ByLayer
350
106A
  3
Global
350
107A
  0
DICTIONARY
  5
10A8
102
{ACAD_REACTORS
330
C
102
}
330
C
100
AcDbDictionary
281
     1
  3
Standard
350
10A9
  0
DICTIONARY
  5
17
102
{ACAD_REACTORS
330
C
102
}
330
C
100
AcDbDictionary
281
     1
  3
Standard
350
18
  0
DICTIONARY
  5
19
102
{ACAD_REACTORS
330
C
102
}
330
C
100
AcDbDictionary
281
     1
  0
ACDBDICTIONARYWDFLT
  5
E
102
{ACAD_REACTORS
330
C
102
}
330
C
100
AcDbDictionary
281
     1
  3
Normal
350
F
100
AcDbDictionaryWithDefault
340
F
  0
DICTIONARY
  5
1096
102
{ACAD_REACTORS
330
C
102
}
330
C
100
AcDbDictionary
281
     1
  3
A0
350
1097
  3
A1
350
1098
  3
A2
350
1099
  3
A3
350
109A
  3
A4
350
109B
  3
A5
350
109C
  3
A6
350
109D
  3
A7
350
109E
  3
A8
350
109F
  3
A9
350
10A0
  3
B0
350
10A1
  3
B1
350
10A2
  3
B2
350
10A3
  3
B3
350
10A4
  3
B4
350
10A5
  3
B5
350
10A6
  3
B6
350
10A7
  0
DICTIONARY
  5
EE7
102
{ACAD_REACTORS
330
C
102
}
330
C
100
AcDbDictionary
281
     1
  3
Standard
350
EE8
  0
DICTIONARY
  5
1082
102
{ACAD_REACTORS
330
C
102
}
330
C
100
AcDbDictionary
281
     1
  3
2dWireframe
350
1088
  3
3D Hidden
350
108A
  3
3dWireframe
350
1089
  3
Basic
350
1087
  3
Brighten
350
108E
  3
ColorChange
350
1092
  3
Conceptual
350
108B
  3
Dim
350
108D
  3
EdgeColorOff
350
1095
  3
Facepattern
350
1091
  3
Flat
350
1083
  3
FlatWithEdges
350
1084
  3
Gouraud
350
1085
  3
GouraudWithEdges
350
1086
  3
JitterOff
350
1093
  3
Linepattern
350
1090
  3
OverhangOff
350
1094
  3
Realistic
350
108C
  3
Thicken
350
108F
  0
XRECORD
  5
3C68
102
{ACAD_REACTORS
330
C
102
}
330
C
100
AcDbXrecord
280
     1
 90
        1
330
EE8
  0
DICTIONARY
  5
3D
102
{ACAD_REACTORS
330
C
102
}
330
C
100
AcDbDictionary
281
     1
  3
CANNOSCALE
350
3C5A
  3
CMLEADERSTYLE
350
3C59
  3
CTABLESTYLE
350
1049
  3
DIMASSOC
350
3F
  3
HIDETEXT
350
3E
  3
INDEXCTL
350
3C5C
  3
SORTENTS
350
3C5B
  3
XCLIPFRAME
350
3C66
  0
DICTIONARY
  5
13F9
102
{ACAD_REACTORS
330
C
102
}
330
C
100
AcDbDictionary
281
     1
  0
DICTIONARY
  5
1066
102
{ACAD_REACTORS
330
C
102
}
330
C
100
AcDbDictionary
281
     1
  3
ASEBlockHierarchyIndexRecord
350
1067
1001
DCO15
1040
1602247867.484
  0
DICTIONARY
  5
10B2
102
{ACAD_REACTORS
330
C
102
}
330
C
100
AcDbDictionary
281
     1
  0
XRECORD
  5
3C69
102
{ACAD_REACTORS
330
C
102
}
330
C
100
AcDbXrecord
280
     1
  1
DWGPROPS COOKIE
  2

  3

  4

  6

  7

  8
Julio
  9

300
=
301
=
302
=
303
=
304
=
305
=
306
=
307
=
308
=
309
=
 40
0.0091303125
 41
2455782.403779109
 42
2456111.658217223
  1

 90
        0
  0
DICTIONARY
  5
1065
102
{ACAD_REACTORS
330
1051
102
}
330
1051
100
AcDbDictionary
281
     1
  0
DICTIONARY
  5
11A2
102
{ACAD_REACTORS
330
1051
102
}
330
1051
100
AcDbDictionary
281
     1
  0
DICTIONARY
  5
1064
102
{ACAD_REACTORS
330
1051
102
}
330
1051
100
AcDbDictionary
281
     1
1001
ACAD
1000
<All
  0
XRECORD
  5
3BB9
102
{ACAD_REACTORS
330
3BB8
102
}
330
3BB8
100
AcDbXrecord
280
     1
290
     1
  0
XRECORD
  5
3BBB
102
{ACAD_REACTORS
330
3BBA
102
}
330
3BBA
100
AcDbXrecord
280
     1
290
     1
  0
XRECORD
  5
3BBD
102
{ACAD_REACTORS
330
3BBC
102
}
330
3BBC
100
AcDbXrecord
280
     1
290
     1
  0
XRECORD
  5
3BBF
102
{ACAD_REACTORS
330
3BBE
102
}
330
3BBE
100
AcDbXrecord
280
     1
290
     1
  0
XRECORD
  5
3BC1
102
{ACAD_REACTORS
330
3BC0
102
}
330
3BC0
100
AcDbXrecord
280
     1
290
     1
  0
XRECORD
  5
3BC3
102
{ACAD_REACTORS
330
3BC2
102
}
330
3BC2
100
AcDbXrecord
280
     1
290
     1
  0
XRECORD
  5
3BC5
102
{ACAD_REACTORS
330
3BC4
102
}
330
3BC4
100
AcDbXrecord
280
     1
290
     1
  0
XRECORD
  5
3BC7
102
{ACAD_REACTORS
330
3BC6
102
}
330
3BC6
100
AcDbXrecord
280
     1
290
     1
  0
XRECORD
  5
3BC9
102
{ACAD_REACTORS
330
3BC8
102
}
330
3BC8
100
AcDbXrecord
280
     1
290
     1
  0
XRECORD
  5
3BCB
102
{ACAD_REACTORS
330
3BCA
102
}
330
3BCA
100
AcDbXrecord
280
     1
290
     1
  0
XRECORD
  5
3BCD
102
{ACAD_REACTORS
330
3BCC
102
}
330
3BCC
100
AcDbXrecord
280
     1
290
     1
  0
XRECORD
  5
3BCF
102
{ACAD_REACTORS
330
3BCE
102
}
330
3BCE
100
AcDbXrecord
280
     1
290
     1
  0
XRECORD
  5
3BD1
102
{ACAD_REACTORS
330
3BD0
102
}
330
3BD0
100
AcDbXrecord
280
     1
290
     1
  0
XRECORD
  5
3BD3
102
{ACAD_REACTORS
330
3BD2
102
}
330
3BD2
100
AcDbXrecord
280
     1
290
     1
  0
XRECORD
  5
3BD5
102
{ACAD_REACTORS
330
3BD4
102
}
330
3BD4
100
AcDbXrecord
280
     1
290
     1
  0
XRECORD
  5
3BD7
102
{ACAD_REACTORS
330
3BD6
102
}
330
3BD6
100
AcDbXrecord
280
     1
290
     1
  0
XRECORD
  5
3C6B
102
{ACAD_REACTORS
330
3C6A
102
}
330
3C6A
100
AcDbXrecord
280
     1
 40
1.570796326794896
  0
LAYOUT
  5
1E
102
{ACAD_XDICTIONARY
360
3C6C
102
}
102
{ACAD_REACTORS
330
1A
102
}
330
1A
100
AcDbPlotSettings
  1

  2
Ploter HP500
  4

  6

 40
0.0
 41
0.0
 42
0.0
 43
0.0
 44
0.0
 45
0.0
 46
0.0
 47
0.0
 48
0.0
 49
0.0
140
0.0
141
0.0
142
1.0
143
1.0
 70
   688
 72
     0
 73
     0
 74
     5
  7
sanindusa.ctb
 75
    16
147
1.0
148
0.0
149
0.0
100
AcDbLayout
  1
Layout1
 70
     1
 71
     1
 10
0.0
 20
0.0
 11
420.0
 21
297.0
 12
0.0
 22
0.0
 32
0.0
 14
1.000000000000000E+20
 24
1.000000000000000E+20
 34
1.000000000000000E+20
 15
-1.000000000000000E+20
 25
-1.000000000000000E+20
 35
-1.000000000000000E+20
146
0.0
 13
0.0
 23
0.0
 33
0.0
 16
1.0
 26
0.0
 36
0.0
 17
0.0
 27
1.0
 37
0.0
 76
     0
330
1B
  0
LAYOUT
  5
26
102
{ACAD_XDICTIONARY
360
3C70
102
}
102
{ACAD_REACTORS
330
1A
102
}
330
1A
100
AcDbPlotSettings
  1

  2
Ploter HP500
  4

  6

 40
0.0
 41
0.0
 42
0.0
 43
0.0
 44
0.0
 45
0.0
 46
0.0
 47
0.0
 48
0.0
 49
0.0
140
0.0
141
0.0
142
1.0
143
1.0
 70
   688
 72
     0
 73
     0
 74
     5
  7
sanindusa.ctb
 75
    16
147
1.0
148
0.0
149
0.0
100
AcDbLayout
  1
Layout2
 70
     1
 71
     2
 10
0.0
 20
0.0
 11
12.0
 21
9.0
 12
0.0
 22
0.0
 32
0.0
 14
0.0
 24
0.0
 34
0.0
 15
0.0
 25
0.0
 35
0.0
146
0.0
 13
0.0
 23
0.0
 33
0.0
 16
1.0
 26
0.0
 36
0.0
 17
0.0
 27
1.0
 37
0.0
 76
     0
330
23
  0
LAYOUT
  5
22
102
{ACAD_XDICTIONARY
360
3C6E
102
}
102
{ACAD_REACTORS
330
1A
102
}
330
1A
100
AcDbPlotSettings
  1

  2
Ploter HP500
  4
User268
  6

 40
4.995333194732666
 41
16.97565841674804
 42
4.995330810546875
 43
16.97567749023437
 44
209.9733276367187
 45
296.9259948730469
 46
0.0
 47
0.0
 48
0.0
 49
0.0
140
0.0
141
0.0
142
1.0
143
1.0
 70
 11952
 72
     1
 73
     1
 74
     0
  7
sanindusa.ctb
 75
     0
147
1.0
148
-427.5957866592534
149
7.362384574453926
100
AcDbLayout
  1
Model
 70
     1
 71
     0
 10
0.0
 20
0.0
 11
12.0
 21
9.0
 12
0.0
 22
0.0
 32
0.0
 14
0.0
 24
0.0
 34
0.0
 15
0.0
 25
0.0
 35
0.0
146
0.0
 13
0.0
 23
0.0
 33
0.0
 16
1.0
 26
0.0
 36
0.0
 17
0.0
 27
1.0
 37
0.0
 76
     0
330
1F
331
1068
  0
MATERIAL
  5
1072
102
{ACAD_XDICTIONARY
360
1073
102
}
102
{ACAD_REACTORS
330
EE5
102
}
330
EE5
100
AcDbMaterial
  1
ByBlock
 72
     0
 43
0.0008202099737533
 43
0.0
 43
0.0
 43
0.0
 43
0.0
 43
0.0008202099737533
 43
0.0
 43
0.0
 43
0.0
 43
0.0
 43
1.0
 43
0.0
 43
0.0
 43
0.0
 43
0.0
 43
1.0
 77
     0
 47
0.0008202099737533
 47
0.0
 47
0.0
 47
0.0
 47
0.0
 47
0.0008202099737533
 47
0.0
 47
0.0
 47
0.0
 47
0.0
 47
1.0
 47
0.0
 47
0.0
 47
0.0
 47
0.0
 47
1.0
171
     0
 49
0.0008202099737533
 49
0.0
 49
0.0
 49
0.0
 49
0.0
 49
0.0008202099737533
 49
0.0
 49
0.0
 49
0.0
 49
0.0
 49
1.0
 49
0.0
 49
0.0
 49
0.0
 49
0.0
 49
1.0
175
     0
142
0.0008202099737533
142
0.0
142
0.0
142
0.0
142
0.0
142
0.0008202099737533
142
0.0
142
0.0
142
0.0
142
0.0
142
1.0
142
0.0
142
0.0
142
0.0
142
0.0
142
1.0
179
     0
144
0.0008202099737533
144
0.0
144
0.0
144
0.0
144
0.0
144
0.0008202099737533
144
0.0
144
0.0
144
0.0
144
0.0
144
1.0
144
0.0
144
0.0
144
0.0
144
0.0
144
1.0
147
0.0008202099737533
147
0.0
147
0.0
147
0.0
147
0.0
147
0.0008202099737533
147
0.0
147
0.0
147
0.0
147
0.0
147
1.0
147
0.0
147
0.0
147
0.0
147
0.0
147
1.0
  0
MATERIAL
  5
106A
102
{ACAD_XDICTIONARY
360
106B
102
}
102
{ACAD_REACTORS
330
EE5
102
}
330
EE5
100
AcDbMaterial
  1
ByLayer
 72
     0
 43
0.0008202099737533
 43
0.0
 43
0.0
 43
0.0
 43
0.0
 43
0.0008202099737533
 43
0.0
 43
0.0
 43
0.0
 43
0.0
 43
1.0
 43
0.0
 43
0.0
 43
0.0
 43
0.0
 43
1.0
 77
     0
 47
0.0008202099737533
 47
0.0
 47
0.0
 47
0.0
 47
0.0
 47
0.0008202099737533
 47
0.0
 47
0.0
 47
0.0
 47
0.0
 47
1.0
 47
0.0
 47
0.0
 47
0.0
 47
0.0
 47
1.0
171
     0
 49
0.0008202099737533
 49
0.0
 49
0.0
 49
0.0
 49
0.0
 49
0.0008202099737533
 49
0.0
 49
0.0
 49
0.0
 49
0.0
 49
1.0
 49
0.0
 49
0.0
 49
0.0
 49
0.0
 49
1.0
175
     0
142
0.0008202099737533
142
0.0
142
0.0
142
0.0
142
0.0
142
0.0008202099737533
142
0.0
142
0.0
142
0.0
142
0.0
142
1.0
142
0.0
142
0.0
142
0.0
142
0.0
142
1.0
179
     0
144
0.0008202099737533
144
0.0
144
0.0
144
0.0
144
0.0
144
0.0008202099737533
144
0.0
144
0.0
144
0.0
144
0.0
144
1.0
144
0.0
144
0.0
144
0.0
144
0.0
144
1.0
147
0.0008202099737533
147
0.0
147
0.0
147
0.0
147
0.0
147
0.0008202099737533
147
0.0
147
0.0
147
0.0
147
0.0
147
1.0
147
0.0
147
0.0
147
0.0
147
0.0
147
1.0
  0
MATERIAL
  5
107A
102
{ACAD_XDICTIONARY
360
107B
102
}
102
{ACAD_REACTORS
330
EE5
102
}
330
EE5
100
AcDbMaterial
  1
Global
 72
     0
 43
0.0008202099737533
 43
0.0
 43
0.0
 43
0.0
 43
0.0
 43
0.0008202099737533
 43
0.0
 43
0.0
 43
0.0
 43
0.0
 43
1.0
 43
0.0
 43
0.0
 43
0.0
 43
0.0
 43
1.0
 77
     0
 47
0.0008202099737533
 47
0.0
 47
0.0
 47
0.0
 47
0.0
 47
0.0008202099737533
 47
0.0
 47
0.0
 47
0.0
 47
0.0
 47
1.0
 47
0.0
 47
0.0
 47
0.0
 47
0.0
 47
1.0
171
     0
 49
0.0008202099737533
 49
0.0
 49
0.0
 49
0.0
 49
0.0
 49
0.0008202099737533
 49
0.0
 49
0.0
 49
0.0
 49
0.0
 49
1.0
 49
0.0
 49
0.0
 49
0.0
 49
0.0
 49
1.0
175
     0
142
0.0008202099737533
142
0.0
142
0.0
142
0.0
142
0.0
142
0.0008202099737533
142
0.0
142
0.0
142
0.0
142
0.0
142
1.0
142
0.0
142
0.0
142
0.0
142
0.0
142
1.0
179
     0
144
0.0008202099737533
144
0.0
144
0.0
144
0.0
144
0.0
144
0.0008202099737533
144
0.0
144
0.0
144
0.0
144
0.0
144
1.0
144
0.0
144
0.0
144
0.0
144
0.0
144
1.0
147
0.0008202099737533
147
0.0
147
0.0
147
0.0
147
0.0
147
0.0008202099737533
147
0.0
147
0.0
147
0.0
147
0.0
147
1.0
147
0.0
147
0.0
147
0.0
147
0.0
147
1.0
  0
MLEADERSTYLE
  5
10A9
102
{ACAD_REACTORS
330
10A8
102
}
330
10A8
100
AcDbMLeaderStyle
170
     2
171
     1
172
     0
 90
        2
 40
0.0
 41
0.0
173
     1
 91
-1056964608
340
14
 92
       -2
290
     1
 42
2.0
291
     1
 43
0.36
  3
Standard
 44
4.0
300

342
11
174
     1
178
     6
175
     1
176
     0
 93
-1056964608
 45
4.0
292
     0
297
     0
 46
4.0
 94
-1056964608
 47
1.0
 49
1.0
140
1.0
293
     1
141
0.0
294
     1
177
     0
142
1.0
295
     0
296
     0
143
0.125
1001
ACAD_MLEADERVER
1070
     2
  0
MLINESTYLE
  5
18
102
{ACAD_REACTORS
330
17
102
}
330
17
100
AcDbMlineStyle
  2
STANDARD
 70
     0
  3

 62
   256
 51
90.0
 52
90.0
 71
     2
 49
0.5
 62
   256
  6
BYLAYER
 49
-0.5
 62
   256
  6
BYLAYER
  0
ACDBPLACEHOLDER
  5
F
102
{ACAD_REACTORS
330
E
102
}
330
E
  0
SCALE
  5
1097
102
{ACAD_REACTORS
330
1096
102
}
330
1096
100
AcDbScale
 70
     0
300
1:1
140
1.0
141
1.0
290
     1
  0
SCALE
  5
1098
102
{ACAD_REACTORS
330
1096
102
}
330
1096
100
AcDbScale
 70
     0
300
1:2
140
1.0
141
2.0
290
     0
  0
SCALE
  5
1099
102
{ACAD_REACTORS
330
1096
102
}
330
1096
100
AcDbScale
 70
     0
300
1:4
140
1.0
141
4.0
290
     0
  0
SCALE
  5
109A
102
{ACAD_REACTORS
330
1096
102
}
330
1096
100
AcDbScale
 70
     0
300
1:5
140
1.0
141
5.0
290
     0
  0
SCALE
  5
109B
102
{ACAD_REACTORS
330
1096
102
}
330
1096
100
AcDbScale
 70
     0
300
1:8
140
1.0
141
8.0
290
     0
  0
SCALE
  5
109C
102
{ACAD_REACTORS
330
1096
102
}
330
1096
100
AcDbScale
 70
     0
300
1:10
140
1.0
141
10.0
290
     0
  0
SCALE
  5
109D
102
{ACAD_REACTORS
330
1096
102
}
330
1096
100
AcDbScale
 70
     0
300
1:16
140
1.0
141
16.0
290
     0
  0
SCALE
  5
109E
102
{ACAD_REACTORS
330
1096
102
}
330
1096
100
AcDbScale
 70
     0
300
1:20
140
1.0
141
20.0
290
     0
  0
SCALE
  5
109F
102
{ACAD_REACTORS
330
1096
102
}
330
1096
100
AcDbScale
 70
     0
300
1:30
140
1.0
141
30.0
290
     0
  0
SCALE
  5
10A0
102
{ACAD_REACTORS
330
1096
102
}
330
1096
100
AcDbScale
 70
     0
300
1:40
140
1.0
141
40.0
290
     0
  0
SCALE
  5
10A1
102
{ACAD_REACTORS
330
1096
102
}
330
1096
100
AcDbScale
 70
     0
300
1:50
140
1.0
141
50.0
290
     0
  0
SCALE
  5
10A2
102
{ACAD_REACTORS
330
1096
102
}
330
1096
100
AcDbScale
 70
     0
300
1:100
140
1.0
141
100.0
290
     0
  0
SCALE
  5
10A3
102
{ACAD_REACTORS
330
1096
102
}
330
1096
100
AcDbScale
 70
     0
300
2:1
140
2.0
141
1.0
290
     0
  0
SCALE
  5
10A4
102
{ACAD_REACTORS
330
1096
102
}
330
1096
100
AcDbScale
 70
     0
300
4:1
140
4.0
141
1.0
290
     0
  0
SCALE
  5
10A5
102
{ACAD_REACTORS
330
1096
102
}
330
1096
100
AcDbScale
 70
     0
300
8:1
140
8.0
141
1.0
290
     0
  0
SCALE
  5
10A6
102
{ACAD_REACTORS
330
1096
102
}
330
1096
100
AcDbScale
 70
     0
300
10:1
140
10.0
141
1.0
290
     0
  0
SCALE
  5
10A7
102
{ACAD_REACTORS
330
1096
102
}
330
1096
100
AcDbScale
 70
     0
300
100:1
140
100.0
141
1.0
290
     0
  0
TABLESTYLE
  5
EE8
102
{ACAD_XDICTIONARY
360
3C1C
102
}
102
{ACAD_REACTORS
330
EE7
102
}
330
EE7
100
AcDbTableStyle
  3
Standard
 70
     0
 71
     0
 40
1.5
 41
1.5
280
     0
281
     0
  7
Standard
140
4.5
170
     2
 62
     0
 63
     7
283
     0
274
    -2
284
     1
 64
     0
275
    -2
285
     1
 65
     0
276
    -2
286
     1
 66
     0
277
    -2
287
     1
 67
     0
278
    -2
288
     1
 68
     0
279
    -2
289
     1
 69
     0
  7
Standard
140
6.0
170
     5
 62
     0
 63
     7
283
     0
274
    -2
284
     1
 64
     0
275
    -2
285
     1
 65
     0
276
    -2
286
     1
 66
     0
277
    -2
287
     1
 67
     0
278
    -2
288
     1
 68
     0
279
    -2
289
     1
 69
     0
  7
Standard
140
4.5
170
     5
 62
     0
 63
     7
283
     0
274
    -2
284
     1
 64
     0
275
    -2
285
     1
 65
     0
276
    -2
286
     1
 66
     0
277
    -2
287
     1
 67
     0
278
    -2
288
     1
 68
     0
279
    -2
289
     1
 69
     0
  0
VISUALSTYLE
  5
1088
102
{ACAD_XDICTIONARY
360
3C80
102
}
102
{ACAD_REACTORS
330
1082
102
}
330
1082
100
AcDbVisualStyle
  2
2dWireframe
 70
     4
 71
     0
 72
     2
 73
     0
 90
        0
 40
-0.6
 41
-30.0
 62
     5
 63
     7
 74
     1
 91
        4
 64
     7
 65
   257
 75
     1
175
     1
 42
1.0
 92
        0
 66
   257
 43
1.0
 76
     1
 77
     6
 78
     2
 67
     7
 79
     5
170
     0
171
     0
290
     0
174
     0
 93
        1
 44
0.0
173
     0
291
     0
 45
0.0
1001
ACAD
1000
AcDbSavedByObjectVersion
1070
     0
  0
VISUALSTYLE
  5
108A
102
{ACAD_XDICTIONARY
360
3C84
102
}
102
{ACAD_REACTORS
330
1082
102
}
330
1082
100
AcDbVisualStyle
  2
3D Hidden
 70
     6
 71
     1
 72
     2
 73
     2
 90
        0
 40
-0.6
 41
-30.0
 62
     5
 63
     7
 74
     2
 91
        2
 64
     7
 65
   257
 75
     2
175
     1
 42
179.0
 92
        0
 66
   257
 43
1.0
 76
     1
 77
     6
 78
     2
 67
     7
 79
     3
170
     0
171
     0
290
     0
174
     0
 93
        1
 44
0.0
173
     0
291
     0
 45
0.0
1001
ACAD
1000
AcDbSavedByObjectVersion
1070
     0
  0
VISUALSTYLE
  5
1089
102
{ACAD_XDICTIONARY
360
3C82
102
}
102
{ACAD_REACTORS
330
1082
102
}
330
1082
100
AcDbVisualStyle
  2
3dWireframe
 70
     5
 71
     0
 72
     2
 73
     0
 90
        0
 40
-0.6
 41
-30.0
 62
     5
 63
     7
 74
     1
 91
        4
 64
     7
 65
   257
 75
     1
175
     1
 42
1.0
 92
        0
 66
   257
 43
1.0
 76
     1
 77
     6
 78
     2
 67
     7
 79
     5
170
     0
171
     0
290
     0
174
     0
 93
        1
 44
0.0
173
     0
291
     0
 45
0.0
1001
ACAD
1000
AcDbSavedByObjectVersion
1070
     0
  0
VISUALSTYLE
  5
1087
102
{ACAD_XDICTIONARY
360
3C7E
102
}
102
{ACAD_REACTORS
330
1082
102
}
330
1082
100
AcDbVisualStyle
  2
Basic
 70
     7
 71
     1
 72
     0
 73
     1
 90
        0
 40
-0.6
 41
-30.0
 62
     5
 63
     7
 74
     0
 91
        4
 64
     7
 65
   257
 75
     1
175
     1
 42
1.0
 92
        8
 66
     7
 43
1.0
 76
     1
 77
     6
 78
     2
 67
     7
 79
     5
170
     0
171
     0
290
     0
174
     0
 93
        1
 44
0.0
173
     0
291
     1
 45
0.0
1001
ACAD
1000
AcDbSavedByObjectVersion
1070
     0
  0
VISUALSTYLE
  5
108E
102
{ACAD_XDICTIONARY
360
3C8C
102
}
102
{ACAD_REACTORS
330
1082
102
}
330
1082
100
AcDbVisualStyle
  2
Brighten
 70
    12
 71
     2
 72
     2
 73
     0
 90
        0
 40
-0.6
 41
-30.0
 62
     5
 63
     7
 74
     1
 91
        4
 64
     7
 65
   257
 75
     1
175
     1
 42
1.0
 92
        8
 66
     7
 43
1.0
 76
     1
 77
     6
 78
     2
 67
     7
 79
     5
170
     0
171
     0
290
     0
174
     0
 93
        1
 44
50.0
173
     0
291
     1
 45
0.0
1001
ACAD
1000
AcDbSavedByObjectVersion
1070
     0
  0
VISUALSTYLE
  5
1092
102
{ACAD_XDICTIONARY
360
3C94
102
}
102
{ACAD_REACTORS
330
1082
102
}
330
1082
100
AcDbVisualStyle
  2
ColorChange
 70
    16
 71
     2
 72
     2
 73
     3
 90
        0
 40
-0.6
 41
-30.0
 62
     5
 63
     8
 74
     1
 91
        4
 64
     7
 65
   257
 75
     1
175
     1
 42
1.0
 92
        8
 66
     8
 43
1.0
 76
     1
 77
     6
 78
     2
 67
     7
 79
     5
170
     0
171
     0
290
     0
174
     0
 93
        1
 44
0.0
173
     0
291
     1
 45
0.0
1001
ACAD
1000
AcDbSavedByObjectVersion
1070
     0
  0
VISUALSTYLE
  5
108B
102
{ACAD_XDICTIONARY
360
3C86
102
}
102
{ACAD_REACTORS
330
1082
102
}
330
1082
100
AcDbVisualStyle
  2
Conceptual
 70
     9
 71
     3
 72
     2
 73
     0
 90
        0
 40
-0.6
 41
-30.0
 62
     5
 63
     7
 74
     2
 91
        2
 64
     7
 65
   257
 75
     1
175
     1
 42
179.0
 92
        8
 66
     7
 43
1.0
 76
     1
 77
     6
 78
     2
 67
     7
 79
     3
170
     0
171
     0
290
     0
174
     0
 93
        1
 44
0.0
173
     0
291
     0
 45
0.0
1001
ACAD
1000
AcDbSavedByObjectVersion
1070
     0
  0
VISUALSTYLE
  5
108D
102
{ACAD_XDICTIONARY
360
3C8A
102
}
102
{ACAD_REACTORS
330
1082
102
}
330
1082
100
AcDbVisualStyle
  2
Dim
 70
    11
 71
     2
 72
     2
 73
     0
 90
        0
 40
-0.6
 41
-30.0
 62
     5
 63
     7
 74
     1
 91
        4
 64
     7
 65
   257
 75
     1
175
     1
 42
1.0
 92
        8
 66
     7
 43
1.0
 76
     1
 77
     6
 78
     2
 67
     7
 79
     5
170
     0
171
     0
290
     0
174
     0
 93
        1
 44
-50.0
173
     0
291
     1
 45
0.0
1001
ACAD
1000
AcDbSavedByObjectVersion
1070
     0
  0
VISUALSTYLE
  5
1095
102
{ACAD_XDICTIONARY
360
3C9A
102
}
102
{ACAD_REACTORS
330
1082
102
}
330
1082
100
AcDbVisualStyle
  2
EdgeColorOff
 70
    22
 71
     2
 72
     2
 73
     0
 90
        0
 40
-0.6
 41
-30.0
 62
     5
 63
     7
 74
     1
 91
        4
 64
     7
 65
   257
 75
     1
175
     1
 42
1.0
 92
        8
 66
     7
 43
1.0
 76
     1
 77
     6
 78
     2
 67
     7
 79
     5
170
     0
171
     0
290
     0
174
     0
 93
        1
 44
0.0
173
     0
291
     1
 45
0.0
1001
ACAD
1000
AcDbSavedByObjectVersion
1070
     0
  0
VISUALSTYLE
  5
1091
102
{ACAD_XDICTIONARY
360
3C92
102
}
102
{ACAD_REACTORS
330
1082
102
}
330
1082
100
AcDbVisualStyle
  2
Facepattern
 70
    15
 71
     2
 72
     2
 73
     0
 90
        0
 40
-0.6
 41
-30.0
 62
     5
 63
     7
 74
     1
 91
        4
 64
     7
 65
   257
 75
     1
175
     1
 42
1.0
 92
        8
 66
     7
 43
1.0
 76
     1
 77
     6
 78
     2
 67
     7
 79
     5
170
     0
171
     0
290
     0
174
     0
 93
        1
 44
0.0
173
     0
291
     1
 45
0.0
1001
ACAD
1000
AcDbSavedByObjectVersion
1070
     0
  0
VISUALSTYLE
  5
1083
102
{ACAD_XDICTIONARY
360
3C76
102
}
102
{ACAD_REACTORS
330
1082
102
}
330
1082
100
AcDbVisualStyle
  2
Flat
 70
     0
 71
     2
 72
     1
 73
     1
 90
        2
 40
-0.6
 41
30.0
 62
     5
 63
     7
 74
     0
 91
        4
 64
     7
 65
   257
 75
     1
175
     1
 42
1.0
 92
        8
 66
     7
 43
1.0
 76
     1
 77
     6
 78
     2
 67
     7
 79
     5
170
     0
171
     0
290
     0
174
     0
 93
       13
 44
0.0
173
     0
291
     1
 45
0.0
1001
ACAD
1000
AcDbSavedByObjectVersion
1070
     0
  0
VISUALSTYLE
  5
1084
102
{ACAD_XDICTIONARY
360
3C78
102
}
102
{ACAD_REACTORS
330
1082
102
}
330
1082
100
AcDbVisualStyle
  2
FlatWithEdges
 70
     1
 71
     2
 72
     1
 73
     1
 90
        2
 40
-0.6
 41
30.0
 62
     5
 63
     7
 74
     1
 91
        4
 64
     7
 65
   257
 75
     1
175
     1
 42
1.0
 92
        0
 66
   257
 43
1.0
 76
     1
 77
     6
 78
     2
 67
     7
 79
     5
170
     0
171
     0
290
     0
174
     0
 93
       13
 44
0.0
173
     0
291
     1
 45
0.0
1001
ACAD
1000
AcDbSavedByObjectVersion
1070
     0
  0
VISUALSTYLE
  5
1085
102
{ACAD_XDICTIONARY
360
3C7A
102
}
102
{ACAD_REACTORS
330
1082
102
}
330
1082
100
AcDbVisualStyle
  2
Gouraud
 70
     2
 71
     2
 72
     2
 73
     1
 90
        2
 40
-0.6
 41
30.0
 62
     5
 63
     7
 74
     0
 91
        4
 64
     7
 65
   257
 75
     1
175
     1
 42
1.0
 92
        0
 66
     7
 43
1.0
 76
     1
 77
     6
 78
     2
 67
     7
 79
     5
170
     0
171
     0
290
     0
174
     0
 93
       13
 44
0.0
173
     0
291
     1
 45
0.0
1001
ACAD
1000
AcDbSavedByObjectVersion
1070
     0
  0
VISUALSTYLE
  5
1086
102
{ACAD_XDICTIONARY
360
3C7C
102
}
102
{ACAD_REACTORS
330
1082
102
}
330
1082
100
AcDbVisualStyle
  2
GouraudWithEdges
 70
     3
 71
     2
 72
     2
 73
     1
 90
        2
 40
-0.6
 41
30.0
 62
     5
 63
     7
 74
     1
 91
        4
 64
     7
 65
   257
 75
     1
175
     1
 42
1.0
 92
        0
 66
   257
 43
1.0
 76
     1
 77
     6
 78
     2
 67
     7
 79
     5
170
     0
171
     0
290
     0
174
     0
 93
       13
 44
0.0
173
     0
291
     1
 45
0.0
1001
ACAD
1000
AcDbSavedByObjectVersion
1070
     0
  0
VISUALSTYLE
  5
1093
102
{ACAD_XDICTIONARY
360
3C96
102
}
102
{ACAD_REACTORS
330
1082
102
}
330
1082
100
AcDbVisualStyle
  2
JitterOff
 70
    20
 71
     2
 72
     2
 73
     0
 90
        0
 40
-0.6
 41
-30.0
 62
     5
 63
     7
 74
     1
 91
        4
 64
     7
 65
   257
 75
     1
175
     1
 42
1.0
 92
       10
 66
     7
 43
1.0
 76
     1
 77
     6
 78
     2
 67
     7
 79
     5
170
     0
171
     0
290
     0
174
     0
 93
        1
 44
0.0
173
     0
291
     1
 45
0.0
1001
ACAD
1000
AcDbSavedByObjectVersion
1070
     0
  0
VISUALSTYLE
  5
1090
102
{ACAD_XDICTIONARY
360
3C90
102
}
102
{ACAD_REACTORS
330
1082
102
}
330
1082
100
AcDbVisualStyle
  2
Linepattern
 70
    14
 71
     2
 72
     2
 73
     0
 90
        0
 40
-0.6
 41
-30.0
 62
     5
 63
     7
 74
     1
 91
        4
 64
     7
 65
   257
 75
     7
175
     7
 42
1.0
 92
        8
 66
     7
 43
1.0
 76
     1
 77
     6
 78
     2
 67
     7
 79
     5
170
     0
171
     0
290
     0
174
     0
 93
        1
 44
0.0
173
     0
291
     1
 45
0.0
1001
ACAD
1000
AcDbSavedByObjectVersion
1070
     0
  0
VISUALSTYLE
  5
1094
102
{ACAD_XDICTIONARY
360
3C98
102
}
102
{ACAD_REACTORS
330
1082
102
}
330
1082
100
AcDbVisualStyle
  2
OverhangOff
 70
    21
 71
     2
 72
     2
 73
     0
 90
        0
 40
-0.6
 41
-30.0
 62
     5
 63
     7
 74
     1
 91
        4
 64
     7
 65
   257
 75
     1
175
     1
 42
1.0
 92
        9
 66
     7
 43
1.0
 76
     1
 77
     6
 78
     2
 67
     7
 79
     5
170
     0
171
     0
290
     0
174
     0
 93
        1
 44
0.0
173
     0
291
     1
 45
0.0
1001
ACAD
1000
AcDbSavedByObjectVersion
1070
     0
  0
VISUALSTYLE
  5
108C
102
{ACAD_XDICTIONARY
360
3C88
102
}
102
{ACAD_REACTORS
330
1082
102
}
330
1082
100
AcDbVisualStyle
  2
Realistic
 70
     8
 71
     2
 72
     2
 73
     0
 90
        0
 40
-0.6
 41
-30.0
 62
     5
 63
     7
 74
     1
 91
        0
 64
     7
 65
   257
 75
     1
175
     1
 42
1.0
 92
        8
 66
     8
 43
1.0
 76
     1
 77
     6
 78
     2
 67
     7
 79
     5
170
     0
171
     0
290
     0
174
     0
 93
       13
 44
0.0
173
     0
291
     0
 45
0.0
1001
ACAD
1000
AcDbSavedByObjectVersion
1070
     0
  0
VISUALSTYLE
  5
108F
102
{ACAD_XDICTIONARY
360
3C8E
102
}
102
{ACAD_REACTORS
330
1082
102
}
330
1082
100
AcDbVisualStyle
  2
Thicken
 70
    13
 71
     2
 72
     2
 73
     0
 90
        0
 40
-0.6
 41
-30.0
 62
     5
 63
     7
 74
     1
 91
        4
 64
     7
 65
   257
 75
     1
175
     1
 42
1.0
 92
       12
 66
     7
 43
1.0
 76
     1
 77
     6
 78
     2
 67
     7
 79
     5
170
     0
171
     0
290
     0
174
     0
 93
        1
 44
0.0
173
     0
291
     1
 45
0.0
1001
ACAD
1000
AcDbSavedByObjectVersion
1070
     0
  0
DICTIONARYVAR
  5
3C5A
102
{ACAD_REACTORS
330
3D
102
}
330
3D
100
DictionaryVariables
280
     0
  1
1:1
  0
DICTIONARYVAR
  5
3C59
102
{ACAD_REACTORS
330
3D
102
}
330
3D
100
DictionaryVariables
280
     0
  1
STANDARD
  0
DICTIONARYVAR
  5
1049
102
{ACAD_REACTORS
330
3D
102
}
330
3D
100
DictionaryVariables
280
     0
  1
STANDARD
  0
DICTIONARYVAR
  5
3F
102
{ACAD_REACTORS
330
3D
102
}
330
3D
100
DictionaryVariables
280
     0
  1
2
  0
DICTIONARYVAR
  5
3E
102
{ACAD_REACTORS
330
3D
102
}
330
3D
100
DictionaryVariables
280
     0
  1
1
  0
DICTIONARYVAR
  5
3C5C
102
{ACAD_REACTORS
330
3D
102
}
330
3D
100
DictionaryVariables
280
     0
  1
0
  0
DICTIONARYVAR
  5
3C5B
102
{ACAD_REACTORS
330
3D
102
}
330
3D
100
DictionaryVariables
280
     0
  1
127
  0
DICTIONARYVAR
  5
3C66
102
{ACAD_REACTORS
330
3D
102
}
330
3D
100
DictionaryVariables
280
     0
  1
2
  0
XRECORD
  5
1067
102
{ACAD_REACTORS
330
1066
102
}
330
1066
100
AcDbXrecord
280
     1
  0
DICTIONARY
  5
3C6C
330
1E
100
AcDbDictionary
280
     1
281
     1
  3
ACAD_XREC_ROUNDTRIP
360
3C6D
  0
DICTIONARY
  5
3C70
330
26
100
AcDbDictionary
280
     1
281
     1
  3
ACAD_XREC_ROUNDTRIP
360
3C71
  0
DICTIONARY
  5
3C6E
330
22
100
AcDbDictionary
280
     1
281
     1
  3
ACAD_XREC_ROUNDTRIP
360
3C6F
  0
DICTIONARY
  5
1073
330
1072
100
AcDbDictionary
280
     1
281
     1
  3
ACAD_XREC_ROUNDTRIP
360
3C74
  3
BUMPTILE
360
1075
  3
DIFFUSETILE
360
1074
  3
OPACITYTILE
360
1078
  3
REFLECTIONTILE
360
1077
  3
REFRACTIONTILE
360
1079
  3
SPECULARTILE
360
1076
  0
DICTIONARY
  5
106B
330
106A
100
AcDbDictionary
280
     1
281
     1
  3
ACAD_XREC_ROUNDTRIP
360
3C73
  3
BUMPTILE
360
106D
  3
DIFFUSETILE
360
106C
  3
OPACITYTILE
360
1070
  3
REFLECTIONTILE
360
106F
  3
REFRACTIONTILE
360
1071
  3
SPECULARTILE
360
106E
  0
DICTIONARY
  5
107B
330
107A
100
AcDbDictionary
280
     1
281
     1
  3
ACAD_XREC_ROUNDTRIP
360
3C75
  3
BUMPTILE
360
107D
  3
DIFFUSETILE
360
107C
  3
OPACITYTILE
360
1080
  3
REFLECTIONTILE
360
107F
  3
REFRACTIONTILE
360
1081
  3
SPECULARTILE
360
107E
  0
DICTIONARY
  5
3C1C
330
EE8
100
AcDbDictionary
280
     1
281
     1
  3
ACAD_ROUNDTRIP_2008_TABLESTYLE_CELLSTYLEMAP
360
3C67
  3
ACAD_XREC_ROUNDTRIP
360
3C72
  0
DICTIONARY
  5
3C80
330
1088
100
AcDbDictionary
280
     1
281
     1
  3
ACAD_XREC_ROUNDTRIP
360
3C81
  0
DICTIONARY
  5
3C84
330
108A
100
AcDbDictionary
280
     1
281
     1
  3
ACAD_XREC_ROUNDTRIP
360
3C85
  0
DICTIONARY
  5
3C82
330
1089
100
AcDbDictionary
280
     1
281
     1
  3
ACAD_XREC_ROUNDTRIP
360
3C83
  0
DICTIONARY
  5
3C7E
330
1087
100
AcDbDictionary
280
     1
281
     1
  3
ACAD_XREC_ROUNDTRIP
360
3C7F
  0
DICTIONARY
  5
3C8C
330
108E
100
AcDbDictionary
280
     1
281
     1
  3
ACAD_XREC_ROUNDTRIP
360
3C8D
  0
DICTIONARY
  5
3C94
330
1092
100
AcDbDictionary
280
     1
281
     1
  3
ACAD_XREC_ROUNDTRIP
360
3C95
  0
DICTIONARY
  5
3C86
330
108B
100
AcDbDictionary
280
     1
281
     1
  3
ACAD_XREC_ROUNDTRIP
360
3C87
  0
DICTIONARY
  5
3C8A
330
108D
100
AcDbDictionary
280
     1
281
     1
  3
ACAD_XREC_ROUNDTRIP
360
3C8B
  0
DICTIONARY
  5
3C9A
330
1095
100
AcDbDictionary
280
     1
281
     1
  3
ACAD_XREC_ROUNDTRIP
360
3C9B
  0
DICTIONARY
  5
3C92
330
1091
100
AcDbDictionary
280
     1
281
     1
  3
ACAD_XREC_ROUNDTRIP
360
3C93
  0
DICTIONARY
  5
3C76
330
1083
100
AcDbDictionary
280
     1
281
     1
  3
ACAD_XREC_ROUNDTRIP
360
3C77
  0
DICTIONARY
  5
3C78
330
1084
100
AcDbDictionary
280
     1
281
     1
  3
ACAD_XREC_ROUNDTRIP
360
3C79
  0
DICTIONARY
  5
3C7A
330
1085
100
AcDbDictionary
280
     1
281
     1
  3
ACAD_XREC_ROUNDTRIP
360
3C7B
  0
DICTIONARY
  5
3C7C
330
1086
100
AcDbDictionary
280
     1
281
     1
  3
ACAD_XREC_ROUNDTRIP
360
3C7D
  0
DICTIONARY
  5
3C96
330
1093
100
AcDbDictionary
280
     1
281
     1
  3
ACAD_XREC_ROUNDTRIP
360
3C97
  0
DICTIONARY
  5
3C90
330
1090
100
AcDbDictionary
280
     1
281
     1
  3
ACAD_XREC_ROUNDTRIP
360
3C91
  0
DICTIONARY
  5
3C98
330
1094
100
AcDbDictionary
280
     1
281
     1
  3
ACAD_XREC_ROUNDTRIP
360
3C99
  0
DICTIONARY
  5
3C88
330
108C
100
AcDbDictionary
280
     1
281
     1
  3
ACAD_XREC_ROUNDTRIP
360
3C89
  0
DICTIONARY
  5
3C8E
330
108F
100
AcDbDictionary
280
     1
281
     1
  3
ACAD_XREC_ROUNDTRIP
360
3C8F
  0
XRECORD
  5
3C6D
102
{ACAD_REACTORS
330
3C6C
102
}
330
3C6C
100
AcDbXrecord
280
     1
102
SHADEPLOT
 70
     0
102
SHADEPLOTRESLEVEL
 70
     2
102
SHADEPLOTCUSTOMDPI
 70
   300
  0
XRECORD
  5
3C71
102
{ACAD_REACTORS
330
3C70
102
}
330
3C70
100
AcDbXrecord
280
     1
102
SHADEPLOT
 70
     0
102
SHADEPLOTRESLEVEL
 70
     2
102
SHADEPLOTCUSTOMDPI
 70
   300
  0
XRECORD
  5
3C6F
102
{ACAD_REACTORS
330
3C6E
102
}
330
3C6E
100
AcDbXrecord
280
     1
102
SHADEPLOT
 70
     0
102
SHADEPLOTRESLEVEL
 70
     2
102
SHADEPLOTCUSTOMDPI
 70
   300
  0
XRECORD
  5
3C74
102
{ACAD_REACTORS
330
1073
102
}
330
1073
100
AcDbXrecord
280
     1
102
MATERIAL
148
0.0
149
0.0
149
0.0
 93
        0
 94
      127
282
     0
 72
     0
 77
     0
171
     0
175
     0
179
     0
273
     0
  0
XRECORD
  5
1075
102
{ACAD_REACTORS
330
1073
102
}
330
1073
100
AcDbXrecord
280
     1
270
     1
271
     1
  0
XRECORD
  5
1074
102
{ACAD_REACTORS
330
1073
102
}
330
1073
100
AcDbXrecord
280
     1
270
     1
271
     1
  0
XRECORD
  5
1078
102
{ACAD_REACTORS
330
1073
102
}
330
1073
100
AcDbXrecord
280
     1
270
     1
271
     1
  0
XRECORD
  5
1077
102
{ACAD_REACTORS
330
1073
102
}
330
1073
100
AcDbXrecord
280
     1
270
     1
271
     1
  0
XRECORD
  5
1079
102
{ACAD_REACTORS
330
1073
102
}
330
1073
100
AcDbXrecord
280
     1
270
     1
271
     1
  0
XRECORD
  5
1076
102
{ACAD_REACTORS
330
1073
102
}
330
1073
100
AcDbXrecord
280
     1
270
     1
271
     1
  0
XRECORD
  5
3C73
102
{ACAD_REACTORS
330
106B
102
}
330
106B
100
AcDbXrecord
280
     1
102
MATERIAL
148
0.0
149
0.0
149
0.0
 93
        0
 94
      127
282
     0
 72
     0
 77
     0
171
     0
175
     0
179
     0
273
     0
  0
XRECORD
  5
106D
102
{ACAD_REACTORS
330
106B
102
}
330
106B
100
AcDbXrecord
280
     1
270
     1
271
     1
  0
XRECORD
  5
106C
102
{ACAD_REACTORS
330
106B
102
}
330
106B
100
AcDbXrecord
280
     1
270
     1
271
     1
  0
XRECORD
  5
1070
102
{ACAD_REACTORS
330
106B
102
}
330
106B
100
AcDbXrecord
280
     1
270
     1
271
     1
  0
XRECORD
  5
106F
102
{ACAD_REACTORS
330
106B
102
}
330
106B
100
AcDbXrecord
280
     1
270
     1
271
     1
  0
XRECORD
  5
1071
102
{ACAD_REACTORS
330
106B
102
}
330
106B
100
AcDbXrecord
280
     1
270
     1
271
     1
  0
XRECORD
  5
106E
102
{ACAD_REACTORS
330
106B
102
}
330
106B
100
AcDbXrecord
280
     1
270
     1
271
     1
  0
XRECORD
  5
3C75
102
{ACAD_REACTORS
330
107B
102
}
330
107B
100
AcDbXrecord
280
     1
102
MATERIAL
148
0.0
149
0.0
149
0.0
 93
        0
 94
      127
282
     0
 72
     0
 77
     0
171
     0
175
     0
179
     0
273
     0
  0
XRECORD
  5
107D
102
{ACAD_REACTORS
330
107B
102
}
330
107B
100
AcDbXrecord
280
     1
270
     1
271
     1
  0
XRECORD
  5
107C
102
{ACAD_REACTORS
330
107B
102
}
330
107B
100
AcDbXrecord
280
     1
270
     1
271
     1
  0
XRECORD
  5
1080
102
{ACAD_REACTORS
330
107B
102
}
330
107B
100
AcDbXrecord
280
     1
270
     1
271
     1
  0
XRECORD
  5
107F
102
{ACAD_REACTORS
330
107B
102
}
330
107B
100
AcDbXrecord
280
     1
270
     1
271
     1
  0
XRECORD
  5
1081
102
{ACAD_REACTORS
330
107B
102
}
330
107B
100
AcDbXrecord
280
     1
270
     1
271
     1
  0
XRECORD
  5
107E
102
{ACAD_REACTORS
330
107B
102
}
330
107B
100
AcDbXrecord
280
     1
270
     1
271
     1
  0
CELLSTYLEMAP
  5
3C67
102
{ACAD_REACTORS
330
3C1C
102
}
330
3C1C
100
AcDbCellStyleMap
 90
        3
300
CELLSTYLE
  1
TABLEFORMAT_BEGIN
 90
        5
170
     1
 91
        0
 92
    32768
 62
   257
 93
        1
300
CONTENTFORMAT
  1
CONTENTFORMAT_BEGIN
 90
        0
 91
        0
 92
        4
 93
        0
300

 40
0.0
140
1.0
 94
        5
 62
     0
340
11
144
6.0
309
CONTENTFORMAT_END
171
     1
301
MARGIN
  1
CELLMARGIN_BEGIN
 40
1.5
 40
1.5
 40
1.5
 40
1.5
 40
0.18
 40
0.18
309
CELLMARGIN_END
 94
        6
 95
        1
302
GRIDFORMAT
  1
GRIDFORMAT_BEGIN
 90
        0
 91
        1
 62
     0
 92
       -2
340
0
 93
        0
 40
0.045
309
GRIDFORMAT_END
 95
        2
302
GRIDFORMAT
  1
GRIDFORMAT_BEGIN
 90
        0
 91
        1
 62
     0
 92
       -2
340
0
 93
        0
 40
0.045
309
GRIDFORMAT_END
 95
        4
302
GRIDFORMAT
  1
GRIDFORMAT_BEGIN
 90
        0
 91
        1
 62
     0
 92
       -2
340
0
 93
        0
 40
0.045
309
GRIDFORMAT_END
 95
        8
302
GRIDFORMAT
  1
GRIDFORMAT_BEGIN
 90
        0
 91
        1
 62
     0
 92
       -2
340
0
 93
        0
 40
0.045
309
GRIDFORMAT_END
 95
       16
302
GRIDFORMAT
  1
GRIDFORMAT_BEGIN
 90
        0
 91
        1
 62
     0
 92
       -2
340
0
 93
        0
 40
0.045
309
GRIDFORMAT_END
 95
       32
302
GRIDFORMAT
  1
GRIDFORMAT_BEGIN
 90
        0
 91
        1
 62
     0
 92
       -2
340
0
 93
        0
 40
0.045
309
GRIDFORMAT_END
309
TABLEFORMAT_END
  1
CELLSTYLE_BEGIN
 90
        1
 91
        1
300
_TITLE
309
CELLSTYLE_END
300
CELLSTYLE
  1
TABLEFORMAT_BEGIN
 90
        5
170
     1
 91
        0
 92
        0
 62
   257
 93
        1
300
CONTENTFORMAT
  1
CONTENTFORMAT_BEGIN
 90
        0
 91
        0
 92
        4
 93
        0
300

 40
0.0
140
1.0
 94
        5
 62
     0
340
11
144
4.5
309
CONTENTFORMAT_END
171
     1
301
MARGIN
  1
CELLMARGIN_BEGIN
 40
1.5
 40
1.5
 40
1.5
 40
1.5
 40
0.18
 40
0.18
309
CELLMARGIN_END
 94
        6
 95
        1
302
GRIDFORMAT
  1
GRIDFORMAT_BEGIN
 90
        0
 91
        1
 62
     0
 92
       -2
340
0
 93
        0
 40
0.045
309
GRIDFORMAT_END
 95
        2
302
GRIDFORMAT
  1
GRIDFORMAT_BEGIN
 90
        0
 91
        1
 62
     0
 92
       -2
340
0
 93
        0
 40
0.045
309
GRIDFORMAT_END
 95
        4
302
GRIDFORMAT
  1
GRIDFORMAT_BEGIN
 90
        0
 91
        1
 62
     0
 92
       -2
340
0
 93
        0
 40
0.045
309
GRIDFORMAT_END
 95
        8
302
GRIDFORMAT
  1
GRIDFORMAT_BEGIN
 90
        0
 91
        1
 62
     0
 92
       -2
340
0
 93
        0
 40
0.045
309
GRIDFORMAT_END
 95
       16
302
GRIDFORMAT
  1
GRIDFORMAT_BEGIN
 90
        0
 91
        1
 62
     0
 92
       -2
340
0
 93
        0
 40
0.045
309
GRIDFORMAT_END
 95
       32
302
GRIDFORMAT
  1
GRIDFORMAT_BEGIN
 90
        0
 91
        1
 62
     0
 92
       -2
340
0
 93
        0
 40
0.045
309
GRIDFORMAT_END
309
TABLEFORMAT_END
  1
CELLSTYLE_BEGIN
 90
        2
 91
        1
300
_HEADER
309
CELLSTYLE_END
300
CELLSTYLE
  1
TABLEFORMAT_BEGIN
 90
        5
170
     1
 91
        0
 92
        0
 62
   257
 93
        1
300
CONTENTFORMAT
  1
CONTENTFORMAT_BEGIN
 90
        0
 91
        0
 92
        4
 93
        0
300

 40
0.0
140
1.0
 94
        2
 62
     0
340
11
144
4.5
309
CONTENTFORMAT_END
171
     1
301
MARGIN
  1
CELLMARGIN_BEGIN
 40
1.5
 40
1.5
 40
1.5
 40
1.5
 40
0.18
 40
0.18
309
CELLMARGIN_END
 94
        6
 95
        1
302
GRIDFORMAT
  1
GRIDFORMAT_BEGIN
 90
        0
 91
        1
 62
     0
 92
       -2
340
0
 93
        0
 40
0.045
309
GRIDFORMAT_END
 95
        2
302
GRIDFORMAT
  1
GRIDFORMAT_BEGIN
 90
        0
 91
        1
 62
     0
 92
       -2
340
0
 93
        0
 40
0.045
309
GRIDFORMAT_END
 95
        4
302
GRIDFORMAT
  1
GRIDFORMAT_BEGIN
 90
        0
 91
        1
 62
     0
 92
       -2
340
0
 93
        0
 40
0.045
309
GRIDFORMAT_END
 95
        8
302
GRIDFORMAT
  1
GRIDFORMAT_BEGIN
 90
        0
 91
        1
 62
     0
 92
       -2
340
0
 93
        0
 40
0.045
309
GRIDFORMAT_END
 95
       16
302
GRIDFORMAT
  1
GRIDFORMAT_BEGIN
 90
        0
 91
        1
 62
     0
 92
       -2
340
0
 93
        0
 40
0.045
309
GRIDFORMAT_END
 95
       32
302
GRIDFORMAT
  1
GRIDFORMAT_BEGIN
 90
        0
 91
        1
 62
     0
 92
       -2
340
0
 93
        0
 40
0.045
309
GRIDFORMAT_END
309
TABLEFORMAT_END
  1
CELLSTYLE_BEGIN
 90
        3
 91
        2
300
_DATA
309
CELLSTYLE_END
  0
XRECORD
  5
3C72
102
{ACAD_REACTORS
330
3C1C
102
}
330
3C1C
100
AcDbXrecord
280
     1
102
ACAD_ROUNDTRIP_PRE2007_TABLESTYLE
 90
        4
 91
        0
  1

 92
        4
 93
        0
  2

 94
        4
 95
        0
  3

  0
XRECORD
  5
3C81
102
{ACAD_REACTORS
330
3C80
102
}
330
3C80
100
AcDbXrecord
280
     1
102
RTVSPropertyOp0
 70
     1
102
RTVSPropertyOp1
 70
     1
102
RTVSPropertyOp2
 70
     1
102
RTVSPropertyOp3
 70
     1
102
RTVSPropertyOp4
 70
     1
102
RTVSPropertyOp5
 70
     1
102
RTVSPropertyOp6
 70
     1
102
RTVSPropertyOp7
 70
     1
102
RTVSPropertyOp8
 70
     1
102
RTVSPropertyOp9
 70
     1
102
RTVSPropertyOp10
 70
     1
102
RTVSPropertyOp11
 70
     1
102
RTVSPropertyOp12
 70
     1
102
RTVSPropertyOp13
 70
     1
102
RTVSPropertyOp14
 70
     1
102
RTVSPropertyOp15
 70
     1
102
RTVSPropertyOp16
 70
     1
102
RTVSPropertyOp17
 70
     1
102
RTVSPropertyOp18
 70
     1
102
RTVSPropertyOp19
 70
     1
102
RTVSPropertyOp20
 70
     1
102
RTVSPropertyOp21
 70
     1
102
RTVSPropertyOp22
 70
     1
102
RTVSPropertyOp23
 70
     1
102
RTVSPropertyOp24
 70
     1
102
RTVSPropertyOp25
 70
     1
102
RTVSPropertyOp26
 70
     1
102
RTVSPropertyOp27
 70
     1
  0
XRECORD
  5
3C85
102
{ACAD_REACTORS
330
3C84
102
}
330
3C84
100
AcDbXrecord
280
     1
102
RTVSPropertyOp0
 70
     1
102
RTVSPropertyOp1
 70
     1
102
RTVSPropertyOp2
 70
     1
102
RTVSPropertyOp3
 70
     1
102
RTVSPropertyOp4
 70
     1
102
RTVSPropertyOp5
 70
     1
102
RTVSPropertyOp6
 70
     1
102
RTVSPropertyOp7
 70
     1
102
RTVSPropertyOp8
 70
     1
102
RTVSPropertyOp9
 70
     1
102
RTVSPropertyOp10
 70
     1
102
RTVSPropertyOp11
 70
     1
102
RTVSPropertyOp12
 70
     1
102
RTVSPropertyOp13
 70
     1
102
RTVSPropertyOp14
 70
     1
102
RTVSPropertyOp15
 70
     1
102
RTVSPropertyOp16
 70
     1
102
RTVSPropertyOp17
 70
     1
102
RTVSPropertyOp18
 70
     1
102
RTVSPropertyOp19
 70
     1
102
RTVSPropertyOp20
 70
     1
102
RTVSPropertyOp21
 70
     1
102
RTVSPropertyOp22
 70
     1
102
RTVSPropertyOp23
 70
     1
102
RTVSPropertyOp24
 70
     1
102
RTVSPropertyOp25
 70
     1
102
RTVSPropertyOp26
 70
     1
102
RTVSPropertyOp27
 70
     1
  0
XRECORD
  5
3C83
102
{ACAD_REACTORS
330
3C82
102
}
330
3C82
100
AcDbXrecord
280
     1
102
RTVSPropertyOp0
 70
     1
102
RTVSPropertyOp1
 70
     1
102
RTVSPropertyOp2
 70
     1
102
RTVSPropertyOp3
 70
     1
102
RTVSPropertyOp4
 70
     1
102
RTVSPropertyOp5
 70
     1
102
RTVSPropertyOp6
 70
     1
102
RTVSPropertyOp7
 70
     1
102
RTVSPropertyOp8
 70
     1
102
RTVSPropertyOp9
 70
     1
102
RTVSPropertyOp10
 70
     1
102
RTVSPropertyOp11
 70
     1
102
RTVSPropertyOp12
 70
     1
102
RTVSPropertyOp13
 70
     1
102
RTVSPropertyOp14
 70
     1
102
RTVSPropertyOp15
 70
     1
102
RTVSPropertyOp16
 70
     1
102
RTVSPropertyOp17
 70
     1
102
RTVSPropertyOp18
 70
     1
102
RTVSPropertyOp19
 70
     1
102
RTVSPropertyOp20
 70
     1
102
RTVSPropertyOp21
 70
     1
102
RTVSPropertyOp22
 70
     1
102
RTVSPropertyOp23
 70
     1
102
RTVSPropertyOp24
 70
     1
102
RTVSPropertyOp25
 70
     1
102
RTVSPropertyOp26
 70
     1
102
RTVSPropertyOp27
 70
     1
  0
XRECORD
  5
3C7F
102
{ACAD_REACTORS
330
3C7E
102
}
330
3C7E
100
AcDbXrecord
280
     1
102
RTVSPropertyOp0
 70
     1
102
RTVSPropertyOp1
 70
     1
102
RTVSPropertyOp2
 70
     1
102
RTVSPropertyOp3
 70
     1
102
RTVSPropertyOp4
 70
     1
102
RTVSPropertyOp5
 70
     1
102
RTVSPropertyOp6
 70
     1
102
RTVSPropertyOp7
 70
     1
102
RTVSPropertyOp8
 70
     1
102
RTVSPropertyOp9
 70
     1
102
RTVSPropertyOp10
 70
     1
102
RTVSPropertyOp11
 70
     1
102
RTVSPropertyOp12
 70
     1
102
RTVSPropertyOp13
 70
     1
102
RTVSPropertyOp14
 70
     1
102
RTVSPropertyOp15
 70
     1
102
RTVSPropertyOp16
 70
     1
102
RTVSPropertyOp17
 70
     1
102
RTVSPropertyOp18
 70
     1
102
RTVSPropertyOp19
 70
     1
102
RTVSPropertyOp20
 70
     1
102
RTVSPropertyOp21
 70
     1
102
RTVSPropertyOp22
 70
     1
102
RTVSPropertyOp23
 70
     1
102
RTVSPropertyOp24
 70
     1
102
RTVSPropertyOp25
 70
     1
102
RTVSPropertyOp26
 70
     1
102
RTVSPropertyOp27
 70
     1
  0
XRECORD
  5
3C8D
102
{ACAD_REACTORS
330
3C8C
102
}
330
3C8C
100
AcDbXrecord
280
     1
102
RTVSPropertyOp0
 70
     1
102
RTVSPropertyOp1
 70
     1
102
RTVSPropertyOp2
 70
     1
102
RTVSPropertyOp3
 70
     1
102
RTVSPropertyOp4
 70
     1
102
RTVSPropertyOp5
 70
     1
102
RTVSPropertyOp6
 70
     1
102
RTVSPropertyOp7
 70
     1
102
RTVSPropertyOp8
 70
     1
102
RTVSPropertyOp9
 70
     1
102
RTVSPropertyOp10
 70
     1
102
RTVSPropertyOp11
 70
     1
102
RTVSPropertyOp12
 70
     1
102
RTVSPropertyOp13
 70
     1
102
RTVSPropertyOp14
 70
     1
102
RTVSPropertyOp15
 70
     1
102
RTVSPropertyOp16
 70
     1
102
RTVSPropertyOp17
 70
     1
102
RTVSPropertyOp18
 70
     1
102
RTVSPropertyOp19
 70
     1
102
RTVSPropertyOp20
 70
     1
102
RTVSPropertyOp21
 70
     1
102
RTVSPropertyOp22
 70
     1
102
RTVSPropertyOp23
 70
     1
102
RTVSPropertyOp24
 70
     1
102
RTVSPropertyOp25
 70
     1
102
RTVSPropertyOp26
 70
     1
102
RTVSPropertyOp27
 70
     1
  0
XRECORD
  5
3C95
102
{ACAD_REACTORS
330
3C94
102
}
330
3C94
100
AcDbXrecord
280
     1
102
RTVSPropertyOp0
 70
     1
102
RTVSPropertyOp1
 70
     1
102
RTVSPropertyOp2
 70
     1
102
RTVSPropertyOp3
 70
     1
102
RTVSPropertyOp4
 70
     1
102
RTVSPropertyOp5
 70
     1
102
RTVSPropertyOp6
 70
     1
102
RTVSPropertyOp7
 70
     1
102
RTVSPropertyOp8
 70
     1
102
RTVSPropertyOp9
 70
     1
102
RTVSPropertyOp10
 70
     1
102
RTVSPropertyOp11
 70
     1
102
RTVSPropertyOp12
 70
     1
102
RTVSPropertyOp13
 70
     1
102
RTVSPropertyOp14
 70
     1
102
RTVSPropertyOp15
 70
     1
102
RTVSPropertyOp16
 70
     1
102
RTVSPropertyOp17
 70
     1
102
RTVSPropertyOp18
 70
     1
102
RTVSPropertyOp19
 70
     1
102
RTVSPropertyOp20
 70
     1
102
RTVSPropertyOp21
 70
     1
102
RTVSPropertyOp22
 70
     1
102
RTVSPropertyOp23
 70
     1
102
RTVSPropertyOp24
 70
     1
102
RTVSPropertyOp25
 70
     1
102
RTVSPropertyOp26
 70
     1
102
RTVSPropertyOp27
 70
     1
  0
XRECORD
  5
3C87
102
{ACAD_REACTORS
330
3C86
102
}
330
3C86
100
AcDbXrecord
280
     1
102
RTVSPropertyOp0
 70
     1
102
RTVSPropertyOp1
 70
     1
102
RTVSPropertyOp2
 70
     1
102
RTVSPropertyOp3
 70
     1
102
RTVSPropertyOp4
 70
     1
102
RTVSPropertyOp5
 70
     1
102
RTVSPropertyOp6
 70
     1
102
RTVSPropertyOp7
 70
     1
102
RTVSPropertyOp8
 70
     1
102
RTVSPropertyOp9
 70
     1
102
RTVSPropertyOp10
 70
     1
102
RTVSPropertyOp11
 70
     1
102
RTVSPropertyOp12
 70
     1
102
RTVSPropertyOp13
 70
     1
102
RTVSPropertyOp14
 70
     1
102
RTVSPropertyOp15
 70
     1
102
RTVSPropertyOp16
 70
     1
102
RTVSPropertyOp17
 70
     1
102
RTVSPropertyOp18
 70
     1
102
RTVSPropertyOp19
 70
     1
102
RTVSPropertyOp20
 70
     1
102
RTVSPropertyOp21
 70
     1
102
RTVSPropertyOp22
 70
     1
102
RTVSPropertyOp23
 70
     1
102
RTVSPropertyOp24
 70
     1
102
RTVSPropertyOp25
 70
     1
102
RTVSPropertyOp26
 70
     1
102
RTVSPropertyOp27
 70
     1
  0
XRECORD
  5
3C8B
102
{ACAD_REACTORS
330
3C8A
102
}
330
3C8A
100
AcDbXrecord
280
     1
102
RTVSPropertyOp0
 70
     1
102
RTVSPropertyOp1
 70
     1
102
RTVSPropertyOp2
 70
     1
102
RTVSPropertyOp3
 70
     1
102
RTVSPropertyOp4
 70
     1
102
RTVSPropertyOp5
 70
     1
102
RTVSPropertyOp6
 70
     1
102
RTVSPropertyOp7
 70
     1
102
RTVSPropertyOp8
 70
     1
102
RTVSPropertyOp9
 70
     1
102
RTVSPropertyOp10
 70
     1
102
RTVSPropertyOp11
 70
     1
102
RTVSPropertyOp12
 70
     1
102
RTVSPropertyOp13
 70
     1
102
RTVSPropertyOp14
 70
     1
102
RTVSPropertyOp15
 70
     1
102
RTVSPropertyOp16
 70
     1
102
RTVSPropertyOp17
 70
     1
102
RTVSPropertyOp18
 70
     1
102
RTVSPropertyOp19
 70
     1
102
RTVSPropertyOp20
 70
     1
102
RTVSPropertyOp21
 70
     1
102
RTVSPropertyOp22
 70
     1
102
RTVSPropertyOp23
 70
     1
102
RTVSPropertyOp24
 70
     1
102
RTVSPropertyOp25
 70
     1
102
RTVSPropertyOp26
 70
     1
102
RTVSPropertyOp27
 70
     1
  0
XRECORD
  5
3C9B
102
{ACAD_REACTORS
330
3C9A
102
}
330
3C9A
100
AcDbXrecord
280
     1
102
RTVSPropertyOp0
 70
     0
102
RTVSPropertyOp1
 70
     0
102
RTVSPropertyOp2
 70
     0
102
RTVSPropertyOp3
 70
     0
102
RTVSPropertyOp4
 70
     0
102
RTVSPropertyOp5
 70
     0
102
RTVSPropertyOp6
 70
     0
102
RTVSPropertyOp7
 70
     0
102
RTVSPropertyOp8
 70
     0
102
RTVSPropertyOp9
 70
     0
102
RTVSPropertyOp10
 70
     0
102
RTVSPropertyOp11
 70
     0
102
RTVSPropertyOp12
 70
     0
102
RTVSPropertyOp13
 70
     0
102
RTVSPropertyOp14
 70
     2
102
RTVSPropertyOp15
 70
     0
102
RTVSPropertyOp16
 70
     0
102
RTVSPropertyOp17
 70
     0
102
RTVSPropertyOp18
 70
     0
102
RTVSPropertyOp19
 70
     0
102
RTVSPropertyOp20
 70
     0
102
RTVSPropertyOp21
 70
     0
102
RTVSPropertyOp22
 70
     0
102
RTVSPropertyOp23
 70
     0
102
RTVSPropertyOp24
 70
     0
102
RTVSPropertyOp25
 70
     0
102
RTVSPropertyOp26
 70
     0
102
RTVSPropertyOp27
 70
     0
  0
XRECORD
  5
3C93
102
{ACAD_REACTORS
330
3C92
102
}
330
3C92
100
AcDbXrecord
280
     1
102
RTVSPropertyOp0
 70
     1
102
RTVSPropertyOp1
 70
     1
102
RTVSPropertyOp2
 70
     1
102
RTVSPropertyOp3
 70
     1
102
RTVSPropertyOp4
 70
     1
102
RTVSPropertyOp5
 70
     1
102
RTVSPropertyOp6
 70
     1
102
RTVSPropertyOp7
 70
     1
102
RTVSPropertyOp8
 70
     1
102
RTVSPropertyOp9
 70
     1
102
RTVSPropertyOp10
 70
     1
102
RTVSPropertyOp11
 70
     1
102
RTVSPropertyOp12
 70
     1
102
RTVSPropertyOp13
 70
     1
102
RTVSPropertyOp14
 70
     1
102
RTVSPropertyOp15
 70
     1
102
RTVSPropertyOp16
 70
     1
102
RTVSPropertyOp17
 70
     1
102
RTVSPropertyOp18
 70
     1
102
RTVSPropertyOp19
 70
     1
102
RTVSPropertyOp20
 70
     1
102
RTVSPropertyOp21
 70
     1
102
RTVSPropertyOp22
 70
     1
102
RTVSPropertyOp23
 70
     1
102
RTVSPropertyOp24
 70
     1
102
RTVSPropertyOp25
 70
     1
102
RTVSPropertyOp26
 70
     1
102
RTVSPropertyOp27
 70
     1
  0
XRECORD
  5
3C77
102
{ACAD_REACTORS
330
3C76
102
}
330
3C76
100
AcDbXrecord
280
     1
102
RTVSPropertyOp0
 70
     1
102
RTVSPropertyOp1
 70
     1
102
RTVSPropertyOp2
 70
     1
102
RTVSPropertyOp3
 70
     1
102
RTVSPropertyOp4
 70
     1
102
RTVSPropertyOp5
 70
     1
102
RTVSPropertyOp6
 70
     1
102
RTVSPropertyOp7
 70
     1
102
RTVSPropertyOp8
 70
     1
102
RTVSPropertyOp9
 70
     1
102
RTVSPropertyOp10
 70
     1
102
RTVSPropertyOp11
 70
     1
102
RTVSPropertyOp12
 70
     1
102
RTVSPropertyOp13
 70
     1
102
RTVSPropertyOp14
 70
     1
102
RTVSPropertyOp15
 70
     1
102
RTVSPropertyOp16
 70
     1
102
RTVSPropertyOp17
 70
     1
102
RTVSPropertyOp18
 70
     1
102
RTVSPropertyOp19
 70
     1
102
RTVSPropertyOp20
 70
     1
102
RTVSPropertyOp21
 70
     1
102
RTVSPropertyOp22
 70
     1
102
RTVSPropertyOp23
 70
     1
102
RTVSPropertyOp24
 70
     1
102
RTVSPropertyOp25
 70
     1
102
RTVSPropertyOp26
 70
     1
102
RTVSPropertyOp27
 70
     1
  0
XRECORD
  5
3C79
102
{ACAD_REACTORS
330
3C78
102
}
330
3C78
100
AcDbXrecord
280
     1
102
RTVSPropertyOp0
 70
     1
102
RTVSPropertyOp1
 70
     1
102
RTVSPropertyOp2
 70
     1
102
RTVSPropertyOp3
 70
     1
102
RTVSPropertyOp4
 70
     1
102
RTVSPropertyOp5
 70
     1
102
RTVSPropertyOp6
 70
     1
102
RTVSPropertyOp7
 70
     1
102
RTVSPropertyOp8
 70
     1
102
RTVSPropertyOp9
 70
     1
102
RTVSPropertyOp10
 70
     1
102
RTVSPropertyOp11
 70
     1
102
RTVSPropertyOp12
 70
     1
102
RTVSPropertyOp13
 70
     1
102
RTVSPropertyOp14
 70
     1
102
RTVSPropertyOp15
 70
     1
102
RTVSPropertyOp16
 70
     1
102
RTVSPropertyOp17
 70
     1
102
RTVSPropertyOp18
 70
     1
102
RTVSPropertyOp19
 70
     1
102
RTVSPropertyOp20
 70
     1
102
RTVSPropertyOp21
 70
     1
102
RTVSPropertyOp22
 70
     1
102
RTVSPropertyOp23
 70
     1
102
RTVSPropertyOp24
 70
     1
102
RTVSPropertyOp25
 70
     1
102
RTVSPropertyOp26
 70
     1
102
RTVSPropertyOp27
 70
     1
  0
XRECORD
  5
3C7B
102
{ACAD_REACTORS
330
3C7A
102
}
330
3C7A
100
AcDbXrecord
280
     1
102
RTVSPropertyOp0
 70
     1
102
RTVSPropertyOp1
 70
     1
102
RTVSPropertyOp2
 70
     1
102
RTVSPropertyOp3
 70
     1
102
RTVSPropertyOp4
 70
     1
102
RTVSPropertyOp5
 70
     1
102
RTVSPropertyOp6
 70
     1
102
RTVSPropertyOp7
 70
     1
102
RTVSPropertyOp8
 70
     1
102
RTVSPropertyOp9
 70
     1
102
RTVSPropertyOp10
 70
     1
102
RTVSPropertyOp11
 70
     1
102
RTVSPropertyOp12
 70
     1
102
RTVSPropertyOp13
 70
     1
102
RTVSPropertyOp14
 70
     1
102
RTVSPropertyOp15
 70
     1
102
RTVSPropertyOp16
 70
     1
102
RTVSPropertyOp17
 70
     1
102
RTVSPropertyOp18
 70
     1
102
RTVSPropertyOp19
 70
     1
102
RTVSPropertyOp20
 70
     1
102
RTVSPropertyOp21
 70
     1
102
RTVSPropertyOp22
 70
     1
102
RTVSPropertyOp23
 70
     1
102
RTVSPropertyOp24
 70
     1
102
RTVSPropertyOp25
 70
     1
102
RTVSPropertyOp26
 70
     1
102
RTVSPropertyOp27
 70
     1
  0
XRECORD
  5
3C7D
102
{ACAD_REACTORS
330
3C7C
102
}
330
3C7C
100
AcDbXrecord
280
     1
102
RTVSPropertyOp0
 70
     1
102
RTVSPropertyOp1
 70
     1
102
RTVSPropertyOp2
 70
     1
102
RTVSPropertyOp3
 70
     1
102
RTVSPropertyOp4
 70
     1
102
RTVSPropertyOp5
 70
     1
102
RTVSPropertyOp6
 70
     1
102
RTVSPropertyOp7
 70
     1
102
RTVSPropertyOp8
 70
     1
102
RTVSPropertyOp9
 70
     1
102
RTVSPropertyOp10
 70
     1
102
RTVSPropertyOp11
 70
     1
102
RTVSPropertyOp12
 70
     1
102
RTVSPropertyOp13
 70
     1
102
RTVSPropertyOp14
 70
     1
102
RTVSPropertyOp15
 70
     1
102
RTVSPropertyOp16
 70
     1
102
RTVSPropertyOp17
 70
     1
102
RTVSPropertyOp18
 70
     1
102
RTVSPropertyOp19
 70
     1
102
RTVSPropertyOp20
 70
     1
102
RTVSPropertyOp21
 70
     1
102
RTVSPropertyOp22
 70
     1
102
RTVSPropertyOp23
 70
     1
102
RTVSPropertyOp24
 70
     1
102
RTVSPropertyOp25
 70
     1
102
RTVSPropertyOp26
 70
     1
102
RTVSPropertyOp27
 70
     1
  0
XRECORD
  5
3C97
102
{ACAD_REACTORS
330
3C96
102
}
330
3C96
100
AcDbXrecord
280
     1
102
RTVSPropertyOp0
 70
     0
102
RTVSPropertyOp1
 70
     0
102
RTVSPropertyOp2
 70
     0
102
RTVSPropertyOp3
 70
     0
102
RTVSPropertyOp4
 70
     0
102
RTVSPropertyOp5
 70
     0
102
RTVSPropertyOp6
 70
     0
102
RTVSPropertyOp7
 70
     0
102
RTVSPropertyOp8
 70
     0
102
RTVSPropertyOp9
 70
     0
102
RTVSPropertyOp10
 70
     0
102
RTVSPropertyOp11
 70
     0
102
RTVSPropertyOp12
 70
     0
102
RTVSPropertyOp13
 70
     0
102
RTVSPropertyOp14
 70
     2
102
RTVSPropertyOp15
 70
     0
102
RTVSPropertyOp16
 70
     0
102
RTVSPropertyOp17
 70
     0
102
RTVSPropertyOp18
 70
     0
102
RTVSPropertyOp19
 70
     0
102
RTVSPropertyOp20
 70
     0
102
RTVSPropertyOp21
 70
     0
102
RTVSPropertyOp22
 70
     0
102
RTVSPropertyOp23
 70
     0
102
RTVSPropertyOp24
 70
     0
102
RTVSPropertyOp25
 70
     0
102
RTVSPropertyOp26
 70
     0
102
RTVSPropertyOp27
 70
     0
  0
XRECORD
  5
3C91
102
{ACAD_REACTORS
330
3C90
102
}
330
3C90
100
AcDbXrecord
280
     1
102
RTVSPropertyOp0
 70
     1
102
RTVSPropertyOp1
 70
     1
102
RTVSPropertyOp2
 70
     1
102
RTVSPropertyOp3
 70
     1
102
RTVSPropertyOp4
 70
     1
102
RTVSPropertyOp5
 70
     1
102
RTVSPropertyOp6
 70
     1
102
RTVSPropertyOp7
 70
     1
102
RTVSPropertyOp8
 70
     1
102
RTVSPropertyOp9
 70
     1
102
RTVSPropertyOp10
 70
     1
102
RTVSPropertyOp11
 70
     1
102
RTVSPropertyOp12
 70
     1
102
RTVSPropertyOp13
 70
     1
102
RTVSPropertyOp14
 70
     1
102
RTVSPropertyOp15
 70
     1
102
RTVSPropertyOp16
 70
     1
102
RTVSPropertyOp17
 70
     1
102
RTVSPropertyOp18
 70
     1
102
RTVSPropertyOp19
 70
     1
102
RTVSPropertyOp20
 70
     1
102
RTVSPropertyOp21
 70
     1
102
RTVSPropertyOp22
 70
     1
102
RTVSPropertyOp23
 70
     1
102
RTVSPropertyOp24
 70
     1
102
RTVSPropertyOp25
 70
     1
102
RTVSPropertyOp26
 70
     1
102
RTVSPropertyOp27
 70
     1
  0
XRECORD
  5
3C99
102
{ACAD_REACTORS
330
3C98
102
}
330
3C98
100
AcDbXrecord
280
     1
102
RTVSPropertyOp0
 70
     0
102
RTVSPropertyOp1
 70
     0
102
RTVSPropertyOp2
 70
     0
102
RTVSPropertyOp3
 70
     0
102
RTVSPropertyOp4
 70
     0
102
RTVSPropertyOp5
 70
     0
102
RTVSPropertyOp6
 70
     0
102
RTVSPropertyOp7
 70
     0
102
RTVSPropertyOp8
 70
     0
102
RTVSPropertyOp9
 70
     0
102
RTVSPropertyOp10
 70
     0
102
RTVSPropertyOp11
 70
     0
102
RTVSPropertyOp12
 70
     0
102
RTVSPropertyOp13
 70
     0
102
RTVSPropertyOp14
 70
     2
102
RTVSPropertyOp15
 70
     0
102
RTVSPropertyOp16
 70
     0
102
RTVSPropertyOp17
 70
     0
102
RTVSPropertyOp18
 70
     0
102
RTVSPropertyOp19
 70
     0
102
RTVSPropertyOp20
 70
     0
102
RTVSPropertyOp21
 70
     0
102
RTVSPropertyOp22
 70
     0
102
RTVSPropertyOp23
 70
     0
102
RTVSPropertyOp24
 70
     0
102
RTVSPropertyOp25
 70
     0
102
RTVSPropertyOp26
 70
     0
102
RTVSPropertyOp27
 70
     0
  0
XRECORD
  5
3C89
102
{ACAD_REACTORS
330
3C88
102
}
330
3C88
100
AcDbXrecord
280
     1
102
RTVSPropertyOp0
 70
     1
102
RTVSPropertyOp1
 70
     1
102
RTVSPropertyOp2
 70
     1
102
RTVSPropertyOp3
 70
     1
102
RTVSPropertyOp4
 70
     1
102
RTVSPropertyOp5
 70
     1
102
RTVSPropertyOp6
 70
     1
102
RTVSPropertyOp7
 70
     1
102
RTVSPropertyOp8
 70
     1
102
RTVSPropertyOp9
 70
     1
102
RTVSPropertyOp10
 70
     1
102
RTVSPropertyOp11
 70
     1
102
RTVSPropertyOp12
 70
     1
102
RTVSPropertyOp13
 70
     1
102
RTVSPropertyOp14
 70
     1
102
RTVSPropertyOp15
 70
     1
102
RTVSPropertyOp16
 70
     1
102
RTVSPropertyOp17
 70
     1
102
RTVSPropertyOp18
 70
     1
102
RTVSPropertyOp19
 70
     1
102
RTVSPropertyOp20
 70
     1
102
RTVSPropertyOp21
 70
     1
102
RTVSPropertyOp22
 70
     1
102
RTVSPropertyOp23
 70
     1
102
RTVSPropertyOp24
 70
     1
102
RTVSPropertyOp25
 70
     1
102
RTVSPropertyOp26
 70
     1
102
RTVSPropertyOp27
 70
     1
  0
XRECORD
  5
3C8F
102
{ACAD_REACTORS
330
3C8E
102
}
330
3C8E
100
AcDbXrecord
280
     1
102
RTVSPropertyOp0
 70
     1
102
RTVSPropertyOp1
 70
     1
102
RTVSPropertyOp2
 70
     1
102
RTVSPropertyOp3
 70
     1
102
RTVSPropertyOp4
 70
     1
102
RTVSPropertyOp5
 70
     1
102
RTVSPropertyOp6
 70
     1
102
RTVSPropertyOp7
 70
     1
102
RTVSPropertyOp8
 70
     1
102
RTVSPropertyOp9
 70
     1
102
RTVSPropertyOp10
 70
     1
102
RTVSPropertyOp11
 70
     1
102
RTVSPropertyOp12
 70
     1
102
RTVSPropertyOp13
 70
     1
102
RTVSPropertyOp14
 70
     1
102
RTVSPropertyOp15
 70
     1
102
RTVSPropertyOp16
 70
     1
102
RTVSPropertyOp17
 70
     1
102
RTVSPropertyOp18
 70
     1
102
RTVSPropertyOp19
 70
     1
102
RTVSPropertyOp20
 70
     1
102
RTVSPropertyOp21
 70
     1
102
RTVSPropertyOp22
 70
     1
102
RTVSPropertyOp23
 70
     1
102
RTVSPropertyOp24
 70
     1
102
RTVSPropertyOp25
 70
     1
102
RTVSPropertyOp26
 70
     1
102
RTVSPropertyOp27
 70
     1
  0
ENDSEC
  0
EOF
