  0
SECTION
  2
HEADER
  9
$ACADVER
  1
AC1015
  9
$ACADMAINTVER
 70
    20
  9
$DWGCODEPAGE
  3
ANSI_1252
  9
$INSBASE
 10
0.0
 20
0.0
 30
0.0
  9
$EXTMIN
 10
120.1094733034949
 20
946.9524190503562
 30
0.0
  9
$EXTMAX
 10
122.4437486893983
 20
947.3424190509913
 30
0.0
  9
$LIMMIN
 10
0.0
 20
0.0
  9
$LIMMAX
 10
420.0
 20
297.0
  9
$ORTHOMODE
 70
     1
  9
$REGENMODE
 70
     1
  9
$FILLMODE
 70
     1
  9
$QTEXTMODE
 70
     0
  9
$MIRRTEXT
 70
     1
  9
$LTSCALE
 40
1.0
  9
$ATTMODE
 70
     1
  9
$TEXTSIZE
 40
2.5
  9
$TRACEWID
 40
1.0
  9
$TEXTSTYLE
  7
SANINDUSA
  9
$CLAYER
  8
0
  9
$CELTYPE
  6
ByLayer
  9
$CECOLOR
 62
   256
  9
$CELTSCALE
 40
1.0
  9
$DISPSILH
 70
     0
  9
$DIMSCALE
 40
1.0
  9
$DIMASZ
 40
2.0
  9
$DIMEXO
 40
1.0
  9
$DIMDLI
 40
1.0
  9
$DIMRND
 40
0.0
  9
$DIMDLE
 40
0.0
  9
$DIMEXE
 40
1.0
  9
$DIMTP
 40
0.0
  9
$DIMTM
 40
0.0
  9
$DIMTXT
 40
2.0
  9
$DIMCEN
 40
0.0
  9
$DIMTSZ
 40
0.0
  9
$DIMTOL
 70
     0
  9
$DIMLIM
 70
     0
  9
$DIMTIH
 70
     0
  9
$DIMTOH
 70
     0
  9
$DIMSE1
 70
     0
  9
$DIMSE2
 70
     0
  9
$DIMTAD
 70
     1
  9
$DIMZIN
 70
     8
  9
$DIMBLK
  1

  9
$DIMASO
 70
     1
  9
$DIMSHO
 70
     1
  9
$DIMPOST
  1

  9
$DIMAPOST
  1

  9
$DIMALT
 70
     0
  9
$DIMALTD
 70
     3
  9
$DIMALTF
 40
0.03937007874016
  9
$DIMLFAC
 40
1.0
  9
$DIMTOFL
 70
     1
  9
$DIMTVP
 40
0.0
  9
$DIMTIX
 70
     0
  9
$DIMSOXD
 70
     0
  9
$DIMSAH
 70
     0
  9
$DIMBLK1
  1

  9
$DIMBLK2
  1

  9
$DIMSTYLE
  2
SANINDUSA
  9
$DIMCLRD
 70
   256
  9
$DIMCLRE
 70
   256
  9
$DIMCLRT
 70
   256
  9
$DIMTFAC
 40
1.0
  9
$DIMGAP
 40
1.0
  9
$DIMJUST
 70
     0
  9
$DIMSD1
 70
     0
  9
$DIMSD2
 70
     0
  9
$DIMTOLJ
 70
     0
  9
$DIMTZIN
 70
     8
  9
$DIMALTZ
 70
     0
  9
$DIMALTTZ
 70
     0
  9
$DIMUPT
 70
     0
  9
$DIMDEC
 70
     1
  9
$DIMTDEC
 70
     1
  9
$DIMALTU
 70
     2
  9
$DIMALTTD
 70
     3
  9
$DIMTXSTY
  7
SANINDUSA
  9
$DIMAUNIT
 70
     0
  9
$DIMADEC
 70
     1
  9
$DIMALTRND
 40
0.0
  9
$DIMAZIN
 70
     0
  9
$DIMDSEP
 70
    44
  9
$DIMATFIT
 70
     3
  9
$DIMFRAC
 70
     0
  9
$DIMLDRBLK
  1

  9
$DIMLUNIT
 70
     2
  9
$DIMLWD
 70
    -1
  9
$DIMLWE
 70
    -1
  9
$DIMTMOVE
 70
     0
  9
$LUNITS
 70
     2
  9
$LUPREC
 70
     4
  9
$SKETCHINC
 40
1.0
  9
$FILLETRAD
 40
3.0
  9
$AUNITS
 70
     0
  9
$AUPREC
 70
     0
  9
$MENU
  1
.
  9
$ELEVATION
 40
0.0
  9
$PELEVATION
 40
0.0
  9
$THICKNESS
 40
0.0
  9
$LIMCHECK
 70
     0
  9
$CHAMFERA
 40
10.0
  9
$CHAMFERB
 40
10.0
  9
$CHAMFERC
 40
20.0
  9
$CHAMFERD
 40
0.0
  9
$SKPOLY
 70
     0
  9
$TDCREATE
 40
2453504.482526945
  9
$TDUCREATE
 40
2453504.440860278
  9
$TDUPDATE
 40
2456142.459325266
  9
$TDUUPDATE
 40
2456142.417658599
  9
$TDINDWG
 40
0.0025291088
  9
$TDUSRTIMER
 40
0.0025291088
  9
$USRTIMER
 70
     1
  9
$ANGBASE
 50
0.0
  9
$ANGDIR
 70
     0
  9
$PDMODE
 70
     0
  9
$PDSIZE
 40
0.0
  9
$PLINEWID
 40
0.0
  9
$SPLFRAME
 70
     0
  9
$SPLINETYPE
 70
     6
  9
$SPLINESEGS
 70
     8
  9
$HANDSEED
  5
1112
  9
$SURFTAB1
 70
     6
  9
$SURFTAB2
 70
     6
  9
$SURFTYPE
 70
     6
  9
$SURFU
 70
     6
  9
$SURFV
 70
     6
  9
$UCSBASE
  2

  9
$UCSNAME
  2

  9
$UCSORG
 10
0.0
 20
0.0
 30
0.0
  9
$UCSXDIR
 10
1.0
 20
0.0
 30
0.0
  9
$UCSYDIR
 10
0.0
 20
1.0
 30
0.0
  9
$UCSORTHOREF
  2

  9
$UCSORTHOVIEW
 70
     0
  9
$UCSORGTOP
 10
0.0
 20
0.0
 30
0.0
  9
$UCSORGBOTTOM
 10
0.0
 20
0.0
 30
0.0
  9
$UCSORGLEFT
 10
0.0
 20
0.0
 30
0.0
  9
$UCSORGRIGHT
 10
0.0
 20
0.0
 30
0.0
  9
$UCSORGFRONT
 10
0.0
 20
0.0
 30
0.0
  9
$UCSORGBACK
 10
0.0
 20
0.0
 30
0.0
  9
$PUCSBASE
  2

  9
$PUCSNAME
  2

  9
$PUCSORG
 10
0.0
 20
0.0
 30
0.0
  9
$PUCSXDIR
 10
1.0
 20
0.0
 30
0.0
  9
$PUCSYDIR
 10
0.0
 20
1.0
 30
0.0
  9
$PUCSORTHOREF
  2

  9
$PUCSORTHOVIEW
 70
     0
  9
$PUCSORGTOP
 10
0.0
 20
0.0
 30
0.0
  9
$PUCSORGBOTTOM
 10
0.0
 20
0.0
 30
0.0
  9
$PUCSORGLEFT
 10
0.0
 20
0.0
 30
0.0
  9
$PUCSORGRIGHT
 10
0.0
 20
0.0
 30
0.0
  9
$PUCSORGFRONT
 10
0.0
 20
0.0
 30
0.0
  9
$PUCSORGBACK
 10
0.0
 20
0.0
 30
0.0
  9
$USERI1
 70
     0
  9
$USERI2
 70
     0
  9
$USERI3
 70
     0
  9
$USERI4
 70
     0
  9
$USERI5
 70
     0
  9
$USERR1
 40
0.0
  9
$USERR2
 40
0.0
  9
$USERR3
 40
0.0
  9
$USERR4
 40
0.0
  9
$USERR5
 40
0.0
  9
$WORLDVIEW
 70
     1
  9
$SHADEDGE
 70
     3
  9
$SHADEDIF
 70
    70
  9
$TILEMODE
 70
     1
  9
$MAXACTVP
 70
    64
  9
$PINSBASE
 10
0.0
 20
0.0
 30
0.0
  9
$PLIMCHECK
 70
     0
  9
$PEXTMIN
 10
1.000000000000000E+20
 20
1.000000000000000E+20
 30
1.000000000000000E+20
  9
$PEXTMAX
 10
-1.000000000000000E+20
 20
-1.000000000000000E+20
 30
-1.000000000000000E+20
  9
$PLIMMIN
 10
0.0
 20
0.0
  9
$PLIMMAX
 10
420.0
 20
297.0
  9
$UNITMODE
 70
     0
  9
$VISRETAIN
 70
     1
  9
$PLINEGEN
 70
     0
  9
$PSLTSCALE
 70
     1
  9
$TREEDEPTH
 70
  3020
  9
$CMLSTYLE
  2
Standard
  9
$CMLJUST
 70
     0
  9
$CMLSCALE
 40
20.0
  9
$PROXYGRAPHICS
 70
     1
  9
$MEASUREMENT
 70
     1
  9
$CELWEIGHT
370
    -1
  9
$ENDCAPS
280
     0
  9
$JOINSTYLE
280
     0
  9
$LWDISPLAY
290
     0
  9
$INSUNITS
 70
     4
  9
$HYPERLINKBASE
  1

  9
$STYLESHEET
  1
monochrome.ctb
  9
$XEDIT
290
     1
  9
$CEPSNTYPE
380
     0
  9
$PSTYLEMODE
290
     1
  9
$FINGERPRINTGUID
  2
{B98A73AA-52AA-4C10-B469-C0E7150AC31F}
  9
$VERSIONGUID
  2
{79D8E667-3F71-43B3-A5C3-788E7306A716}
  9
$EXTNAMES
290
     1
  9
$PSVPSCALE
 40
0.0
  9
$OLESTARTUP
290
     0
  0
ENDSEC
  0
SECTION
  2
CLASSES
  0
CLASS
  1
ACDBDICTIONARYWDFLT
  2
AcDbDictionaryWithDefault
  3
ObjectDBX Classes
 90
        0
280
     0
281
     0
  0
CLASS
  1
ACDBPLACEHOLDER
  2
AcDbPlaceHolder
  3
ObjectDBX Classes
 90
        0
280
     0
281
     0
  0
CLASS
  1
LAYOUT
  2
AcDbLayout
  3
ObjectDBX Classes
 90
        0
280
     0
281
     0
  0
CLASS
  1
DICTIONARYVAR
  2
AcDbDictionaryVar
  3
ObjectDBX Classes
 90
        0
280
     0
281
     0
  0
CLASS
  1
DIMASSOC
  2
AcDbDimAssoc
  3
"AcDbDimAssoc|Product Desc:     AcDim ARX App For Dimension|Company:          Autodesk, Inc.|WEB Address:      www.autodesk.com"
 90
    32768
280
     0
281
     0
  0
CLASS
  1
MATERIAL
  2
AcDbMaterial
  3
ObjectDBX Classes
 90
     1153
280
     0
281
     0
  0
CLASS
  1
VISUALSTYLE
  2
AcDbVisualStyle
  3
ObjectDBX Classes
 90
     4095
280
     0
281
     0
  0
CLASS
  1
TABLESTYLE
  2
AcDbTableStyle
  3
ObjectDBX Classes
 90
     4095
280
     0
281
     0
  0
CLASS
  1
SCALE
  2
AcDbScale
  3
ObjectDBX Classes
 90
     1153
280
     0
281
     0
  0
CLASS
  1
MLEADERSTYLE
  2
AcDbMLeaderStyle
  3
ACDB_MLEADERSTYLE_CLASS
 90
     4095
280
     0
281
     0
  0
CLASS
  1
CELLSTYLEMAP
  2
AcDbCellStyleMap
  3
ObjectDBX Classes
 90
     1152
280
     0
281
     0
  0
ENDSEC
  0
SECTION
  2
TABLES
  0
TABLE
  2
VPORT
  5
8
330
0
100
AcDbSymbolTable
 70
     1
  0
VPORT
  5
1062
330
8
100
AcDbSymbolTableRecord
100
AcDbViewportTableRecord
  2
*Active
 70
     0
 10
0.0
 20
0.0
 11
1.0
 21
1.0
 12
121.3351066930686
 22
947.1504234252593
 13
0.0
 23
0.0
 14
10.0
 24
10.0
 15
10.0
 25
10.0
 16
0.0
 26
0.0
 36
1.0
 17
0.0
 27
0.0
 37
0.0
 40
1.664243049296601
 41
1.645464025026068
 42
50.0
 43
0.0
 44
0.0
 50
0.0
 51
0.0
 71
     0
 72
   100
 73
     1
 74
     2
 75
     0
 76
     0
 77
     0
 78
     0
281
     0
 65
     1
110
0.0
120
0.0
130
0.0
111
1.0
121
0.0
131
0.0
112
0.0
122
1.0
132
0.0
 79
     0
146
0.0
  0
ENDTAB
  0
TABLE
  2
LTYPE
  5
5
330
0
100
AcDbSymbolTable
 70
     3
  0
LTYPE
  5
14
330
5
100
AcDbSymbolTableRecord
100
AcDbLinetypeTableRecord
  2
ByBlock
 70
     0
  3

 72
    65
 73
     0
 40
0.0
  0
LTYPE
  5
15
330
5
100
AcDbSymbolTableRecord
100
AcDbLinetypeTableRecord
  2
ByLayer
 70
     0
  3

 72
    65
 73
     0
 40
0.0
  0
LTYPE
  5
16
330
5
100
AcDbSymbolTableRecord
100
AcDbLinetypeTableRecord
  2
Continuous
 70
     0
  3
Solid line
 72
    65
 73
     0
 40
0.0
  0
LTYPE
  5
2D
330
5
100
AcDbSymbolTableRecord
100
AcDbLinetypeTableRecord
  2
DASHDOT
 70
     0
  3
Dash dot __ . __ . __ . __ . __ . __ . __ . __
 72
    65
 73
     4
 40
25.4
 49
12.7
 74
     0
 49
-6.349999999999999
 74
     0
 49
0.0
 74
     0
 49
-6.349999999999999
 74
     0
  0
LTYPE
  5
2E
330
5
100
AcDbSymbolTableRecord
100
AcDbLinetypeTableRecord
  2
HIDDEN
 70
     0
  3
Hidden __ __ __ __ __ __ __ __ __ __ __ __ __ _
 72
    65
 73
     2
 40
9.524999999999998
 49
6.349999999999999
 74
     0
 49
-3.174999999999999
 74
     0
  0
ENDTAB
  0
TABLE
  2
LAYER
  5
2
330
0
100
AcDbSymbolTable
 70
    16
  0
LAYER
  5
10
102
{ACAD_XDICTIONARY
360
10AD
102
}
330
2
100
AcDbSymbolTableRecord
100
AcDbLayerTableRecord
  2
0
 70
     0
 62
     7
  6
Continuous
370
    -3
390
F
  0
LAYER
  5
2F
102
{ACAD_XDICTIONARY
360
10AF
102
}
330
2
100
AcDbSymbolTableRecord
100
AcDbLayerTableRecord
  2
1
 70
     0
 62
     1
  6
Continuous
370
    -3
390
F
  0
LAYER
  5
30
102
{ACAD_XDICTIONARY
360
10B1
102
}
330
2
100
AcDbSymbolTableRecord
100
AcDbLayerTableRecord
  2
2
 70
     0
 62
     2
  6
Continuous
370
    -3
390
F
  0
LAYER
  5
31
102
{ACAD_XDICTIONARY
360
10B3
102
}
330
2
100
AcDbSymbolTableRecord
100
AcDbLayerTableRecord
  2
3
 70
     0
 62
     3
  6
Continuous
370
    -3
390
F
  0
LAYER
  5
32
102
{ACAD_XDICTIONARY
360
10B5
102
}
330
2
100
AcDbSymbolTableRecord
100
AcDbLayerTableRecord
  2
4
 70
     0
 62
     4
  6
Continuous
370
    -3
390
F
  0
LAYER
  5
33
102
{ACAD_XDICTIONARY
360
10B7
102
}
330
2
100
AcDbSymbolTableRecord
100
AcDbLayerTableRecord
  2
5
 70
     0
 62
     5
  6
Continuous
370
    -3
390
F
  0
LAYER
  5
34
102
{ACAD_XDICTIONARY
360
10B9
102
}
330
2
100
AcDbSymbolTableRecord
100
AcDbLayerTableRecord
  2
6
 70
     0
 62
     6
  6
Continuous
370
    -3
390
F
  0
LAYER
  5
35
102
{ACAD_XDICTIONARY
360
10BB
102
}
330
2
100
AcDbSymbolTableRecord
100
AcDbLayerTableRecord
  2
7
 70
     0
 62
     7
  6
Continuous
370
    -3
390
F
  0
LAYER
  5
36
102
{ACAD_XDICTIONARY
360
10BD
102
}
330
2
100
AcDbSymbolTableRecord
100
AcDbLayerTableRecord
  2
cen
 70
     0
 62
     7
  6
DASHDOT
370
    -3
390
F
  0
LAYER
  5
37
102
{ACAD_XDICTIONARY
360
10BF
102
}
330
2
100
AcDbSymbolTableRecord
100
AcDbLayerTableRecord
  2
hid
 70
     0
 62
     7
  6
HIDDEN
370
    -3
390
F
  0
LAYER
  5
5D6
102
{ACAD_XDICTIONARY
360
10C1
102
}
330
2
100
AcDbSymbolTableRecord
100
AcDbLayerTableRecord
  2
hatch
 70
     0
 62
     9
  6
Continuous
370
    -3
390
F
  0
LAYER
  5
8AF
102
{ACAD_XDICTIONARY
360
10C3
102
}
330
2
100
AcDbSymbolTableRecord
100
AcDbLayerTableRecord
  2
9
 70
     0
 62
     9
  6
Continuous
370
    -3
390
F
  0
LAYER
  5
8F8
102
{ACAD_XDICTIONARY
360
10C5
102
}
330
2
100
AcDbSymbolTableRecord
100
AcDbLayerTableRecord
  2
leg fin
 70
     0
 62
     9
  6
Continuous
370
    -3
390
F
  0
LAYER
  5
91D
102
{ACAD_XDICTIONARY
360
10C7
102
}
330
2
100
AcDbSymbolTableRecord
100
AcDbLayerTableRecord
  2
cotas
 70
     0
 62
     1
  6
Continuous
370
    -3
390
F
  0
LAYER
  5
92F
330
2
100
AcDbSymbolTableRecord
100
AcDbLayerTableRecord
  2
Defpoints
 70
     0
 62
     7
  6
Continuous
290
     0
370
    -3
390
F
  0
LAYER
  5
BA5
102
{ACAD_XDICTIONARY
360
10C9
102
}
330
2
100
AcDbSymbolTableRecord
100
AcDbLayerTableRecord
  2
SANINDUSA
 70
     0
 62
     3
  6
Continuous
370
    -3
390
F
  0
ENDTAB
  0
TABLE
  2
STYLE
  5
3
330
0
100
AcDbSymbolTable
 70
     3
  0
STYLE
  5
11
330
3
100
AcDbSymbolTableRecord
100
AcDbTextStyleTableRecord
  2
Standard
 70
     0
 40
0.0
 41
1.0
 50
0.0
 71
     0
 42
2.5
  3
Avgardn.ttf
  4

1001
ACAD
1000
AvantGarde Bk BT
1071
       34
  0
STYLE
  5
2C
330
3
100
AcDbSymbolTableRecord
100
AcDbTextStyleTableRecord
  2

 70
     1
 40
0.0
 41
1.0
 50
0.0
 71
     0
 42
2.5
  3
ltypeshp.shx
  4

  0
STYLE
  5
91F
330
3
100
AcDbSymbolTableRecord
100
AcDbTextStyleTableRecord
  2
SANINDUSA
 70
     0
 40
0.0
 41
1.0
 50
0.0
 71
     0
 42
2.5
  3
verdana.TTF
  4

1001
ACAD
1000
Verdana
1071
       34
  0
ENDTAB
  0
TABLE
  2
VIEW
  5
6
330
0
100
AcDbSymbolTable
 70
     0
  0
ENDTAB
  0
TABLE
  2
UCS
  5
7
330
0
100
AcDbSymbolTable
 70
     0
  0
ENDTAB
  0
TABLE
  2
APPID
  5
9
330
0
100
AcDbSymbolTable
 70
     3
  0
APPID
  5
12
330
9
100
AcDbSymbolTableRecord
100
AcDbRegAppTableRecord
  2
ACAD
 70
     0
  0
APPID
  5
3A
330
9
100
AcDbSymbolTableRecord
100
AcDbRegAppTableRecord
  2
DCO15
 70
     0
  0
APPID
  5
1111
330
9
100
AcDbSymbolTableRecord
100
AcDbRegAppTableRecord
  2
ACAD_MLEADERVER
 70
     0
  0
ENDTAB
  0
TABLE
  2
DIMSTYLE
  5
A
330
0
100
AcDbSymbolTable
 70
     2
100
AcDbDimStyleTable
 71
     1
340
921
  0
DIMSTYLE
105
45
330
A
100
AcDbSymbolTableRecord
100
AcDbDimStyleTableRecord
  2
STANDARD
 70
     0
289
     0
340
11
  0
DIMSTYLE
105
921
330
A
100
AcDbSymbolTableRecord
100
AcDbDimStyleTableRecord
  2
SANINDUSA
 70
     0
 41
2.0
 42
1.0
 43
1.0
 44
1.0
 73
     0
 74
     0
 77
     1
 78
     8
140
2.0
141
0.0
143
0.03937007874016
147
1.0
171
     3
172
     1
176
   256
177
   256
178
   256
179
     1
271
     1
272
     1
274
     3
278
    44
283
     0
284
     8
340
91F
371
    -1
372
    -1
  0
ENDTAB
  0
TABLE
  2
BLOCK_RECORD
  5
1
330
0
100
AcDbSymbolTable
 70
    52
  0
BLOCK_RECORD
  5
1F
330
1
100
AcDbSymbolTableRecord
100
AcDbBlockTableRecord
  2
*Model_Space
340
22
  0
BLOCK_RECORD
  5
1B
330
1
100
AcDbSymbolTableRecord
100
AcDbBlockTableRecord
  2
*Paper_Space
340
1E
  0
BLOCK_RECORD
  5
23
330
1
100
AcDbSymbolTableRecord
100
AcDbBlockTableRecord
  2
*Paper_Space0
340
26
  0
BLOCK_RECORD
  5
919
330
1
100
AcDbSymbolTableRecord
100
AcDbBlockTableRecord
  2
_DotSmall
340
0
  0
BLOCK_RECORD
  5
922
330
1
100
AcDbSymbolTableRecord
100
AcDbBlockTableRecord
  2
base para cotas
340
0
310
2800000020000000200000000100080000000000000400000000000000000000000000000000000000000000000080000080000000808000800000008000800080800000C0C0C000C0DCC000F0CAA6000020400000206000002080000020A0000020C0000020E00000400000004020000040400000406000004080000040A0
310
000040C0000040E00000600000006020000060400000606000006080000060A0000060C0000060E00000800000008020000080400000806000008080000080A0000080C0000080E00000A0000000A0200000A0400000A0600000A0800000A0A00000A0C00000A0E00000C0000000C0200000C0400000C0600000C0800000C0
310
A00000C0C00000C0E00000E0000000E0200000E0400000E0600000E0800000E0A00000E0C00000E0E00040000000400020004000400040006000400080004000A0004000C0004000E00040200000402020004020400040206000402080004020A0004020C0004020E000404000004040200040404000404060004040800040
310
40A0004040C0004040E00040600000406020004060400040606000406080004060A0004060C0004060E00040800000408020004080400040806000408080004080A0004080C0004080E00040A0000040A0200040A0400040A0600040A0800040A0A00040A0C00040A0E00040C0000040C0200040C0400040C0600040C08000
310
40C0A00040C0C00040C0E00040E0000040E0200040E0400040E0600040E0800040E0A00040E0C00040E0E00080000000800020008000400080006000800080008000A0008000C0008000E00080200000802020008020400080206000802080008020A0008020C0008020E00080400000804020008040400080406000804080
310
008040A0008040C0008040E00080600000806020008060400080606000806080008060A0008060C0008060E00080800000808020008080400080806000808080008080A0008080C0008080E00080A0000080A0200080A0400080A0600080A0800080A0A00080A0C00080A0E00080C0000080C0200080C0400080C0600080C0
310
800080C0A00080C0C00080C0E00080E0000080E0200080E0400080E0600080E0800080E0A00080E0C00080E0E000C0000000C0002000C0004000C0006000C0008000C000A000C000C000C000E000C0200000C0202000C0204000C0206000C0208000C020A000C020C000C020E000C0400000C0402000C0404000C0406000C0
310
408000C040A000C040C000C040E000C0600000C0602000C0604000C0606000C0608000C060A000C060C000C060E000C0800000C0802000C0804000C0806000C0808000C080A000C080C000C080E000C0A00000C0A02000C0A04000C0A06000C0A08000C0A0A000C0A0C000C0A0E000C0C00000C0C02000C0C04000C0C06000
310
C0C08000C0C0A000F0FBFF00A4A0A000808080000000FF0000FF000000FFFF00FF000000FF00FF00FFFF0000FFFFFF00A4A4A4A4A4A4A4A4A4A4A4A4A4A4A4A4A4A4A4A4A4A4A4A4A4A4A4A4A4A4A4A4A4A4A4A4A4A4A4A4A4A4A4A4A4A4A4A4A4A4A4A4A4A4A4A4A4A4A4A4A4A4A4A4A4A4A4A4A4A4A4A4A4A4A4A4A4A4A4
310
A4A4A4A4A4A4A4A4A4A4A4A4A4A4A4A4A4A4A4A4A4A4A4A4A4A4A4A4A4A4A4A4A4A4A4A4A4A4A4A4A4A4A4A4A4A4A4A4A4A4A4A4A4A4A4A4A4A4A4A4A4A4A4A4A4A4A4A4A4A4A4A4A4A4A4A4A4A4A4A4A4A4A4A4A4A4A4A4A4A4A4A4A4A4A4A4A4A4A4A4A4A4A4A4A4A4A4A4A4A4A4A4A4A4A4A4A4A4A4A4A4A4A4A4A4A4A4
310
A4A4A4A4A4A4A4A4A4A4A4A4A4A4A4A4A4A4A4A4A4A4A4A4A4A4A4A4A4A4A4A4A4A4A4A4A4A4A4A4A4A4A4A4A4A4A4A4A4A4A4A4A4A4A4A4A4A4A4A4A4A4A4A4A4A4A4A4A4A4A4A4A4A4A4A4A4A4A4A4A4A4A4A4A4A4A4A4A4A4A4A4A4A4A4A4A4A4A4A4A4A4A4A4A4A4A4A4A4A4A4A4A4A4A4A4A4A4A4A4A4A4A4A4A4A4A4
310
A4A4A4A4A4A4A4A4A4A4A4A4A4A4A4A4A4A4A4A4A4A4A4A4A4A4A4A4A4A4A4A4A4A4A4A4A4A4A4A4A4A4A4A4A4A4A4A4A4A4A4A4A4A4A4A4A4A4A4A4A4A4A4A4A4A4A4A4A4A4A4A4A4A4A4A4A4A4A4A4A4A4A4A4A4A4A4A4A4A4A4A4A4A4A4A4A4A4A4A4A4A4A4A4A4A4A4A4A4A4A4A4A4A4A4A4F9F9F9F9F9F9F9F9F9F9F9
310
F9F9F9F9F9F9F9F9F9F9F9F9F9F9F9F9F9F9F9A4A4F9F9F9F9F9F9F9F9F9F9F9F9F9F9F9F9F9F9F9F9F9F9F9F9F9F9F9F9F9F9A4A4F9F9F9F9F9F9F9F9F9F9F9F9F9F9F9F9F9F9F9F9F9F9F9F9F9F9F9F9F9F9A4A4F9A4A4A4A4A4A4A4A4A4A4A4A4A4A4A4A4A4A4A4A4A4A4A4A4A4A4A4A4F9A4A4A4A4A4A4A4A4A4A4A4A4
310
A4A4A4A4A4A4A4A4A4A4A4A4A4A4A4A4A4A4A4A4A4A4A4A4A4A4A4A4A4A4A4A4A4A4A4A4A4A4A4A4A4A4A4A4A4A4A4A4A4A4A4A4A4A4A4A4A4A4A4A4A4A4A4A4A4A4A4A4A4A4A4A4A4A4A4A4A4A4A4A4A4A4A4A4A4A4A4A4A4A4A4A4A4A4A4A4A4A4A4A4A4A4A4A4A4A4A4A4A4A4A4A4A4A4A4A4A4A4A4A4A4A4A4A4A4A4A4
310
A4A4A4A4A4A4A4A4A4A4A4A4A4A4A4A4A4A4A4A4A4A4A4A4A4A4A4A4A4A4A4A4A4A4A4A4A4A4A4A4A4A4A4A4A4A4A4A4A4A4A4A4A4A4A4A4A4A4A4A4A4A4A4A4A4A4A4A4A4A4A4A4A4A4A4A4A4A4A4A4A4A4A4A4A4A4A4A4A4A4A4A4A4A4A4A4A4A4A4A4A4A4A4A4A4A4A4A4A4A4A4A4A4A4A4A4A4A4A4A4A4A4A4A4A4A4A4
310
A4A4A4A4A4A4A4A4A4A4A4A4A4A4A4A4A4A4A4A4A4A4A4A4A4A4A4A4A4A4A4A4A4A4A4A4A4A4A4A4A4A4A4A4A4A4A4A4A4A4A4A4A4A4A4A4A4A4A4A4A4A4A4A4A4A4A4A4A4A4A4A4A4A4A4A4A4A4A4A4A4A4A4A4A4A4A4A4A4A4A4A4A4A4A4A4A4A4A4A4A4A4A4A4A4A4A4A4A4A4A4A4A4A4A4A4A4A4A4A4A4A4A4A4A4A4A4
310
A4A4A4A4A4A4A4A4A4A4A4A4A4A4A4A4A4A4A4A4A4A4A4A4A4A4A4A4A4A4A4A4A4A4A4A4A4A4A4A4A4A4A4A4A4A4A4A4A4A4A4A4A4A4A4A4
1001
ACAD
1000
DesignCenter Data
1002
{
1070
     1
1070
     4
1002
}
  0
BLOCK_RECORD
  5
AA8
330
1
100
AcDbSymbolTableRecord
100
AcDbBlockTableRecord
  2
_CLOSED
340
0
  0
ENDTAB
  0
ENDSEC
  0
SECTION
  2
BLOCKS
  0
BLOCK
  5
20
330
1F
100
AcDbEntity
  8
0
100
AcDbBlockBegin
  2
*Model_Space
 70
     0
 10
0.0
 20
0.0
 30
0.0
  3
*Model_Space
  1

  0
ENDBLK
  5
21
330
1F
100
AcDbEntity
  8
0
100
AcDbBlockEnd
  0
BLOCK
  5
1C
330
1B
100
AcDbEntity
 67
     1
  8
0
100
AcDbBlockBegin
  2
*Paper_Space
 70
     0
 10
0.0
 20
0.0
 30
0.0
  3
*Paper_Space
  1

  0
ENDBLK
  5
1D
330
1B
100
AcDbEntity
 67
     1
  8
0
100
AcDbBlockEnd
  0
BLOCK
  5
24
330
23
100
AcDbEntity
 67
     1
  8
0
100
AcDbBlockBegin
  2
*Paper_Space0
 70
     0
 10
0.0
 20
0.0
 30
0.0
  3
*Paper_Space0
  1

  0
ENDBLK
  5
25
330
23
100
AcDbEntity
 67
     1
  8
0
100
AcDbBlockEnd
  0
BLOCK
  5
91B
330
919
100
AcDbEntity
  8
0
100
AcDbBlockBegin
  2
_DotSmall
 70
     0
 10
0.0
 20
0.0
 30
0.0
  3
_DotSmall
  1

  0
LWPOLYLINE
  5
91A
330
919
100
AcDbEntity
  8
0
  6
ByBlock
 62
     0
100
AcDbPolyline
 90
        2
 70
     1
 43
0.5
 10
-0.0625
 20
0.0
 42
1.0
 10
0.0625
 20
0.0
 42
1.0
  0
ENDBLK
  5
91C
330
919
100
AcDbEntity
  8
0
100
AcDbBlockEnd
  0
BLOCK
  5
92A
330
922
100
AcDbEntity
  8
0
100
AcDbBlockBegin
  2
base para cotas
 70
     0
 10
0.0
 20
0.0
 30
0.0
  3
base para cotas
  1

  0
LINE
  5
B36
330
922
100
AcDbEntity
  8
cotas
100
AcDbLine
 10
0.0
 20
-30.0
 30
0.0
 11
327.1260136525398
 21
-30.0
 31
0.0
  0
LINE
  5
B37
330
922
100
AcDbEntity
  8
cotas
100
AcDbLine
 10
0.0
 20
-25.0
 30
0.0
 11
327.1260136525398
 21
-25.0
 31
0.0
  0
LINE
  5
B38
330
922
100
AcDbEntity
  8
cotas
100
AcDbLine
 10
0.0
 20
-20.0
 30
0.0
 11
327.1260136525398
 21
-20.0
 31
0.0
  0
LINE
  5
B39
330
922
100
AcDbEntity
  8
cotas
100
AcDbLine
 10
0.0
 20
-15.0
 30
0.0
 11
327.1260136525398
 21
-15.0
 31
0.0
  0
LINE
  5
B3A
330
922
100
AcDbEntity
  8
cotas
100
AcDbLine
 10
0.0
 20
-10.0
 30
0.0
 11
327.1260136525398
 21
-10.0
 31
0.0
  0
LINE
  5
B3B
330
922
100
AcDbEntity
  8
cotas
100
AcDbLine
 10
0.0
 20
0.0
 30
0.0
 11
0.0
 21
-30.0
 31
0.0
  0
LINE
  5
B3C
330
922
100
AcDbEntity
  8
cotas
100
AcDbLine
 10
327.1260136525398
 20
-30.0
 30
0.0
 11
327.1260136525398
 21
0.0
 31
0.0
  0
ENDBLK
  5
92B
330
922
100
AcDbEntity
  8
0
100
AcDbBlockEnd
  0
BLOCK
  5
AAD
330
AA8
100
AcDbEntity
  8
0
100
AcDbBlockBegin
  2
_CLOSED
 70
     0
 10
0.0
 20
0.0
 30
0.0
  3
_CLOSED
  1

  0
LINE
  5
AA9
330
AA8
100
AcDbEntity
  8
0
100
AcDbLine
 10
-1.0
 20
0.166667
 30
0.0
 11
0.0
 21
0.0
 31
0.0
  0
LINE
  5
AAA
330
AA8
100
AcDbEntity
  8
0
100
AcDbLine
 10
0.0
 20
0.0
 30
0.0
 11
-1.0
 21
-0.166667
 31
0.0
  0
LINE
  5
AAB
330
AA8
100
AcDbEntity
  8
0
100
AcDbLine
 10
-1.0
 20
0.166667
 30
0.0
 11
-1.0
 21
-0.166667
 31
0.0
  0
LINE
  5
AAC
330
AA8
100
AcDbEntity
  8
0
100
AcDbLine
 10
0.0
 20
0.0
 30
0.0
 11
-1.0
 21
0.0
 31
0.0
  0
ENDBLK
  5
AAE
330
AA8
100
AcDbEntity
  8
0
100
AcDbBlockEnd
  0
ENDSEC
  0
SECTION
  2
ENTITIES
  0
LINE
  5
DE9
330
1F
100
AcDbEntity
  8
SANINDUSA
100
AcDbLine
 10
121.3654288404667
 20
947.2347703504354
 30
0.0
 11
121.8704410239263
 21
947.2347703504354
 31
0.0
  0
LINE
  5
DEA
330
1F
100
AcDbEntity
  8
SANINDUSA
100
AcDbLine
 10
121.8692862010986
 20
947.1997703504355
 30
0.0
 11
121.3665836632945
 21
947.1997703504355
 31
0.0
  0
LWPOLYLINE
  5
DEB
330
1F
100
AcDbEntity
  8
SANINDUSA
100
AcDbPolyline
 90
       13
 70
   128
 43
0.0
 10
121.653985262645
 20
947.0901517505799
 10
121.6539834303262
 20
947.09019526833
 10
121.6542349417796
 20
947.092044382914
 10
121.6547797714723
 20
947.0937089586008
 10
121.6555504467978
 20
947.0951660277707
 10
121.6564913322983
 20
947.0964110843627
 10
121.6575520291306
 20
947.0974426973581
 10
121.658685561604
 20
947.09826463344
 10
121.6598477917701
 20
947.0988865751262
 10
121.660997064828
 20
947.0993242385674
 10
121.6620934997292
 20
947.0995992697677
 10
121.663096410849
 20
947.0997391126394
 10
121.6638449604144
 20
947.0997727874863
  0
LWPOLYLINE
  5
DEC
330
1F
100
AcDbEntity
  8
SANINDUSA
100
AcDbPolyline
 90
       21
 70
   128
 43
0.0
 10
121.5719437104848
 20
947.0997812671605
 10
121.572398451118
 20
947.0998607208363
 10
121.5741626113276
 20
947.1001585618001
 10
121.5771555166959
 20
947.1006390035887
 10
121.5812468339332
 20
947.1012416259295
 10
121.5864518866652
 20
947.1019178050816
 10
121.5925100287541
 20
947.102577587734
 10
121.5993771206303
 20
947.1031554338168
 10
121.6067525888044
 20
947.1035780749927
 10
121.6123032890303
 20
947.1037571699575
 10
121.6179349321965
 20
947.1038186470455
 10
121.625565404209
 20
947.1037051507202
 10
121.6329943950531
 20
947.1033825116629
 10
121.639963101036
 20
947.1028854732395
 10
121.6463549507407
 20
947.1022689612661
 10
121.651984363665
 20
947.1015970215342
 10
121.6566967793949
 20
947.1009438441495
 10
121.6603234081013
 20
947.100385095797
 10
121.6627612444827
 20
947.0999815844836
 10
121.6638914865616
 20
947.0997880267878
 10
121.6638438987156
 20
947.0997960665707
  0
LWPOLYLINE
  5
DEF
330
1F
100
AcDbEntity
  8
SANINDUSA
100
AcDbPolyline
 90
       40
 70
   128
 43
0.0
 10
120.3719745644833
 20
947.1082464343073
 10
120.3648555945259
 20
947.1088221028246
 10
120.3581767937835
 20
947.1104600377028
 10
120.3518450711904
 20
947.1131235860138
 10
120.3516819757495
 20
947.1132087289646
 10
120.345986459371
 20
947.1168130040767
 10
120.3409541402676
 20
947.1212896338876
 10
120.3368681135867
 20
947.1263764857217
 10
120.3336826510153
 20
947.1320742681482
 10
120.3315531760219
 20
947.138139334141
 10
120.3304838003204
 20
947.1444824440894
 10
120.3305471982496
 20
947.151020656485
 10
120.3317487351796
 20
947.1574457646971
 10
120.3341471545193
 20
947.1637438228658
 10
120.3376056554092
 20
947.1695217207258
 10
120.3421174175519
 20
947.1747166020112
 10
120.3474434259363
 20
947.1790759567333
 10
120.3535114071311
 20
947.1825309126167
 10
120.360067765166
 20
947.1849578981094
 10
120.3659866417614
 20
947.1861836657387
 10
120.3720202738879
 20
947.1865916421325
 10
120.3780665761178
 20
947.1861682236541
 10
120.3839954797719
 20
947.1849253252702
 10
120.390461429637
 20
947.1825184317797
 10
120.3964516202197
 20
947.1791114773729
 10
120.4016217917464
 20
947.1749182918395
 10
120.4060355130049
 20
947.1699375684345
 10
120.4094474462535
 20
947.1644505000535
 10
120.4118958899689
 20
947.1584656835352
 10
120.4132704329823
 20
947.1521584294139
 10
120.4135402915491
 20
947.1457060815879
 10
120.4126419560084
 20
947.1391594223517
 10
120.4106141101905
 20
947.1328747975022
 10
120.4074148686435
 20
947.1268856984377
 10
120.4032302772347
 20
947.1215427353486
 10
120.3980803808823
 20
947.1169043009307
 10
120.3922242485918
 20
947.1131874605193
 10
120.3857590161036
 20
947.110456848279
 10
120.3789317344906
 20
947.10879653869
 10
120.3719745644833
 20
947.1082464343073
  0
LINE
  5
DF0
330
1F
100
AcDbEntity
  8
SANINDUSA
100
AcDbLine
 10
120.1510309763418
 20
946.9699190506737
 30
0.0
 11
120.5929681281066
 21
946.9699190506737
 31
0.0
  0
LINE
  5
DF1
330
1F
100
AcDbEntity
  8
SANINDUSA
100
AcDbLine
 10
120.1194672120826
 20
946.9524190506737
 30
0.0
 11
120.6244793955422
 21
946.9524190506737
 31
0.0
  0
LINE
  5
DF2
330
1F
100
AcDbEntity
  8
SANINDUSA
100
AcDbLine
 10
120.5929561119182
 20
947.3249190506738
 30
0.0
 11
120.1510352050407
 21
947.3249190506738
 31
0.0
  0
LINE
  5
DF3
330
1F
100
AcDbEntity
  8
SANINDUSA
100
AcDbLine
 10
120.6244793955422
 20
947.3424190506738
 30
0.0
 11
120.1194672120826
 21
947.3424190506738
 31
0.0
  0
LWPOLYLINE
  5
DF5
330
1F
100
AcDbEntity
  8
SANINDUSA
100
AcDbPolyline
 90
       32
 70
   128
 43
0.0
 10
121.383262338378
 20
947.1615393545045
 10
121.3841080549298
 20
947.1597726939849
 10
121.3848809516066
 20
947.1582371887979
 10
121.3855794560493
 20
947.1569104710052
 10
121.3862017171003
 20
947.1557741736768
 10
121.3864834453477
 20
947.1552730418292
 10
121.3867449925459
 20
947.1548149170754
 10
121.3869858189555
 20
947.1543989778394
 10
121.3872053013482
 20
947.1540247374726
 10
121.3875773438985
 20
947.1534010076034
 10
121.3879136045437
 20
947.152850697296
 10
121.3882329818859
 20
947.1523374755648
 10
121.3886106327999
 20
947.1517376589796
 10
121.3890507324825
 20
947.1510480376725
 10
121.3898778356285
 20
947.1497787069635
 10
121.3908830701313
 20
947.1482814515157
 10
121.3925427126804
 20
947.1459126203896
 10
121.3945849315606
 20
947.1431599139098
 10
121.3969997712055
 20
947.1401130832598
 10
121.4009224209104
 20
947.1355850428501
 10
121.405130948504
 20
947.1312262173364
 10
121.409607753139
 20
947.1270739519397
 10
121.4143408822094
 20
947.1231510258899
 10
121.4179634991094
 20
947.1204338072546
 10
121.4224885987179
 20
947.1173508120285
 10
121.4279814740007
 20
947.1140282954138
 10
121.4344964047823
 20
947.110624959625
 10
121.4420668269093
 20
947.1073305978833
 10
121.4506925195486
 20
947.1043622515153
 10
121.4603267724633
 20
947.101955457934
 10
121.4708657696367
 20
947.1003499567013
 10
121.4821429622293
 20
947.0997703577911
  0
LINE
  5
DFA
330
1F
100
AcDbEntity
  8
SANINDUSA
100
AcDbLine
 10
120.1294733038124
 20
947.30567103107
 30
0.0
 11
120.1294733038124
 21
946.9891670654105
 31
0.0
  0
LINE
  5
DFB
330
1F
100
AcDbEntity
  8
SANINDUSA
100
AcDbLine
 10
120.1094733038124
 20
947.3324251424037
 30
0.0
 11
120.1094733038124
 21
946.962412958944
 31
0.0
  0
LWPOLYLINE
  5
DFC
330
1F
100
AcDbEntity
  8
SANINDUSA
100
AcDbPolyline
 90
      114
 70
   128
 43
0.0
 10
120.1510352050407
 20
947.3249190506738
 10
120.1533378845857
 20
947.3243787808071
 10
120.1562255775385
 20
947.323553182681
 10
120.1590221178102
 20
947.3226277724844
 10
120.1618874675362
 20
947.3215722053053
 10
120.1650551472032
 20
947.3202901308273
 10
120.1678746831421
 20
947.3190552355235
 10
120.1716387268667
 20
947.317277079137
 10
120.1760053299867
 20
947.3150233661607
 10
120.1772485367357
 20
947.3143441525241
 10
120.1785330755066
 20
947.3136250106275
 10
120.1798589462997
 20
947.3128643684335
 10
120.1812261491147
 20
947.3120606474498
 10
120.1826346839518
 20
947.3112122679687
 10
120.1840845508109
 20
947.3103176547061
 10
120.1875368216817
 20
947.3080888868917
 10
120.190442748166
 20
947.3061004905979
 10
120.1928023302638
 20
947.3044104641827
 10
120.194615567975
 20
947.3030642324181
 10
120.1970231579966
 20
947.3011963664376
 10
120.2008044527024
 20
947.2980478028031
 10
120.2044429496784
 20
947.2947431935997
 10
120.2080693763978
 20
947.2911457719167
 10
120.2096151225277
 20
947.2895129102553
 10
120.2113167625177
 20
947.2876416029649
 10
120.213346445371
 20
947.2852874021725
 10
120.2151099118609
 20
947.2830996122084
 10
120.2158150771655
 20
947.2821751806682
 10
120.2164665778638
 20
947.2812881605021
 10
120.2170644139557
 20
947.2804395483459
 10
120.2176085854413
 20
947.2796302591511
 10
120.2180990923206
 20
947.2788611308903
 10
120.2185359345935
 20
947.2781329290995
 10
120.21891911226
 20
947.2774463512369
 10
120.2216369391419
 20
947.2719836947499
 10
120.2246188788319
 20
947.2650275754345
 10
120.226669622681
 20
947.2606133254112
 10
120.2291280744427
 20
947.2564821579501
 10
120.231491364123
 20
947.252294147664
 10
120.2337500648455
 20
947.2480659546162
 10
120.2360223825401
 20
947.2435592796768
 10
120.2384287649605
 20
947.2384675782375
 10
120.2406899138027
 20
947.2333313038507
 10
120.2428058290666
 20
947.2281551782865
 10
120.2447765107523
 20
947.2229439746699
 10
120.2466019588598
 20
947.2177025024576
 10
120.2500359107029
 20
947.2063571441625
 10
120.2528454503904
 20
947.1948099822474
 10
120.2550305779223
 20
947.1831030387274
 10
120.2565912932987
 20
947.171280139017
 10
120.2575275965196
 20
947.1593863726202
 10
120.2578394875849
 20
947.1474675226422
 10
120.2575273069106
 20
947.1356734176536
 10
120.256591387197
 20
947.1238613964215
 10
120.2550317284441
 20
947.1120770091255
 10
120.254017996928
 20
947.1062095032324
 10
120.2528483306521
 20
947.1003660779309
 10
120.2515227296163
 20
947.0945524059048
 10
120.2500411938208
 20
947.0887741024773
 10
120.2484037232654
 20
947.0830367073682
 10
120.2466103179503
 20
947.0773456668533
 10
120.2436487121316
 20
947.0689920870066
 10
120.240312923014
 20
947.0607446627237
 10
120.2366029505976
 20
947.0526212855887
 10
120.2326718429882
 20
947.0449210285597
 10
120.2286324336209
 20
947.0377447219856
 10
120.2280094341514
 20
947.0366932327749
 10
120.2273786188591
 20
947.0356421987082
 10
120.2265344961789
 20
947.0342509533391
 10
120.2255697948974
 20
947.0326506155776
 10
120.2251241514387
 20
947.0318798126163
 10
120.224993551502
 20
947.0315127986873
 10
120.2247981422777
 20
947.0306318786652
 10
120.2244832150168
 20
947.0299059246441
 10
120.2242082994633
 20
947.0292768287519
 10
120.2233602681344
 20
947.02720226598
 10
120.2218633917965
 20
947.0237578671797
 10
120.2213093637185
 20
947.0225567241882
 10
120.2207445655743
 20
947.0213697250359
 10
120.2201689973638
 20
947.0201970455011
 10
120.2195826590871
 20
947.0190388508211
 10
120.2189855507441
 20
947.017895295669
 10
120.2179179431903
 20
947.0159382340044
 10
120.217126429356
 20
947.0146013570746
 10
120.2166110092413
 20
947.0138692575646
 10
120.2159270910311
 20
947.0130520339733
 10
120.2152575501335
 20
947.0121631993396
 10
120.2144374532909
 20
947.0111266519463
 10
120.2135069856389
 20
947.0099896890996
 10
120.2126060875363
 20
947.008915687463
 10
120.2116954987636
 20
947.0078561885191
 10
120.2107752193206
 20
947.0068113317269
 10
120.2069696807347
 20
947.0027652948752
 10
120.2027514375107
 20
946.9987269470703
 10
120.2017562589043
 20
946.9978339752662
 10
120.2009553868036
 20
946.9971328938902
 10
120.2000604566562
 20
946.9963653204281
 10
120.199071468462
 20
946.9955339749491
 10
120.197988422221
 20
946.994641907427
 10
120.1958204656793
 20
946.9929087804604
 10
120.1933525791415
 20
946.9910153219357
 10
120.1905847626075
 20
946.988987752513
 10
120.1875170160774
 20
946.9868565024919
 10
120.1841493395511
 20
946.9846563923413
 10
120.180447280931
 20
946.9823927751571
 10
120.1770712924374
 20
946.9804605641865
 10
120.1740213740702
 20
946.97882457175
 10
120.1712975258294
 20
946.9774511359881
 10
120.168899747715
 20
946.9763087485395
 10
120.1668280397271
 20
946.97536851597
 10
120.1642341646596
 20
946.9742489643037
 10
120.1594979464902
 20
946.9724009664119
 10
120.1550954932269
 20
946.9709503691575
 10
120.1510309763418
 20
946.9699190506737
  0
LWPOLYLINE
  5
DFD
330
1F
100
AcDbEntity
  8
SANINDUSA
100
AcDbPolyline
 90
      104
 70
   128
 43
0.0
 10
120.1294733038124
 20
946.9891670654105
 10
120.132450175693
 20
946.9902372286025
 10
120.1350604058854
 20
946.9917479656199
 10
120.137713859782
 20
946.9940065837516
 10
120.1402965840367
 20
946.9969467699145
 10
120.1426269499803
 20
947.0002803442568
 10
120.1448405366986
 20
947.0041276869324
 10
120.1469373441916
 20
947.008488797941
 10
120.1489173724595
 20
947.013363677283
 10
120.1505992713439
 20
947.0182100002872
 10
120.152108144321
 20
947.023303831096
 10
120.1534439913909
 20
947.028645169709
 10
120.1546068125534
 20
947.0342340161263
 10
120.1555215879377
 20
947.0395828306674
 10
120.1562833877264
 20
947.0451068415446
 10
120.1564460580014
 20
947.0464814629492
 10
120.156596379656
 20
947.0478401929929
 10
120.1567343526901
 20
947.0491830316762
 10
120.1568599771039
 20
947.0505099789987
 10
120.1571266921512
 20
947.0537152621144
 10
120.1572031702668
 20
947.0548849306533
 10
120.1572271894725
 20
947.055361521668
 10
120.1572356441124
 20
947.0555727563619
 10
120.1572389826916
 20
947.0556716085052
 10
120.157240429796
 20
947.055719343276
 10
120.1572410978019
 20
947.0557427878363
 10
120.1572414179182
 20
947.0557544044101
 10
120.1572415745048
 20
947.0557601862704
 10
120.1572416519301
 20
947.055763070594
 10
120.1572416904258
 20
947.0557645111041
 10
120.1572417096195
 20
947.0557652309462
 10
120.1572417192027
 20
947.055765590764
 10
120.1572417239909
 20
947.0557657706471
 10
120.1572417263842
 20
947.0557658605823
 10
120.1572417275806
 20
947.0557659055483
 10
120.1572417281788
 20
947.0557659280308
 10
120.1572417284778
 20
947.0557659392719
 10
120.1573209006067
 20
947.056656534008
 10
120.1575381216565
 20
947.0589221759444
 10
120.1576892818732
 20
947.0605696235468
 10
120.1578274505192
 20
947.062230873978
 10
120.1579549891134
 20
947.0639408533742
 10
120.1580645708788
 20
947.0656114106056
 10
120.1582550423767
 20
947.0693997981129
 10
120.1584023379415
 20
947.0731975794814
 10
120.158513309258
 20
947.0766790320482
 10
120.1586049007815
 20
947.0802459339969
 10
120.1586668564653
 20
947.0833259417767
 10
120.158713485166
 20
947.086396596463
 10
120.1587521469894
 20
947.0901794461639
 10
120.158772495188
 20
947.0941006745686
 10
120.1587745297621
 20
947.0981602816772
 10
120.1587582507115
 20
947.1023582674897
 10
120.1587326875349
 20
947.1056891055859
 10
120.1587030330321
 20
947.108252778224
 10
120.1586498988942
 20
947.1119996172731
 10
120.1585776206821
 20
947.1164778365594
 10
120.1584861983959
 20
947.121687436082
 10
120.1583789741533
 20
947.1274609931333
 10
120.1582942424236
 20
947.1323218884805
 10
120.1582120659857
 20
947.1380686152068
 10
120.1581625286793
 20
947.1431136876928
 10
120.1581456305043
 20
947.1474571059385
 10
120.1581552749657
 20
947.1509937685926
 10
120.1581851697767
 20
947.1549695985432
 10
120.1582353149373
 20
947.1593845957903
 10
120.1583057104476
 20
947.1642387603335
 10
120.1584015730708
 20
947.1698467580219
 10
120.1585108711332
 20
947.1761426364457
 10
120.1585938475399
 20
947.1811445115704
 10
120.1586573383667
 20
947.1852396254893
 10
120.1587013436136
 20
947.1884279782029
 10
120.1587318185226
 20
947.1913884327657
 10
120.1587578664926
 20
947.196352216876
 10
120.1587483275899
 20
947.2023633796608
 10
120.1586920121703
 20
947.208159467609
 10
120.1585889202337
 20
947.2137404807206
 10
120.1584043994655
 20
947.2203005384066
 10
120.1582720040432
 20
947.2238660772658
 10
120.158120884448
 20
947.2272054605136
 10
120.1578992320214
 20
947.2308441507145
 10
120.1574963550228
 20
947.2356866992864
 10
120.157398666805
 20
947.2366829723213
 10
120.1573060401216
 20
947.2375680998137
 10
120.1572132208083
 20
947.2385326993297
 10
120.1571757212128
 20
947.2392419855784
 10
120.1570986903091
 20
947.2407061038675
 10
120.1568993389559
 20
947.2432222181039
 10
120.1566608530635
 20
947.2458497559401
 10
120.156046508102
 20
947.2511872939072
 10
120.155593276799
 20
947.2543918550329
 10
120.1550779953821
 20
947.2575899899588
 10
120.1545006638512
 20
947.2607816986849
 10
120.1533175716994
 20
947.2664246561723
 10
120.1519784703019
 20
947.2717696423961
 10
120.1504833596588
 20
947.2768166573565
 10
120.1488322397702
 20
947.2815657010535
 10
120.1462014010365
 20
947.2878346181522
 10
120.1433271034138
 20
947.2932912048468
 10
120.1401441151612
 20
947.2980081085147
 10
120.1376308122711
 20
947.3008717625944
 10
120.1351095314757
 20
947.3030338054851
 10
120.1324417379944
 20
947.3045922837139
 10
120.1294733038124
 20
947.3056710310702
  0
LWPOLYLINE
  5
DFE
330
1F
100
AcDbEntity
  8
SANINDUSA
100
AcDbPolyline
 90
       40
 70
   128
 43
0.0
 10
120.3719730283375
 20
947.1239190506754
 10
120.373815092308
 20
947.1239913359935
 10
120.3776703096028
 20
947.1246225517118
 10
120.3813609636686
 20
947.1258755634345
 10
120.3815078917744
 20
947.1259401858901
 10
120.3849907697639
 20
947.1278565665441
 10
120.3880981143806
 20
947.1303240079965
 10
120.3906963020426
 20
947.1332203388577
 10
120.3927870877316
 20
947.1365086703428
 10
120.3942907398178
 20
947.1400654423881
 10
120.3951974487052
 20
947.1438289122364
 10
120.3954684294463
 20
947.1477467710162
 10
120.3950883792642
 20
947.15165500238
 10
120.3940342706028
 20
947.1555088349052
 10
120.3923523771525
 20
947.1591213312121
 10
120.3900989125574
 20
947.1623726983212
 10
120.3873383407962
 20
947.1652000978444
 10
120.3842175722293
 20
947.1674747919061
 10
120.3807606367586
 20
947.1692142973962
 10
120.3764655037352
 20
947.1704813202148
 10
120.3719991086242
 20
947.1709190365059
 10
120.3670458508493
 20
947.1703966529704
 10
120.3632232587021
 20
947.1692266118893
 10
120.3596615574651
 20
947.1674358161937
 10
120.3564891337372
 20
947.1650936614764
 10
120.3537514692459
 20
947.1622586849358
 10
120.3515658834456
 20
947.1590676119372
 10
120.3499264021944
 20
947.1555544135451
 10
120.3488909642077
 20
947.1518170588669
 10
120.34847939217
 20
947.1479539485518
 10
120.3487261174426
 20
947.1439993228363
 10
120.349626900338
 20
947.1401466197351
 10
120.35118319512
 20
947.1364687397532
 10
120.3533296028416
 20
947.1331130234785
 10
120.3559675791414
 20
947.1302152454875
 10
120.359048795217
 20
947.1277923576877
 10
120.3624282087347
 20
947.1259471772318
 10
120.3660721033423
 20
947.1246720545421
 10
120.3689971348339
 20
947.1241091370838
 10
120.3719730283375
 20
947.1239190506754
  0
LWPOLYLINE
  5
E01
330
1F
100
AcDbEntity
  8
SANINDUSA
100
AcDbPolyline
 90
        9
 70
   128
 43
0.0
 10
120.1510309763397
 20
946.9699181029197
 10
120.1469827329854
 20
946.9702329864196
 10
120.1431306600444
 20
946.9711760163278
 10
120.1394167666497
 20
946.972803184623
 10
120.136157592372
 20
946.9750450637537
 10
120.1333412470493
 20
946.9779564624914
 10
120.1312437931725
 20
946.9813500709701
 10
120.1299159261524
 20
946.9851556403858
 10
120.1294733038124
 20
946.9891670654105
  0
ARC
  5
E02
330
1F
100
AcDbEntity
  8
SANINDUSA
100
AcDbCircle
 10
120.1194646932797
 20
946.9624104401411
 30
0.0
 40
0.0099913897847942
100
AcDbArc
 50
179.9855558856476
 51
270.0144441143409
  0
LWPOLYLINE
  5
E08
330
1F
100
AcDbEntity
  8
SANINDUSA
100
AcDbPolyline
 90
       10
 70
   128
 43
0.0
 10
120.1294733038124
 20
947.3056710310702
 10
120.1299126474748
 20
947.3096676393641
 10
120.1312306784618
 20
947.3134605404677
 10
120.1333190448568
 20
947.3168530451761
 10
120.1346324047721
 20
947.3183693562171
 10
120.1361252158325
 20
947.3197657063829
 10
120.1393914417997
 20
947.3220207732577
 10
120.1431165253213
 20
947.323657139894
 10
120.1469769066402
 20
947.3246039652542
 10
120.1510352050391
 20
947.324919998481
  0
ARC
  5
E0A
330
1F
100
AcDbEntity
  8
SANINDUSA
100
AcDbCircle
 10
120.1194646932797
 20
947.3324276612064
 30
0.0
 40
0.0099913897847939
100
AcDbArc
 50
89.98555588565745
 51
180.0144441143523
  0
LWPOLYLINE
  5
E0B
330
1F
100
AcDbEntity
  8
SANINDUSA
100
AcDbPolyline
 90
       26
 70
   128
 43
0.0
 10
120.3719733038124
 20
947.3154317417991
 10
120.3705647711242
 20
947.315464383819
 10
120.3666997870253
 20
947.3159070920678
 10
120.3634300203948
 20
947.3167923282195
 10
120.3611258546821
 20
947.3179645001049
 10
120.3600411040639
 20
947.3192355293944
 10
120.3602861220062
 20
947.3204361503903
 10
120.3618446443773
 20
947.3214449161845
 10
120.363081564779
 20
947.321852746449
 10
120.3645734707096
 20
947.3221866219931
 10
120.3662824834105
 20
947.3224440196966
 10
120.3681570408407
 20
947.3226254905783
 10
120.3707504906713
 20
947.3227475561776
 10
120.3747046576974
 20
947.3226928681503
 10
120.3783506591235
 20
947.3223532866235
 10
120.3813170894139
 20
947.3217224251577
 10
120.3832835370805
 20
947.3207977300894
 10
120.3837982206436
 20
947.320237922822
 10
120.3839733036115
 20
947.3196304536529
 10
120.383798753294
 20
947.3189942845278
 10
120.3832852072247
 20
947.3183469484139
 10
120.3824501513474
 20
947.3177160899684
 10
120.3813195770732
 20
947.3171205085499
 10
120.3783103837572
 20
947.3161324965206
 10
120.3745871503567
 20
947.3155449086839
 10
120.3719733038124
 20
947.3154317417991
  0
LINE
  5
E15
330
1F
100
AcDbEntity
  8
SANINDUSA
100
AcDbLine
 10
121.482132641587
 20
947.0997703504353
 30
0.0
 11
121.5719437104848
 21
947.0997703504353
 31
0.0
  0
LINE
  5
E16
330
1F
100
AcDbEntity
  8
SANINDUSA
100
AcDbLine
 10
121.6529686342487
 20
947.0607354509386
 30
0.0
 11
121.6539955963198
 21
947.0901437969164
 31
0.0
  0
LINE
  5
E17
330
1F
100
AcDbEntity
  8
SANINDUSA
100
AcDbLine
 10
121.581874787134
 20
947.0901289329635
 30
0.0
 11
121.5829012301443
 21
947.0607354509386
 31
0.0
  0
LINE
  5
E18
330
1F
100
AcDbEntity
  8
SANINDUSA
100
AcDbLine
 10
121.6179349321965
 20
947.0597703504353
 30
0.0
 11
121.5839006209713
 21
947.0597703504353
 31
0.0
  0
ARC
  5
E1A
330
1F
100
AcDbEntity
  8
SANINDUSA
100
AcDbCircle
 10
121.5839006209713
 20
947.0607703504354
 30
0.0
 40
0.0010000000000001
100
AcDbArc
 50
182.0000000000036
 51
270.0
  0
LINE
  5
E1B
330
1F
100
AcDbEntity
  8
SANINDUSA
100
AcDbLine
 10
121.6519692434217
 20
947.0597703504353
 30
0.0
 11
121.6179349321965
 21
947.0597703504353
 31
0.0
  0
ARC
  5
E1C
330
1F
100
AcDbEntity
  8
SANINDUSA
100
AcDbCircle
 10
121.6519692434217
 20
947.0607703504354
 30
0.0
 40
0.0009999999999999
100
AcDbArc
 50
270.0
 51
357.99999999984
  0
LWPOLYLINE
  5
E1E
330
1F
100
AcDbEntity
  8
SANINDUSA
100
AcDbPolyline
 90
       11
 70
   128
 43
0.0
 10
121.5719059689647
 20
947.09977429311
 10
121.5727081810472
 20
947.0997441266845
 10
121.5741382292057
 20
947.0995220319121
 10
121.5758333904039
 20
947.0989681355957
 10
121.5771530862972
 20
947.0982818306135
 10
121.5783933634597
 20
947.0973758576949
 10
121.5795279539595
 20
947.0962346574934
 10
121.5804852280089
 20
947.0948920722495
 10
121.5812168368568
 20
947.0933898992521
 10
121.5816903345809
 20
947.0917760286665
 10
121.5818758014768
 20
947.0901240782671
  0
LINE
  5
E1F
330
1F
100
AcDbEntity
  8
SANINDUSA
100
AcDbLine
 10
121.3665836632945
 20
947.1997703504355
 30
0.0
 11
121.3585885366784
 21
947.1997703504355
 31
0.0
  0
ARC
  5
E20
330
1F
100
AcDbEntity
  8
SANINDUSA
100
AcDbCircle
 10
121.3628866511533
 20
947.1957703504354
 30
0.0
 40
0.0040000000000001
100
AcDbArc
 50
25.00000000361504
 51
90.00000000000651
  0
ARC
  5
E26
330
1F
100
AcDbEntity
  8
SANINDUSA
100
AcDbCircle
 10
121.3585885366784
 20
947.2017703504354
 30
0.0
 40
0.0020000000000002
100
AcDbArc
 50
182.00000000016
 51
270.0
  0
LINE
  5
E27
330
1F
100
AcDbEntity
  8
SANINDUSA
100
AcDbLine
 10
121.3565897550243
 20
947.201700551442
 30
0.0
 11
121.3554349321965
 21
947.2347703504354
 31
0.0
  0
LINE
  5
E28
330
1F
100
AcDbEntity
  8
SANINDUSA
100
AcDbLine
 10
121.3554349321965
 20
947.2347703504354
 30
0.0
 11
121.3654288404667
 21
947.2347703504354
 31
0.0
  0
LINE
  5
E2B
330
1F
100
AcDbEntity
  8
SANINDUSA
100
AcDbLine
 10
121.383262338378
 20
947.1615393545045
 30
0.0
 11
121.3665120312611
 21
947.1974605040374
 31
0.0
  0
LWPOLYLINE
  5
E32
330
1F
100
AcDbEntity
  8
SANINDUSA
100
AcDbPolyline
 90
       33
 70
   128
 43
0.0
 10
121.7537269095246
 20
947.0997703580001
 10
121.7645744342432
 20
947.1003065260026
 10
121.7745829389678
 20
947.1017656121764
 10
121.7836044009404
 20
947.1039056559632
 10
121.791553846387
 20
947.1064789066856
 10
121.7984002102433
 20
947.1092502129463
 10
121.8041533018677
 20
947.1120095002095
 10
121.8098333307948
 20
947.1151549245576
 10
121.8151866574765
 20
947.1185414336444
 10
121.8203513825493
 20
947.1222420345069
 10
121.8253001991632
 20
947.126240068386
 10
121.8300078160935
 20
947.1305157344691
 10
121.832758260094
 20
947.1332579288297
 10
121.8352078508657
 20
947.1358714185139
 10
121.8373703985499
 20
947.1383269890255
 10
121.8392660646283
 20
947.1406052154433
 10
121.8409134031704
 20
947.1426886626542
 10
121.8423290524977
 20
947.1445615949745
 10
121.843530075242
 20
947.1462134471764
 10
121.8445852263291
 20
947.1477143145943
 10
121.8458133988446
 20
947.1495225574164
 10
121.8468482043881
 20
947.1511002387693
 10
121.8477048214727
 20
947.1524472754181
 10
121.8479890300184
 20
947.1529040334383
 10
121.8483520484885
 20
947.1535010962522
 10
121.8488249018678
 20
947.1542988703602
 10
121.8490996873255
 20
947.1547722547265
 10
121.8493988408935
 20
947.1552959491122
 10
121.8497216363576
 20
947.1558710844925
 10
121.8500674940428
 20
947.1564993354155
 10
121.850826756748
 20
947.157924586631
 10
121.8516744179156
 20
947.1595955571912
 10
121.8526092212179
 20
947.1615429898786
  0
LINE
  5
E39
330
1F
100
AcDbEntity
  8
SANINDUSA
100
AcDbLine
 10
120.6144733038124
 20
946.9891651121209
 30
0.0
 11
120.6144733038124
 21
947.3056729935491
 31
0.0
  0
LINE
  5
E3A
330
1F
100
AcDbEntity
  8
SANINDUSA
100
AcDbLine
 10
120.6344733038124
 20
946.962412958944
 30
0.0
 11
120.6344733038124
 21
947.3324251424037
 31
0.0
  0
LWPOLYLINE
  5
E3B
330
1F
100
AcDbEntity
  8
SANINDUSA
100
AcDbPolyline
 90
      106
 70
   128
 43
0.0
 10
120.5929681281066
 20
946.9699190506737
 10
120.5910426980826
 20
946.9703765432182
 10
120.5886636524987
 20
946.9710595372063
 10
120.58633415671
 20
946.9718336216873
 10
120.5840612492972
 20
946.972674605189
 10
120.5816100684286
 20
946.9736683540249
 10
120.5789436596872
 20
946.9748458553638
 10
120.5768070602306
 20
946.9758570958568
 10
120.5744038013256
 20
946.9770629621597
 10
120.5716478456018
 20
946.9785401039123
 10
120.568539193059
 20
946.9803297241872
 10
120.5650778436974
 20
946.982476079161
 10
120.5612637975169
 20
946.9850254907223
 10
120.5570514225814
 20
946.9880865678156
 10
120.5533130399911
 20
946.9910430777686
 10
120.550048649746
 20
946.9938189968232
 10
120.5488958935758
 20
946.9948458253682
 10
120.5478162918364
 20
946.9958314514681
 10
120.5468098445279
 20
946.9967727732045
 10
120.5458765516502
 20
946.9976669435995
 10
120.5450164132033
 20
946.9985113600618
 10
120.5442294291873
 20
946.9993036536637
 10
120.5423408417757
 20
947.0012796733037
 10
120.540496617824
 20
947.0033081346254
 10
120.538696757332
 20
947.0053871692016
 10
120.5369412602999
 20
947.0075148249277
 10
120.534869057729
 20
947.0101625569043
 10
120.5337876230343
 20
947.0116121255266
 10
120.5327872790489
 20
947.0130034807192
 10
120.531868025773
 20
947.0143336999031
 10
120.5310298632064
 20
947.015600153038
 10
120.5302727913493
 20
947.0168004818926
 10
120.5295968102015
 20
947.0179325797968
 10
120.5290019197631
 20
947.0189945720791
 10
120.5284881200341
 20
947.0199847973535
 10
120.5255736878253
 20
947.0263343848063
 10
120.5228572715328
 20
947.0329637915085
 10
120.5202008100254
 20
947.0376895804909
 10
120.5176503968519
 20
947.0424820561579
 10
120.5151218085881
 20
947.0475600553397
 10
120.512628669642
 20
947.0529070108419
 10
120.510401566508
 20
947.0580191253805
 10
120.5083085557915
 20
947.0631663717316
 10
120.5063496374925
 20
947.0683436821541
 10
120.504524811611
 20
947.0735459803584
 10
120.5028340781469
 20
947.0787681980109
 10
120.4996704709365
 20
947.089972721392
 10
120.4970818896142
 20
947.1013241248167
 10
120.4950683341802
 20
947.1127803106691
 10
120.4936298046344
 20
947.1242985037665
 10
120.4927663009768
 20
947.1358357871862
 10
120.4924778232074
 20
947.1473496348213
 10
120.4927641013082
 20
947.1587465834058
 10
120.4936248422884
 20
947.1702072750661
 10
120.4950600461479
 20
947.1816894088551
 10
120.4959930716574
 20
947.1874249433469
 10
120.4970697128867
 20
947.1931494413043
 10
120.4982899698359
 20
947.19885735354
 10
120.4996538425049
 20
947.2045431218914
 10
120.5011613308938
 20
947.2102011973648
 10
120.5028124350024
 20
947.2158260584
 10
120.5055539425727
 20
947.2241523000679
 10
120.5086408770298
 20
947.2324001958723
 10
120.5120732383737
 20
947.2405505095249
 10
120.5157068936117
 20
947.248294340661
 10
120.5190375638755
 20
947.2547791227054
 10
120.5225770920999
 20
947.261164384346
 10
120.5235145999744
 20
947.2628708147711
 10
120.5241577508121
 20
947.2647526766973
 10
120.5250324833683
 20
947.2668278881945
 10
120.525952861543
 20
947.2689846931499
 10
120.5264077740391
 20
947.2700257403436
 10
120.5268439931646
 20
947.2710064949479
 10
120.5272615189196
 20
947.2719275150227
 10
120.5276603513039
 20
947.2727893699849
 10
120.5280404903176
 20
947.2735926331122
 10
120.5284019359607
 20
947.2743378744569
 10
120.5293876755756
 20
947.2762949642017
 10
120.5301236000437
 20
947.2776575830271
 10
120.5306097093649
 20
947.2784391218896
 10
120.5312539327422
 20
947.2793427015615
 10
120.5318832355485
 20
947.2802936940691
 10
120.5326447249951
 20
947.2813961256639
 10
120.5335119441556
 20
947.2826123567118
 10
120.5343552717645
 20
947.2837656437233
 10
120.5352082595253
 20
947.2849034620066
 10
120.536070907438
 20
947.2860256302935
 10
120.5389032938401
 20
947.2895093018655
 10
120.5419651709958
 20
947.2929654116073
 10
120.5448372925742
 20
947.2959543827924
 10
120.547236792385
 20
947.2982817491777
 10
120.5500703531599
 20
947.3008705807327
 10
120.5533379748987
 20
947.3036715129801
 10
120.5570396576014
 20
947.3066251229726
 10
120.5611754012682
 20
947.3096613336274
 10
120.564427668376
 20
947.3118691726412
 10
120.5673934387132
 20
947.3137550454856
 10
120.5700727122799
 20
947.3153527531463
 10
120.5724654890759
 20
947.3166944055623
 10
120.5745717691014
 20
947.3178098376596
 10
120.5763915523561
 20
947.3187261806005
 10
120.5779248388404
 20
947.3194675610585
 10
120.5801677970757
 20
947.3205036686531
 10
120.5847257899927
 20
947.3223967355092
 10
120.5889860691105
 20
947.3238722610593
 10
120.5929561119182
 20
947.3249190506738
  0
LWPOLYLINE
  5
E3C
330
1F
100
AcDbEntity
  8
SANINDUSA
100
AcDbPolyline
 90
      102
 70
   128
 43
0.0
 10
120.6144733038124
 20
947.3056729935491
 10
120.6120414147881
 20
947.3048753236966
 10
120.6098660310434
 20
947.3038328022461
 10
120.6077986598686
 20
947.3024428397119
 10
120.6056764283828
 20
947.3005783693631
 10
120.6035935383349
 20
947.2982996251079
 10
120.6012232870736
 20
947.2951318918889
 10
120.598957415604
 20
947.2914660754579
 10
120.5967959239263
 20
947.2873021758148
 10
120.5947388120404
 20
947.2826401929598
 10
120.592965841131
 20
947.2779708858563
 10
120.591353636331
 20
947.2730424865405
 10
120.5899021976402
 20
947.2678549950119
 10
120.5886115250587
 20
947.2624084112709
 10
120.5875617176547
 20
947.2571426449389
 10
120.5866570011811
 20
947.2516873099015
 10
120.5864573612534
 20
947.2503209547083
 10
120.5862701065869
 20
947.2489674672882
 10
120.5860952371816
 20
947.2476268476411
 10
120.5859327530375
 20
947.2462990957671
 10
120.5855829442425
 20
947.2431463424436
 10
120.5854706243813
 20
947.2419525145244
 10
120.5854301105848
 20
947.2414512377506
 10
120.5854137652201
 20
947.24122450866
 10
120.5854065704211
 20
947.2411171214387
 10
120.5854032174925
 20
947.2410649221592
 10
120.5854016021459
 20
947.2410391961021
 10
120.585400809752
 20
947.2410264264693
 10
120.5854004173749
 20
947.2410200650019
 10
120.5854002221413
 20
947.2410168901053
 10
120.5854001247633
 20
947.2410153041165
 10
120.5854000761339
 20
947.2410145114867
 10
120.5854000518342
 20
947.2410141152632
 10
120.585400039688
 20
947.2410139171742
 10
120.5854000336159
 20
947.2410138181354
 10
120.58540003058
 20
947.2410137686173
 10
120.5854000290622
 20
947.2410137438586
 10
120.5854000283033
 20
947.2410137314794
 10
120.5851807910651
 20
947.2390642575835
 10
120.5848549027065
 20
947.2361058819165
 10
120.5846192585728
 20
947.2336637064083
 10
120.5844121388108
 20
947.2311575660997
 10
120.5842221943316
 20
947.2284709728818
 10
120.5840670693891
 20
947.2260057373741
 10
120.5839221136081
 20
947.2235090212944
 10
120.5837394037431
 20
947.2200246348133
 10
120.5835759199491
 20
947.216480730376
 10
120.5834480512224
 20
947.213312055585
 10
120.5833367858402
 20
947.2101479076702
 10
120.5832005373873
 20
947.2054933969729
 10
120.5830909972792
 20
947.2006808869934
 10
120.5830081655161
 20
947.1957103777317
 10
120.582955200074
 20
947.1909431537072
 10
120.5829329290415
 20
947.1871754333339
 10
120.5829253089335
 20
947.1825082543533
 10
120.5829358702126
 20
947.1773535923338
 10
120.5829646128789
 20
947.1717114472752
 10
120.583011717552
 20
947.1651992525792
 10
120.5830538683647
 20
947.1591029728209
 10
120.5830840660246
 20
947.1541008880215
 10
120.5831023105317
 20
947.1501929981812
 10
120.5831086018861
 20
947.1473793032998
 10
120.5831041655613
 20
947.1447231992891
 10
120.5830902580024
 20
947.1410650694927
 10
120.5830668792095
 20
947.1364049139106
 10
120.5830340291825
 20
947.1307427325427
 10
120.5829937642476
 20
947.1243449766703
 10
120.5829658539472
 20
947.1188101511161
 10
120.5829511830747
 20
947.1129050980845
 10
120.5829562293344
 20
947.1076688460218
 10
120.5829809927264
 20
947.103101394928
 10
120.583056092417
 20
947.0969083403392
 10
120.5832316052398
 20
947.0888492949596
 10
120.5834925834956
 20
947.0811003975994
 10
120.5838762751986
 20
947.0729347401944
 10
120.58419750664
 20
947.067492911192
 10
120.5845930986701
 20
947.0620727745872
 10
120.5850445964075
 20
947.0573307306905
 10
120.585178911104
 20
947.0560972835205
 10
120.5853198944113
 20
947.0548673715876
 10
120.585467546329
 20
947.0536409948918
 10
120.5856353139037
 20
947.0517774392105
 10
120.5858350813713
 20
947.0498749100569
 10
120.5859936768345
 20
947.0484657285547
 10
120.5861711570455
 20
947.0470045405951
 10
120.5869295915746
 20
947.0416986834186
 10
120.5874661565744
 20
947.0385307928353
 10
120.5880626679907
 20
947.0353791795602
 10
120.5887191258233
 20
947.0322438435932
 10
120.5897562426216
 20
947.0278260361926
 10
120.5908853544135
 20
947.0236031660258
 10
120.5921064611991
 20
947.0195752330928
 10
120.5934195629784
 20
947.0157422373937
 10
120.5948246597513
 20
947.0121041789282
 10
120.5968747819173
 20
947.007479540859
 10
120.5990384771993
 20
947.0033328841637
 10
120.6013157455972
 20
946.9996642088425
 10
120.603706587111
 20
946.996473514895
 10
120.6062866678253
 20
946.9937143537883
 10
120.6089113025816
 20
946.9916060083264
 10
120.6114897913656
 20
946.9901955651716
 10
120.6144733038124
 20
946.9891651121209
  0
LWPOLYLINE
  5
E3D
330
1F
100
AcDbEntity
  8
SANINDUSA
100
AcDbPolyline
 90
       10
 70
   128
 43
0.0
 10
120.6144733038124
 20
946.9891651121209
 10
120.6140353930924
 20
946.9851755267198
 10
120.6127216609322
 20
946.9813880534882
 10
120.6106403586225
 20
946.9779993019027
 10
120.6093313561259
 20
946.9764837550638
 10
120.6078434527348
 20
946.9750874275273
 10
120.6045862375493
 20
946.972829403238
 10
120.600872249271
 20
946.9711888512259
 10
120.5970166016303
 20
946.9702361910465
 10
120.5929681281086
 20
946.9699181052011
  0
ARC
  5
E3E
330
1F
100
AcDbEntity
  8
SANINDUSA
100
AcDbCircle
 10
120.6244819143451
 20
946.9624104401411
 30
0.0
 40
0.0099913897847933
100
AcDbArc
 50
269.9855558856542
 51
0.0144441167754508
  0
LWPOLYLINE
  5
E44
330
1F
100
AcDbEntity
  8
SANINDUSA
100
AcDbPolyline
 90
        9
 70
   128
 43
0.0
 10
120.592956111918
 20
947.3249188679016
 10
120.5970040373704
 20
947.3246030625555
 10
120.6008518290364
 20
947.3236563205942
 10
120.6045586254456
 20
947.3220241812539
 10
120.6078119836865
 20
947.3197773300761
 10
120.6106191229874
 20
947.3168662257089
 10
120.6127093885916
 20
947.3134758270715
 10
120.6140323250072
 20
947.3096764679601
 10
120.6144733038124
 20
947.3056729935491
  0
ARC
  5
E45
330
1F
100
AcDbEntity
  8
SANINDUSA
100
AcDbCircle
 10
120.6244819143451
 20
947.3324276612064
 30
0.0
 40
0.0099913897847935
100
AcDbArc
 50
359.9855558856542
 51
90.01444411434254
  0
LINE
  5
E47
330
1F
100
AcDbEntity
  8
SANINDUSA
100
AcDbLine
 10
121.6638321241578
 20
947.0997703504353
 30
0.0
 11
121.7537379872634
 21
947.0997703504353
 31
0.0
  0
ARC
  5
E48
330
1F
100
AcDbEntity
  8
SANINDUSA
100
AcDbCircle
 10
121.8772813277147
 20
947.2017703504354
 30
0.0
 40
0.0020000000000003
100
AcDbArc
 50
270.0
 51
357.9999999999964
  0
LINE
  5
E4A
330
1F
100
AcDbEntity
  8
SANINDUSA
100
AcDbLine
 10
121.8693578371212
 20
947.1974605125922
 30
0.0
 11
121.8526092212179
 21
947.1615429898786
 31
0.0
  0
ARC
  5
E4D
330
1F
100
AcDbEntity
  8
SANINDUSA
100
AcDbCircle
 10
121.8729832132398
 20
947.1957703504354
 30
0.0
 40
0.0040000000000011
100
AcDbArc
 50
90.00000000000325
 51
154.9999999999715
  0
LINE
  5
E4E
330
1F
100
AcDbEntity
  8
SANINDUSA
100
AcDbLine
 10
121.8772813277147
 20
947.1997703504355
 30
0.0
 11
121.8692862010986
 21
947.1997703504355
 31
0.0
  0
LINE
  5
E4F
330
1F
100
AcDbEntity
  8
SANINDUSA
100
AcDbLine
 10
121.8804349321965
 20
947.2347703504354
 30
0.0
 11
121.8792801093687
 21
947.201700551442
 31
0.0
  0
LINE
  5
E50
330
1F
100
AcDbEntity
  8
SANINDUSA
100
AcDbLine
 10
121.8704410239263
 20
947.2347703504354
 30
0.0
 11
121.8804349321965
 21
947.2347703504354
 31
0.0
  0
LWPOLYLINE
  5
E5A
330
1F
100
AcDbEntity
  8
SANINDUSA
100
AcDbPolyline
 90
       99
 70
   128
 43
0.0
 10
121.1722175078747
 20
947.1972781855468
 10
121.1707326140268
 20
947.1937673972483
 10
121.1690683990193
 20
947.1901328018789
 10
121.1672115128727
 20
947.1863852133694
 10
121.1651487722928
 20
947.1825370424026
 10
121.1628790797695
 20
947.1786218060024
 10
121.1615064525356
 20
947.1763936177765
 10
121.1598743957585
 20
947.1738652198697
 10
121.1578854046445
 20
947.1709435970787
 10
121.1555076015691
 20
947.1676558739002
 10
121.1527066818817
 20
947.1640357169304
 10
121.1494471315036
 20
947.1601241056095
 10
121.1459604026311
 20
947.156253805654
 10
121.1426053672997
 20
947.1527997871639
 10
121.1394162121123
 20
947.1497361371092
 10
121.1364219409369
 20
947.1470367083567
 10
121.1336468493065
 20
947.1446758931456
 10
121.1297349077235
 20
947.1415605188362
 10
121.1276433996702
 20
947.1399902711405
 10
121.1242952249549
 20
947.13760603571
 10
121.1206405657079
 20
947.1351750955617
 10
121.1168956186354
 20
947.1328582698369
 10
121.1130876617419
 20
947.1306714004013
 10
121.1102911016327
 20
947.1291409179036
 10
121.1074706581128
 20
947.127644677618
 10
121.0978463027513
 20
947.122883912559
 10
121.0882340755106
 20
947.1186365239342
 10
121.0786797734884
 20
947.1148894484558
 10
121.0754831997489
 20
947.1137373658054
 10
121.0722996906394
 20
947.1126393299703
 10
121.0691307802883
 20
947.111594538892
 10
121.0659779610313
 20
947.1106021482254
 10
121.0628426822573
 20
947.1096612738296
 10
121.059726349404
 20
947.1087709942739
 10
121.0566303231006
 20
947.1079303533509
 10
121.0442120737678
 20
947.1049887442099
 10
121.0317126318158
 20
947.1027052205958
 10
121.0191853097009
 20
947.101079309041
 10
121.0066825081562
 20
947.100104930058
 10
120.9942550070077
 20
947.0997706494113
 10
120.9825972094165
 20
947.1000294740164
 10
120.9708879400217
 20
947.1008489798705
 10
120.9591684433691
 20
947.1022363879066
 10
120.9552271570127
 20
947.1028320672372
 10
120.9512911160144
 20
947.103492551969
 10
120.947361949799
 20
947.1042178034466
 10
120.9434412889682
 20
947.1050077285994
 10
120.9395307630332
 20
947.1058621798084
 10
120.9356319981362
 20
947.1067809548848
 10
120.9317466147702
 20
947.1077637971646
 10
120.9246701564407
 20
947.1097290491323
 10
120.9174922459294
 20
947.1119586226221
 10
120.9102300641953
 20
947.1144634196937
 10
120.902901974397
 20
947.1172532388246
 10
120.8955274420248
 20
947.1203366184525
 10
120.8881269330023
 20
947.1237206862893
 10
120.8807217899154
 20
947.1274110178315
 10
120.8767382131563
 20
947.1295274881606
 10
120.8759768036827
 20
947.1299427855591
 10
120.8752218875976
 20
947.1303579979574
 10
120.8741406837066
 20
947.1309587073303
 10
120.8735188535753
 20
947.131307569696
 10
120.8728511452304
 20
947.1316865184995
 10
120.8720046287153
 20
947.1321760258256
 10
120.8712262483269
 20
947.1326337071442
 10
120.8706117494029
 20
947.1329995781744
 10
120.8699116423814
 20
947.1334217697421
 10
120.8692127737834
 20
947.1338490788454
 10
120.8681171506059
 20
947.1345309286185
 10
120.8672595109801
 20
947.1350750059803
 10
120.8664226120565
 20
947.1356148124185
 10
120.8646819620094
 20
947.1367662253438
 10
120.8625870487382
 20
947.1382048024295
 10
120.8603046936365
 20
947.1398403441947
 10
120.8588158403828
 20
947.1409471255142
 10
120.8578708254817
 20
947.1416664969893
 10
120.8566747308025
 20
947.1425962726893
 10
120.8554810954385
 20
947.1435461419329
 10
120.8538585117762
 20
947.1448737095252
 10
120.8517056839796
 20
947.1467023889433
 10
120.8490489696517
 20
947.149070748118
 10
120.846747137848
 20
947.1512290592478
 10
120.844201597706
 20
947.1537394387594
 10
120.8414362074273
 20
947.1566258701431
 10
120.8384796351757
 20
947.1599133804661
 10
120.8350740854976
 20
947.163989691356
 10
120.8322258106905
 20
947.167669871286
 10
120.8298874658937
 20
947.170902192828
 10
120.828014995748
 20
947.1736457175353
 10
120.8273152728929
 20
947.1747098313727
 10
120.8266984092626
 20
947.1756666570993
 10
120.8261615727309
 20
947.176514205914
 10
120.8257022330692
 20
947.1772507757336
 10
120.8253181757867
 20
947.1778749325819
 10
120.8250075135667
 20
947.178385494114
 10
120.8242724716642
 20
947.1796144525548
 10
120.8208849286372
 20
947.185705596091
 10
120.8179840653175
 20
947.1916080739399
 10
120.8155266920128
 20
947.1972773535933
  0
LWPOLYLINE
  5
E5B
330
1F
100
AcDbEntity
  8
SANINDUSA
100
AcDbPolyline
 90
       19
 70
   128
 43
0.0
 10
120.9550011438131
 20
947.0726163555763
 10
120.9390290526647
 20
947.0763732587188
 10
120.9192804526987
 20
947.082145687184
 10
120.8999157963098
 20
947.0890965692579
 10
120.8810424261259
 20
947.0971908772041
 10
120.8698757424462
 20
947.1026398319454
 10
120.8589162010651
 20
947.1084936418774
 10
120.8499012756405
 20
947.1135822025877
 10
120.8410334721086
 20
947.1189661389022
 10
120.8325692835354
 20
947.1248912059094
 10
120.824765202987
 20
947.1316031586972
 10
120.818683153431
 20
947.1382334728065
 10
120.8133627705034
 20
947.1455239244933
 10
120.8089039755959
 20
947.153337207273
 10
120.8053615614563
 20
947.1616052383984
 10
120.8027558924956
 20
947.1702439714892
 10
120.8011358095248
 20
947.1790910251986
 10
120.8004949608914
 20
947.1874857727474
 10
120.8002289661061
 20
947.1959099484221
  0
LINE
  5
E5E
330
1F
100
AcDbEntity
  8
SANINDUSA
100
AcDbLine
 10
121.0279062421903
 20
947.0597703504353
 30
0.0
 11
120.9598376197405
 21
947.0597703504353
 31
0.0
  0
LWPOLYLINE
  5
E61
330
1F
100
AcDbEntity
  8
SANINDUSA
100
AcDbPolyline
 90
        3
 70
   128
 43
0.0
 10
120.9683128679368
 20
947.0922119858746
 10
120.9684214432396
 20
947.0822200183581
 10
120.9684947702261
 20
947.0755667313717
  0
LWPOLYLINE
  5
E64
330
1F
100
AcDbEntity
  8
SANINDUSA
100
AcDbPolyline
 90
        7
 70
   128
 43
0.0
 10
120.9684947702261
 20
947.0755667313717
 10
120.9682479665412
 20
947.0730708550663
 10
120.9675177121532
 20
947.0708980443761
 10
120.9661593123179
 20
947.0688007880335
 10
120.9646143888658
 20
947.0675023842153
 10
120.9628174496564
 20
947.0670380992395
 10
120.9625351618143
 20
947.0670819606098
  0
LWPOLYLINE
  5
E65
330
1F
100
AcDbEntity
  8
SANINDUSA
100
AcDbPolyline
 90
        8
 70
   128
 43
0.0
 10
120.9550011438131
 20
947.0726163555763
 10
120.9553336036893
 20
947.0725061725953
 10
120.9559296697802
 20
947.0722385025483
 10
120.9568171043223
 20
947.071638111667
 10
120.9575079668953
 20
947.0709244095983
 10
120.9580721902608
 20
947.0700321697371
 10
120.9584470495357
 20
947.0689986852292
 10
120.9585717830334
 20
947.0679740614638
  0
LINE
  5
E66
330
1F
100
AcDbEntity
  8
SANINDUSA
100
AcDbLine
 10
120.9585852295659
 20
947.067980404318
 30
0.0
 11
120.9588382289129
 21
947.0607354509386
 31
0.0
  0
ARC
  5
E67
330
1F
100
AcDbEntity
  8
SANINDUSA
100
AcDbCircle
 10
120.9598376197399
 20
947.0607703504354
 30
0.0
 40
0.0009999999999999
100
AcDbArc
 50
182.00000000016
 51
270.0
  0
LWPOLYLINE
  5
E6A
330
1F
100
AcDbEntity
  8
SANINDUSA
100
AcDbPolyline
 90
        5
 70
   128
 43
0.0
 10
120.9625351618143
 20
947.0670819606098
 10
120.9605224854174
 20
947.0675395325958
 10
120.9591836609721
 20
947.067852870639
 10
120.9585926308433
 20
947.0679934788122
 10
120.9586395310974
 20
947.0679823005694
  0
LWPOLYLINE
  5
E6C
330
1F
100
AcDbEntity
  8
SANINDUSA
100
AcDbPolyline
 90
        7
 70
   128
 43
0.0
 10
120.9596097831213
 20
947.1021737551122
 10
120.9609045005514
 20
947.1019079787181
 10
120.9641004005079
 20
947.1004195954501
 10
120.964715633265
 20
947.0999545485383
 10
120.9669962978443
 20
947.0972837651773
 10
120.9679765588153
 20
947.0949369132551
 10
120.9683128679368
 20
947.0922119858746
  0
LINE
  5
E6F
330
1F
100
AcDbEntity
  8
SANINDUSA
100
AcDbLine
 10
121.0289056330173
 20
947.0607354509386
 30
0.0
 11
121.0300788712479
 21
947.0943325980712
 31
0.0
  0
ARC
  5
E70
330
1F
100
AcDbEntity
  8
SANINDUSA
100
AcDbCircle
 10
121.0279062421903
 20
947.0607703504354
 30
0.0
 40
0.0009999999999999
100
AcDbArc
 50
270.0
 51
357.99999999984
  0
LWPOLYLINE
  5
E71
330
1F
100
AcDbEntity
  8
SANINDUSA
100
AcDbPolyline
 90
       16
 70
   128
 43
0.0
 10
121.0300944545542
 20
947.094331369446
 10
121.0300887403661
 20
947.0946730888242
 10
121.030334022099
 20
947.0962826224106
 10
121.0308044517144
 20
947.0977515803825
 10
121.0314539936387
 20
947.0990615937331
 10
121.032237654883
 20
947.1002005426111
 10
121.0331108355092
 20
947.1011628684729
 10
121.0340289323321
 20
947.101949470584
 10
121.0349464124661
 20
947.1025672080459
 10
121.0358129715672
 20
947.1030273485986
 10
121.0365572569464
 20
947.103340793469
 10
121.0370843778792
 20
947.1035214424745
 10
121.0374200001144
 20
947.1036195749155
 10
121.0376106817581
 20
947.1036695892914
 10
121.0377564808614
 20
947.1037049835093
 10
121.0377840966833
 20
947.1037112359383
  0
LINE
  5
E76
330
1F
100
AcDbEntity
  8
SANINDUSA
100
AcDbLine
 10
121.1777231998671
 20
947.1997703504355
 30
0.0
 11
120.8100206620631
 21
947.1997703504355
 31
0.0
  0
LINE
  5
E77
330
1F
100
AcDbEntity
  8
SANINDUSA
100
AcDbLine
 10
120.8088658392353
 20
947.2347703504354
 30
0.0
 11
121.1788780226949
 21
947.2347703504354
 31
0.0
  0
ARC
  5
E7D
330
1F
100
AcDbEntity
  8
SANINDUSA
100
AcDbCircle
 10
120.8020255354469
 20
947.2017703504354
 30
0.0
 40
0.0020000000000002
100
AcDbArc
 50
182.00000000016
 51
270.0
  0
LINE
  5
E7E
330
1F
100
AcDbEntity
  8
SANINDUSA
100
AcDbLine
 10
120.8000941578973
 20
947.1997703504355
 30
0.0
 11
120.8000267537929
 21
947.201700551442
 31
0.0
  0
LINE
  5
E80
330
1F
100
AcDbEntity
  8
SANINDUSA
100
AcDbLine
 10
120.8100206620631
 20
947.1997703504355
 30
0.0
 11
120.8020255354469
 21
947.1997703504355
 31
0.0
  0
ARC
  5
E81
330
1F
100
AcDbEntity
  8
SANINDUSA
100
AcDbCircle
 10
120.8118214330094
 20
947.1957703504354
 30
0.0
 40
0.0039999999999994
100
AcDbArc
 50
22.1456811395051
 51
90.04752668350347
  0
LINE
  5
E82
330
1F
100
AcDbEntity
  8
SANINDUSA
100
AcDbLine
 10
120.8002289661061
 20
947.1959099484221
 30
0.0
 11
120.8000941578973
 21
947.1997703504355
 31
0.0
  0
LINE
  5
E8C
330
1F
100
AcDbEntity
  8
SANINDUSA
100
AcDbLine
 10
120.7988719309651
 20
947.2347703504354
 30
0.0
 11
120.8088658392353
 21
947.2347703504354
 31
0.0
  0
LINE
  5
E8D
330
1F
100
AcDbEntity
  8
SANINDUSA
100
AcDbLine
 10
120.8000267537929
 20
947.201700551442
 30
0.0
 11
120.7988719309651
 21
947.2347703504354
 31
0.0
  0
ARC
  5
E96
330
1F
100
AcDbEntity
  8
SANINDUSA
100
AcDbCircle
 10
121.1857183264833
 20
947.2017703504354
 30
0.0
 40
0.0020000000000002
100
AcDbArc
 50
270.0
 51
357.99999999984
  0
ARC
  5
E98
330
1F
100
AcDbEntity
  8
SANINDUSA
100
AcDbCircle
 10
121.1759224289208
 20
947.1957703504354
 30
0.0
 40
0.0040000000000005
100
AcDbArc
 50
90.00000000000325
 51
157.8910570899858
  0
LINE
  5
E99
330
1F
100
AcDbEntity
  8
SANINDUSA
100
AcDbLine
 10
121.1857183264833
 20
947.1997703504355
 30
0.0
 11
121.1777231998671
 21
947.1997703504355
 31
0.0
  0
LINE
  5
E9A
330
1F
100
AcDbEntity
  8
SANINDUSA
100
AcDbLine
 10
121.1888719309651
 20
947.2347703504354
 30
0.0
 11
121.1877171081373
 21
947.201700551442
 31
0.0
  0
LINE
  5
E9B
330
1F
100
AcDbEntity
  8
SANINDUSA
100
AcDbLine
 10
121.1788780226949
 20
947.2347703504354
 30
0.0
 11
121.1888719309651
 21
947.2347703504354
 31
0.0
  0
LWPOLYLINE
  5
EA8
330
1F
100
AcDbEntity
  8
SANINDUSA
100
AcDbPolyline
 90
       21
 70
   128
 43
0.0
 10
122.2244138211292
 20
947.0780410023051
 10
122.2074334127862
 20
947.0813446784719
 10
122.1906256061654
 20
947.0855357541882
 10
122.174058530054
 20
947.0905953458895
 10
122.1578003132397
 20
947.0965045700115
 10
122.1390355367399
 20
947.1045653032202
 10
122.1208024380981
 20
947.1137656494562
 10
122.1134705372079
 20
947.1177712368254
 10
122.106190377554
 20
947.1219221105101
 10
122.0990954697936
 20
947.1263530822936
 10
122.0923193245844
 20
947.1311989639589
 10
122.0859954525836
 20
947.13659456729
 10
122.0804354257997
 20
947.1424770932271
 10
122.075550944289
 20
947.1489638772903
 10
122.0714338659694
 20
947.1559329285421
 10
122.0681344135811
 20
947.1633242493426
 10
122.0656724379816
 20
947.1710621562468
 10
122.0640942392647
 20
947.1790011296093
 10
122.0634300139496
 20
947.1858974979792
 10
122.063159285429
 20
947.1928319883584
 10
122.0629757926849
 20
947.1997703504355
  0
LWPOLYLINE
  5
EAA
330
1F
100
AcDbEntity
  8
SANINDUSA
100
AcDbPolyline
 90
       17
 70
   128
 43
0.0
 10
122.0807359982729
 20
947.1984943725587
 10
122.0859077146971
 20
947.1879452358303
 10
122.0920784779038
 20
947.1779062628971
 10
122.0991663807753
 20
947.1685153098116
 10
122.1070652400952
 20
947.1598918752011
 10
122.1156497720182
 20
947.1521321305388
 10
122.1247818379068
 20
947.14530565497
 10
122.1343344121158
 20
947.1394435358078
 10
122.1482297204619
 20
947.1323092497602
 10
122.1627817680444
 20
947.1260279530016
 10
122.1779184035811
 20
947.1206784926414
 10
122.1935500617931
 20
947.1163330932665
 10
122.2099268581215
 20
947.1129805182647
 42
-0.1297433886383596
 10
122.2145002170531
 20
947.1107148222456
 10
122.2235381468973
 20
947.1028196198954
 42
-0.2164850643753303
 10
122.2252486893983
 20
947.0990540562773
 10
122.2252486893983
 20
947.0871983390006
  0
LWPOLYLINE
  5
EAB
330
1F
100
AcDbEntity
  8
SANINDUSA
100
AcDbPolyline
 90
       13
 70
   128
 43
0.0
 10
122.204356683203
 20
947.1038186470455
 10
122.1879771137371
 20
947.1074136883423
 10
122.1720170039864
 20
947.1120741930626
 10
122.1565746598074
 20
947.1177374874327
 10
122.1417371880907
 20
947.1243298712685
 10
122.1275666026743
 20
947.1317790012417
 10
122.1175932330564
 20
947.13811421474
 10
122.1080605840687
 20
947.1454383989003
 10
122.0991073845764
 20
947.1537100431927
 10
122.0908700419531
 20
947.1628566026851
 10
122.0834718338262
 20
947.1727800052399
 10
122.0770170848484
 20
947.183359891774
 10
122.071586368709
 20
947.1944583984306
  0
LWPOLYLINE
  5
EAD
330
1F
100
AcDbEntity
  8
SANINDUSA
100
AcDbPolyline
 90
       19
 70
   128
 43
0.0
 10
122.2094905794521
 20
947.0727144619784
 10
122.1904734304184
 20
947.077277683589
 10
122.1717129161751
 20
947.0829414268639
 10
122.1533038765876
 20
947.0896813148691
 10
122.1353377800778
 20
947.0974621835296
 10
122.1179012141481
 20
947.1062386898376
 10
122.1093543693193
 20
947.1110138980359
 10
122.1009715584365
 20
947.1160196445596
 10
122.0927617811412
 20
947.1212476767519
 10
122.0848565986383
 20
947.1269554704525
 10
122.0775565915588
 20
947.1337082005947
 10
122.0710595958237
 20
947.1414351366705
 10
122.0655504475168
 20
947.1499819218285
 10
122.0616875999244
 20
947.1578969636917
 10
122.058734011486
 20
947.1661315716669
 10
122.0567159238796
 20
947.1745309807824
 10
122.0556250368442
 20
947.1829441331792
 10
122.0552647559928
 20
947.1913558834428
 10
122.0549709163305
 20
947.1997703504355
  0
LINE
  5
EAE
330
1F
100
AcDbEntity
  8
SANINDUSA
100
AcDbLine
 10
122.4070026279513
 20
947.2347703504354
 30
0.0
 11
122.0904947465231
 21
947.2347703504354
 31
0.0
  0
LINE
  5
EB3
330
1F
100
AcDbEntity
  8
SANINDUSA
100
AcDbLine
 10
122.0712488721704
 20
947.2347703504354
 30
0.0
 11
122.0904947465231
 21
947.2347703504354
 31
0.0
  0
LWPOLYLINE
  5
EB5
330
1F
100
AcDbEntity
  8
SANINDUSA
100
AcDbPolyline
 90
       11
 70
   128
 43
0.0
 10
122.0694197731304
 20
947.1997703504355
 10
122.0686316664132
 20
947.2018811337775
 10
122.0679657478428
 20
947.2037556497433
 10
122.0673086710781
 20
947.2056965773528
 10
122.0666780597451
 20
947.2076596934828
 10
122.0660931000477
 20
947.2095793076144
 10
122.0655719109235
 20
947.2113846733071
 10
122.0651173748927
 20
947.2130416277876
 10
122.0644421419583
 20
947.2156747310824
 10
122.0640742081158
 20
947.2172119769531
 10
122.0639971514145
 20
947.2175444805637
  0
LWPOLYLINE
  5
EB7
330
1F
100
AcDbEntity
  8
SANINDUSA
100
AcDbPolyline
 90
       14
 70
   128
 43
0.0
 10
122.0734067316854
 20
947.2212866106829
 10
122.0734748719218
 20
947.2209750508064
 10
122.0738144534486
 20
947.2194764100704
 10
122.0744453149144
 20
947.2168963398498
 10
122.0753700099826
 20
947.2134872050682
 10
122.0759298172501
 20
947.2115925259178
 10
122.0765372864192
 20
947.2096514149006
 10
122.0771734555443
 20
947.2077313890306
 10
122.0778207916582
 20
947.2058770156142
 10
122.0784516501037
 20
947.2041564398541
 10
122.0790472315221
 20
947.2025998445365
 10
122.0800352435515
 20
947.2001474105638
 10
122.0806228313881
 20
947.198756849627
 10
122.0807359982729
 20
947.1984943725587
  0
LINE
  5
EB8
330
1F
100
AcDbEntity
  8
SANINDUSA
100
AcDbLine
 10
122.0537486893983
 20
947.2347703504354
 30
0.0
 11
122.0549709163305
 21
947.1997703504355
 31
0.0
  0
LINE
  5
EB9
330
1F
100
AcDbEntity
  8
SANINDUSA
100
AcDbLine
 10
122.0629757926849
 20
947.1997703504355
 30
0.0
 11
122.0622109351771
 21
947.2216730037539
 31
0.0
  0
ARC
  5
EBB
330
1F
100
AcDbEntity
  8
SANINDUSA
100
AcDbCircle
 10
122.0798181714835
 20
947.1980973914703
 30
0.0
 40
0.0010000000000001
100
AcDbArc
 50
23.38958688771203
 51
113.9020504109906
  0
LINE
  5
EBC
330
1F
100
AcDbEntity
  8
SANINDUSA
100
AcDbLine
 10
122.0720988066384
 20
947.195770114664
 30
0.0
 11
122.0794129971791
 21
947.1990116309264
 31
0.0
  0
ARC
  5
EBD
330
1F
100
AcDbEntity
  8
SANINDUSA
100
AcDbCircle
 10
122.0725039809428
 20
947.194855875208
 30
0.0
 40
0.0010000000000001
100
AcDbArc
 50
113.9020504110078
 51
203.4205341179386
  0
LWPOLYLINE
  5
EBF
330
1F
100
AcDbEntity
  8
SANINDUSA
100
AcDbPolyline
 90
        8
 70
   128
 43
0.0
 10
122.071586368709
 20
947.1944583984306
 10
122.0715862648444
 20
947.1944586382123
 10
122.0715123590954
 20
947.1946293366377
 10
122.0713069970352
 20
947.1951080672909
 10
122.0709774015563
 20
947.1958869128329
 10
122.0705406637434
 20
947.1969408914338
 10
122.0700132829383
 20
947.1982489425403
 10
122.0694197731304
 20
947.1997703504355
  0
LINE
  5
EC0
330
1F
100
AcDbEntity
  8
SANINDUSA
100
AcDbLine
 10
122.0712486893983
 20
947.2347703504354
 30
0.0
 11
122.0537486893983
 21
947.2347703504354
 31
0.0
  0
ARC
  5
EC1
330
1F
100
AcDbEntity
  8
SANINDUSA
100
AcDbCircle
 10
122.0724295477335
 20
947.2210742159466
 30
0.0
 40
0.0010000000000002
100
AcDbArc
 50
293.9020504110067
 51
12.26272694612986
  0
LWPOLYLINE
  5
EC2
330
1F
100
AcDbEntity
  8
SANINDUSA
100
AcDbPolyline
 90
        3
 70
   128
 43
0.0
 10
122.0712486893983
 20
947.2347703504354
 10
122.0721350043364
 20
947.2280372027409
 10
122.0734067316854
 20
947.2212866106829
  0
ARC
  5
EC3
330
1F
100
AcDbEntity
  8
SANINDUSA
100
AcDbCircle
 10
122.0627106305906
 20
947.2216904535024
 30
0.0
 40
0.0005
100
AcDbArc
 50
10.6253722146603
 51
182.0000000000036
  0
ARC
  5
EC4
330
1F
100
AcDbEntity
  8
SANINDUSA
100
AcDbCircle
 10
122.0649716213541
 20
947.2177689985739
 30
0.0
 40
0.0010000000000001
100
AcDbArc
 50
192.9745370582479
 51
293.9020504110255
  0
LINE
  5
EC5
330
1F
100
AcDbEntity
  8
SANINDUSA
100
AcDbLine
 10
122.0639971514145
 20
947.2175444805637
 30
0.0
 11
122.0632020574875
 21
947.2217826468046
 31
0.0
  0
LINE
  5
EC6
330
1F
100
AcDbEntity
  8
SANINDUSA
100
AcDbLine
 10
122.0728347220379
 20
947.2201599764904
 30
0.0
 11
122.0653767956585
 21
947.2168547591179
 31
0.0
  0
LINE
  5
ECF
330
1F
100
AcDbEntity
  8
SANINDUSA
100
AcDbLine
 10
122.4437486893983
 20
947.2347703504354
 30
0.0
 11
122.4262486893983
 21
947.2347703504354
 31
0.0
  0
LINE
  5
ED0
330
1F
100
AcDbEntity
  8
SANINDUSA
100
AcDbLine
 10
122.4405950849165
 20
947.1997703504355
 30
0.0
 11
122.430799187354
 21
947.1997703504355
 31
0.0
  0
LWPOLYLINE
  5
ED1
330
1F
100
AcDbEntity
  8
SANINDUSA
100
AcDbPolyline
 90
       13
 70
   128
 43
0.0
 10
122.4270933077649
 20
947.1972758259319
 10
122.4217234711704
 20
947.1856822102679
 10
122.4152411656575
 20
947.1746112991509
 10
122.4077301828196
 20
947.1642191360203
 10
122.3993024078464
 20
947.1546427853228
 10
122.3900923651903
 20
947.1459943928397
 10
122.3802504143821
 20
947.1383570873157
 10
122.3699307761223
 20
947.1317790012417
 10
122.3557601907059
 20
947.1243298712685
 10
122.3409227189892
 20
947.1177374874327
 10
122.3254803748102
 20
947.1120741930626
 10
122.3095202650595
 20
947.1074136883423
 10
122.2931406955936
 20
947.1038186470455
  0
LWPOLYLINE
  5
ED2
330
1F
100
AcDbEntity
  8
SANINDUSA
100
AcDbPolyline
 90
       21
 70
   128
 43
0.0
 10
122.2722486893983
 20
947.0607703504354
 10
122.2722486893983
 20
947.0990540634087
 42
-0.2164850058423358
 10
122.273959231081
 20
947.1028196263121
 10
122.2829971448721
 20
947.1107148182028
 42
-0.1297434596218042
 10
122.2875705060326
 20
947.1129805158046
 10
122.3039473057407
 20
947.1163330905499
 10
122.3195789670064
 20
947.1206784900514
 10
122.334715605472
 20
947.1260279509303
 10
122.3492676558057
 20
947.1323092485661
 10
122.3631629666808
 20
947.1394435358078
 10
122.3723335632467
 20
947.1450477554308
 10
122.3811213220872
 20
947.1515396207241
 10
122.3894159628575
 20
947.1588944486995
 10
122.3970946820207
 20
947.1670533095187
 10
122.4040448788056
 20
947.1759345102594
 10
122.4101693197247
 20
947.1854360333011
 10
122.4151175815741
 20
947.1948564407027
 10
122.4192164714309
 20
947.2046140736837
 10
122.4224393244792
 20
947.2145949180188
 10
122.4247793207665
 20
947.2246841733616
 10
122.4262486893983
 20
947.2347703504354
  0
LINE
  5
ED7
330
1F
100
AcDbEntity
  8
SANINDUSA
100
AcDbLine
 10
122.2849556296811
 20
947.0943325980712
 30
0.0
 11
122.2837823914505
 21
947.0607354509386
 31
0.0
  0
LINE
  5
ED8
330
1F
100
AcDbEntity
  8
SANINDUSA
100
AcDbLine
 10
122.212749651842
 20
947.0883790429363
 30
0.0
 11
122.2125417491155
 21
947.0943325980712
 31
0.0
  0
LINE
  5
EDC
330
1F
100
AcDbEntity
  8
SANINDUSA
100
AcDbLine
 10
122.2732486893983
 20
947.0597703504353
 30
0.0
 11
122.2242486893983
 21
947.0597703504353
 31
0.0
  0
ARC
  5
EDE
330
1F
100
AcDbEntity
  8
SANINDUSA
100
AcDbCircle
 10
122.2242486893983
 20
947.0607703504354
 30
0.0
 40
0.0010000000000001
100
AcDbArc
 50
270.0
 51
0.0
  0
LINE
  5
EDF
330
1F
100
AcDbEntity
  8
SANINDUSA
100
AcDbLine
 10
122.2252486893983
 20
947.077054730785
 30
0.0
 11
122.2252486893983
 21
947.0607703504354
 31
0.0
  0
ARC
  5
EE0
330
1F
100
AcDbEntity
  8
SANINDUSA
100
AcDbCircle
 10
122.2242486893983
 20
947.077054730785
 30
0.0
 40
0.001
100
AcDbArc
 50
0.0
 51
80.49511293474745
  0
LINE
  5
EEB
330
1F
100
AcDbEntity
  8
SANINDUSA
100
AcDbLine
 10
122.2240784350731
 20
947.0862129388459
 30
0.0
 11
122.212749651842
 21
947.0883790429363
 31
0.0
  0
ARC
  5
EEC
330
1F
100
AcDbEntity
  8
SANINDUSA
100
AcDbCircle
 10
122.2242486893983
 20
947.0871983390006
 30
0.0
 40
0.0010000000000001
100
AcDbArc
 50
260.1973936158868
 51
0.0
  0
ARC
  5
EF3
330
1F
100
AcDbEntity
  8
SANINDUSA
100
AcDbCircle
 10
122.2084645111295
 20
947.0678208759929
 30
0.0
 40
0.0050000000000001
100
AcDbArc
 50
1.99999999999713
 51
78.15799295108006
  0
ARC
  5
EF4
330
1F
100
AcDbEntity
  8
SANINDUSA
100
AcDbCircle
 10
122.2147143781731
 20
947.0607703504354
 30
0.0
 40
0.0010000000000001
100
AcDbArc
 50
182.0000000003947
 51
270.0
  0
LINE
  5
EF5
330
1F
100
AcDbEntity
  8
SANINDUSA
100
AcDbLine
 10
122.2242486893983
 20
947.0597703504353
 30
0.0
 11
122.2147143781731
 21
947.0597703504353
 31
0.0
  0
LINE
  5
EF6
330
1F
100
AcDbEntity
  8
SANINDUSA
100
AcDbLine
 10
122.2137149873461
 20
947.0607354509386
 30
0.0
 11
122.2134614652646
 21
947.0679953734766
 31
0.0
  0
ARC
  5
EF7
330
1F
100
AcDbEntity
  8
SANINDUSA
100
AcDbCircle
 10
122.2827830006235
 20
947.0607703504354
 30
0.0
 40
0.0010000000000001
100
AcDbArc
 50
270.0
 51
358.0000000000029
  0
LINE
  5
EF8
330
1F
100
AcDbEntity
  8
SANINDUSA
100
AcDbLine
 10
122.2827830006235
 20
947.0597703504353
 30
0.0
 11
122.2732486893983
 21
947.0597703504353
 31
0.0
  0
ARC
  5
EF9
330
1F
100
AcDbEntity
  8
SANINDUSA
100
AcDbCircle
 10
122.2732486893983
 20
947.0607703504354
 30
0.0
 40
0.0010000000000001
100
AcDbArc
 50
180.0
 51
270.0
  0
LWPOLYLINE
  5
EFD
330
1F
100
AcDbEntity
  8
SANINDUSA
100
AcDbPolyline
 90
       20
 70
   128
 43
0.0
 10
122.2097622970663
 20
947.1130209207048
 10
122.2099995164179
 20
947.1129809106539
 10
122.2112424148018
 20
947.1127772791168
 10
122.2136493082923
 20
947.1124012855147
 10
122.2170562626991
 20
947.1119133644226
 10
122.2212494482325
 20
947.1113821923465
 10
122.2262301716376
 20
947.1108498171053
 10
122.2317172400186
 20
947.1103880651943
 10
122.237702056537
 20
947.1100296679782
 10
122.2440093106582
 20
947.1098193673601
 10
122.2504616584841
 20
947.109776582581
 10
122.2570083177203
 20
947.109916619129
 10
122.26329294257
 20
947.11022005848
 10
122.2692820416344
 20
947.1106682845315
 10
122.2746250047233
 20
947.1111967966875
 10
122.2792634391413
 20
947.1117564026817
 10
122.2829802795528
 20
947.1122724293666
 10
122.2857108917931
 20
947.1126896209391
 10
122.2873712013821
 20
947.1129601700052
 10
122.2878054876021
 20
947.1130329265747
  0
ARC
  5
EFE
330
1F
100
AcDbEntity
  8
SANINDUSA
100
AcDbCircle
 10
122.2025478408453
 20
947.0939836031043
 30
0.0
 40
0.0100000000000002
100
AcDbArc
 50
1.99999999999713
 51
79.57873173469626
  0
ARC
  5
EFF
330
1F
100
AcDbEntity
  8
SANINDUSA
100
AcDbCircle
 10
122.2949495379513
 20
947.0939836031043
 30
0.0
 40
0.0100000000000002
100
AcDbArc
 50
100.421268265302
 51
178.0000000000028
  0
ARC
  5
F03
330
1F
100
AcDbEntity
  8
SANINDUSA
100
AcDbCircle
 10
122.430799187354
 20
947.1957703504354
 30
0.0
 40
0.0040000000000001
100
AcDbArc
 50
90.0
 51
157.8910570899924
  0
ARC
  5
F04
330
1F
100
AcDbEntity
  8
SANINDUSA
100
AcDbCircle
 10
122.4324243201917
 20
947.2113467832178
 30
0.0
 40
0.0005
100
AcDbArc
 50
357.9999999999964
 51
162.1045321468134
  0
LWPOLYLINE
  5
F05
330
1F
100
AcDbEntity
  8
SANINDUSA
100
AcDbPolyline
 90
        6
 70
   128
 43
0.0
 10
122.4329240156052
 20
947.2113293334695
 10
122.4328864257441
 20
947.2102529006869
 42
-0.4040262258351577
 10
122.4323867303306
 20
947.2097703504354
 10
122.4320767359034
 20
947.2097703504354
 42
-0.5089510625099388
 10
122.4316009265469
 20
947.2104239911079
 10
122.4319485108352
 20
947.2115004238903
  0
LINE
  5
F06
330
1F
100
AcDbEntity
  8
SANINDUSA
100
AcDbLine
 10
122.4070026279513
 20
947.2347703504354
 30
0.0
 11
122.426249634871
 21
947.2347703504354
 31
0.0
  0
LINE
  5
F07
330
1F
100
AcDbEntity
  8
SANINDUSA
100
AcDbLine
 10
122.4425938665705
 20
947.201700551442
 30
0.0
 11
122.4437486893983
 21
947.2347703504354
 31
0.0
  0
ARC
  5
F0A
330
1F
100
AcDbEntity
  8
SANINDUSA
100
AcDbCircle
 10
122.4405950849165
 20
947.2017703504354
 30
0.0
 40
0.002
100
AcDbArc
 50
270.0
 51
357.9999999999572
  0
ENDSEC
  0
SECTION
  2
OBJECTS
  0
DICTIONARY
  5
C
330
0
100
AcDbDictionary
281
     1
  3
ACAD_COLOR
350
1091
  3
ACAD_GROUP
350
D
  3
ACAD_LAYOUT
350
1A
  3
ACAD_MATERIAL
350
1064
  3
ACAD_MLEADERSTYLE
350
10A6
  3
ACAD_MLINESTYLE
350
17
  3
ACAD_PLOTSETTINGS
350
19
  3
ACAD_PLOTSTYLENAME
350
E
  3
ACAD_SCALELIST
350
1094
  3
ACAD_TABLESTYLE
350
1092
  3
ACAD_VISUALSTYLE
350
107D
  3
ACDB_RECOMPOSE_DATA
350
10D3
  3
AcDbVariableDictionary
350
3D
  3
ASE_INDEX_DICTIONARY
350
105F
  3
DWGPROPS
350
10D4
  0
DICTIONARY
  5
10AD
330
10
100
AcDbDictionary
280
     1
281
     1
  3
ADSK_XREC_LAYER_RECONCILED
360
10AE
  0
DICTIONARY
  5
10AF
330
2F
100
AcDbDictionary
280
     1
281
     1
  3
ADSK_XREC_LAYER_RECONCILED
360
10B0
  0
DICTIONARY
  5
10B1
330
30
100
AcDbDictionary
280
     1
281
     1
  3
ADSK_XREC_LAYER_RECONCILED
360
10B2
  0
DICTIONARY
  5
10B3
330
31
100
AcDbDictionary
280
     1
281
     1
  3
ADSK_XREC_LAYER_RECONCILED
360
10B4
  0
DICTIONARY
  5
10B5
330
32
100
AcDbDictionary
280
     1
281
     1
  3
ADSK_XREC_LAYER_RECONCILED
360
10B6
  0
DICTIONARY
  5
10B7
330
33
100
AcDbDictionary
280
     1
281
     1
  3
ADSK_XREC_LAYER_RECONCILED
360
10B8
  0
DICTIONARY
  5
10B9
330
34
100
AcDbDictionary
280
     1
281
     1
  3
ADSK_XREC_LAYER_RECONCILED
360
10BA
  0
DICTIONARY
  5
10BB
330
35
100
AcDbDictionary
280
     1
281
     1
  3
ADSK_XREC_LAYER_RECONCILED
360
10BC
  0
DICTIONARY
  5
10BD
330
36
100
AcDbDictionary
280
     1
281
     1
  3
ADSK_XREC_LAYER_RECONCILED
360
10BE
  0
DICTIONARY
  5
10BF
330
37
100
AcDbDictionary
280
     1
281
     1
  3
ADSK_XREC_LAYER_RECONCILED
360
10C0
  0
DICTIONARY
  5
10C1
330
5D6
100
AcDbDictionary
280
     1
281
     1
  3
ADSK_XREC_LAYER_RECONCILED
360
10C2
  0
DICTIONARY
  5
10C3
330
8AF
100
AcDbDictionary
280
     1
281
     1
  3
ADSK_XREC_LAYER_RECONCILED
360
10C4
  0
DICTIONARY
  5
10C5
330
8F8
100
AcDbDictionary
280
     1
281
     1
  3
ADSK_XREC_LAYER_RECONCILED
360
10C6
  0
DICTIONARY
  5
10C7
330
91D
100
AcDbDictionary
280
     1
281
     1
  3
ADSK_XREC_LAYER_RECONCILED
360
10C8
  0
DICTIONARY
  5
10C9
330
BA5
100
AcDbDictionary
280
     1
281
     1
  3
ADSK_XREC_LAYER_RECONCILED
360
10CA
  0
DICTIONARY
  5
1091
102
{ACAD_REACTORS
330
C
102
}
330
C
100
AcDbDictionary
281
     1
  0
DICTIONARY
  5
D
102
{ACAD_REACTORS
330
C
102
}
330
C
100
AcDbDictionary
281
     1
  0
DICTIONARY
  5
1A
102
{ACAD_REACTORS
330
C
102
}
330
C
100
AcDbDictionary
281
     1
  3
Layout1
350
1E
  3
Layout2
350
26
  3
Model
350
22
  0
DICTIONARY
  5
1064
102
{ACAD_REACTORS
330
C
102
}
330
C
100
AcDbDictionary
281
     1
  3
ByBlock
350
106D
  3
ByLayer
350
1065
  3
Global
350
1075
  0
DICTIONARY
  5
10A6
102
{ACAD_REACTORS
330
C
102
}
330
C
100
AcDbDictionary
281
     1
  3
Standard
350
10A7
  0
DICTIONARY
  5
17
102
{ACAD_REACTORS
330
C
102
}
330
C
100
AcDbDictionary
281
     1
  3
Standard
350
18
  0
DICTIONARY
  5
19
102
{ACAD_REACTORS
330
C
102
}
330
C
100
AcDbDictionary
281
     1
  0
ACDBDICTIONARYWDFLT
  5
E
102
{ACAD_REACTORS
330
C
102
}
330
C
100
AcDbDictionary
281
     1
  3
Normal
350
F
100
AcDbDictionaryWithDefault
340
F
  0
DICTIONARY
  5
1094
102
{ACAD_REACTORS
330
C
102
}
330
C
100
AcDbDictionary
281
     1
  3
A0
350
1095
  3
A1
350
1096
  3
A2
350
1097
  3
A3
350
1098
  3
A4
350
1099
  3
A5
350
109A
  3
A6
350
109B
  3
A7
350
109C
  3
A8
350
109D
  3
A9
350
109E
  3
B0
350
109F
  3
B1
350
10A0
  3
B2
350
10A1
  3
B3
350
10A2
  3
B4
350
10A3
  3
B5
350
10A4
  3
B6
350
10A5
  0
DICTIONARY
  5
1092
102
{ACAD_REACTORS
330
C
102
}
330
C
100
AcDbDictionary
281
     1
  3
Standard
350
1093
  0
DICTIONARY
  5
107D
102
{ACAD_REACTORS
330
C
102
}
330
C
100
AcDbDictionary
281
     1
  3
2dWireframe
350
1083
  3
3D Hidden
350
1085
  3
3dWireframe
350
1084
  3
Basic
350
1082
  3
Brighten
350
1089
  3
ColorChange
350
108D
  3
Conceptual
350
1086
  3
Dim
350
1088
  3
EdgeColorOff
350
1090
  3
Facepattern
350
108C
  3
Flat
350
107E
  3
FlatWithEdges
350
107F
  3
Gouraud
350
1080
  3
GouraudWithEdges
350
1081
  3
JitterOff
350
108E
  3
Linepattern
350
108B
  3
OverhangOff
350
108F
  3
Realistic
350
1087
  3
Thicken
350
108A
  0
XRECORD
  5
10D3
102
{ACAD_REACTORS
330
C
102
}
330
C
100
AcDbXrecord
280
     1
 90
        1
330
1093
  0
DICTIONARY
  5
3D
102
{ACAD_REACTORS
330
C
102
}
330
C
100
AcDbDictionary
281
     1
  3
CANNOSCALE
350
10CD
  3
CMLEADERSTYLE
350
10CC
  3
CTABLESTYLE
350
10CB
  3
DIMASSOC
350
3F
  3
HIDETEXT
350
3E
  3
INDEXCTL
350
10CF
  3
SORTENTS
350
10CE
  3
XCLIPFRAME
350
10D0
  0
DICTIONARY
  5
105F
102
{ACAD_REACTORS
330
C
102
}
330
C
100
AcDbDictionary
281
     1
  3
ASEBlockHierarchyIndexRecord
350
1060
1001
DCO15
1040
1529389989.046
  0
XRECORD
  5
10D4
102
{ACAD_REACTORS
330
C
102
}
330
C
100
AcDbXrecord
280
     1
  1
DWGPROPS COOKIE
  2

  3

  4

  6

  7

  8
Julio
  9

300
=
301
=
302
=
303
=
304
=
305
=
306
=
307
=
308
=
309
=
 40
0.0025289236111111
 41
2453504.482526945
 42
2456142.459325266
  1

 90
        0
  0
XRECORD
  5
10AE
102
{ACAD_REACTORS
330
10AD
102
}
330
10AD
100
AcDbXrecord
280
     1
290
     1
  0
XRECORD
  5
10B0
102
{ACAD_REACTORS
330
10AF
102
}
330
10AF
100
AcDbXrecord
280
     1
290
     1
  0
XRECORD
  5
10B2
102
{ACAD_REACTORS
330
10B1
102
}
330
10B1
100
AcDbXrecord
280
     1
290
     1
  0
XRECORD
  5
10B4
102
{ACAD_REACTORS
330
10B3
102
}
330
10B3
100
AcDbXrecord
280
     1
290
     1
  0
XRECORD
  5
10B6
102
{ACAD_REACTORS
330
10B5
102
}
330
10B5
100
AcDbXrecord
280
     1
290
     1
  0
XRECORD
  5
10B8
102
{ACAD_REACTORS
330
10B7
102
}
330
10B7
100
AcDbXrecord
280
     1
290
     1
  0
XRECORD
  5
10BA
102
{ACAD_REACTORS
330
10B9
102
}
330
10B9
100
AcDbXrecord
280
     1
290
     1
  0
XRECORD
  5
10BC
102
{ACAD_REACTORS
330
10BB
102
}
330
10BB
100
AcDbXrecord
280
     1
290
     1
  0
XRECORD
  5
10BE
102
{ACAD_REACTORS
330
10BD
102
}
330
10BD
100
AcDbXrecord
280
     1
290
     1
  0
XRECORD
  5
10C0
102
{ACAD_REACTORS
330
10BF
102
}
330
10BF
100
AcDbXrecord
280
     1
290
     1
  0
XRECORD
  5
10C2
102
{ACAD_REACTORS
330
10C1
102
}
330
10C1
100
AcDbXrecord
280
     1
290
     1
  0
XRECORD
  5
10C4
102
{ACAD_REACTORS
330
10C3
102
}
330
10C3
100
AcDbXrecord
280
     1
290
     1
  0
XRECORD
  5
10C6
102
{ACAD_REACTORS
330
10C5
102
}
330
10C5
100
AcDbXrecord
280
     1
290
     1
  0
XRECORD
  5
10C8
102
{ACAD_REACTORS
330
10C7
102
}
330
10C7
100
AcDbXrecord
280
     1
290
     1
  0
XRECORD
  5
10CA
102
{ACAD_REACTORS
330
10C9
102
}
330
10C9
100
AcDbXrecord
280
     1
290
     1
  0
LAYOUT
  5
1E
102
{ACAD_XDICTIONARY
360
10D5
102
}
102
{ACAD_REACTORS
330
1A
102
}
330
1A
100
AcDbPlotSettings
  1

  2
Ploter HP500
  4

  6

 40
0.0
 41
0.0
 42
0.0
 43
0.0
 44
0.0
 45
0.0
 46
0.0
 47
0.0
 48
0.0
 49
0.0
140
0.0
141
0.0
142
1.0
143
1.0
 70
   688
 72
     0
 73
     0
 74
     5
  7
monochrome.ctb
 75
    16
147
1.0
148
0.0
149
0.0
100
AcDbLayout
  1
Layout1
 70
     1
 71
     1
 10
0.0
 20
0.0
 11
420.0
 21
297.0
 12
0.0
 22
0.0
 32
0.0
 14
1.000000000000000E+20
 24
1.000000000000000E+20
 34
1.000000000000000E+20
 15
-1.000000000000000E+20
 25
-1.000000000000000E+20
 35
-1.000000000000000E+20
146
0.0
 13
0.0
 23
0.0
 33
0.0
 16
1.0
 26
0.0
 36
0.0
 17
0.0
 27
1.0
 37
0.0
 76
     0
330
1B
  0
LAYOUT
  5
26
102
{ACAD_XDICTIONARY
360
10D9
102
}
102
{ACAD_REACTORS
330
1A
102
}
330
1A
100
AcDbPlotSettings
  1

  2
Ploter HP500
  4

  6

 40
0.0
 41
0.0
 42
0.0
 43
0.0
 44
0.0
 45
0.0
 46
0.0
 47
0.0
 48
0.0
 49
0.0
140
0.0
141
0.0
142
1.0
143
1.0
 70
   688
 72
     0
 73
     0
 74
     5
  7
monochrome.ctb
 75
    16
147
1.0
148
0.0
149
0.0
100
AcDbLayout
  1
Layout2
 70
     1
 71
     2
 10
0.0
 20
0.0
 11
12.0
 21
9.0
 12
0.0
 22
0.0
 32
0.0
 14
0.0
 24
0.0
 34
0.0
 15
0.0
 25
0.0
 35
0.0
146
0.0
 13
0.0
 23
0.0
 33
0.0
 16
1.0
 26
0.0
 36
0.0
 17
0.0
 27
1.0
 37
0.0
 76
     0
330
23
  0
LAYOUT
  5
22
102
{ACAD_XDICTIONARY
360
10D7
102
}
102
{ACAD_REACTORS
330
1A
102
}
330
1A
100
AcDbPlotSettings
  1

  2
Ploter HP500
  4
User268
  6

 40
4.995333194732666
 41
16.97565841674804
 42
4.995330810546875
 43
16.97567749023437
 44
209.9733276367187
 45
296.9259948730469
 46
0.0
 47
0.0
 48
0.0
 49
0.0
140
0.0
141
0.0
142
1.0
143
1.0
 70
 11952
 72
     1
 73
     1
 74
     0
  7

 75
     0
147
1.0
148
-427.5957866592534
149
7.362384574453926
100
AcDbLayout
  1
Model
 70
     1
 71
     0
 10
0.0
 20
0.0
 11
12.0
 21
9.0
 12
0.0
 22
0.0
 32
0.0
 14
0.0
 24
0.0
 34
0.0
 15
0.0
 25
0.0
 35
0.0
146
0.0
 13
0.0
 23
0.0
 33
0.0
 16
1.0
 26
0.0
 36
0.0
 17
0.0
 27
1.0
 37
0.0
 76
     0
330
1F
331
1062
  0
MATERIAL
  5
106D
102
{ACAD_XDICTIONARY
360
106E
102
}
102
{ACAD_REACTORS
330
1064
102
}
330
1064
100
AcDbMaterial
  1
ByBlock
 72
     0
 43
0.0008202099737533
 43
0.0
 43
0.0
 43
0.0
 43
0.0
 43
0.0008202099737533
 43
0.0
 43
0.0
 43
0.0
 43
0.0
 43
1.0
 43
0.0
 43
0.0
 43
0.0
 43
0.0
 43
1.0
 77
     0
 47
0.0008202099737533
 47
0.0
 47
0.0
 47
0.0
 47
0.0
 47
0.0008202099737533
 47
0.0
 47
0.0
 47
0.0
 47
0.0
 47
1.0
 47
0.0
 47
0.0
 47
0.0
 47
0.0
 47
1.0
171
     0
 49
0.0008202099737533
 49
0.0
 49
0.0
 49
0.0
 49
0.0
 49
0.0008202099737533
 49
0.0
 49
0.0
 49
0.0
 49
0.0
 49
1.0
 49
0.0
 49
0.0
 49
0.0
 49
0.0
 49
1.0
175
     0
142
0.0008202099737533
142
0.0
142
0.0
142
0.0
142
0.0
142
0.0008202099737533
142
0.0
142
0.0
142
0.0
142
0.0
142
1.0
142
0.0
142
0.0
142
0.0
142
0.0
142
1.0
179
     0
144
0.0008202099737533
144
0.0
144
0.0
144
0.0
144
0.0
144
0.0008202099737533
144
0.0
144
0.0
144
0.0
144
0.0
144
1.0
144
0.0
144
0.0
144
0.0
144
0.0
144
1.0
147
0.0008202099737533
147
0.0
147
0.0
147
0.0
147
0.0
147
0.0008202099737533
147
0.0
147
0.0
147
0.0
147
0.0
147
1.0
147
0.0
147
0.0
147
0.0
147
0.0
147
1.0
  0
MATERIAL
  5
1065
102
{ACAD_XDICTIONARY
360
1066
102
}
102
{ACAD_REACTORS
330
1064
102
}
330
1064
100
AcDbMaterial
  1
ByLayer
 72
     0
 43
0.0008202099737533
 43
0.0
 43
0.0
 43
0.0
 43
0.0
 43
0.0008202099737533
 43
0.0
 43
0.0
 43
0.0
 43
0.0
 43
1.0
 43
0.0
 43
0.0
 43
0.0
 43
0.0
 43
1.0
 77
     0
 47
0.0008202099737533
 47
0.0
 47
0.0
 47
0.0
 47
0.0
 47
0.0008202099737533
 47
0.0
 47
0.0
 47
0.0
 47
0.0
 47
1.0
 47
0.0
 47
0.0
 47
0.0
 47
0.0
 47
1.0
171
     0
 49
0.0008202099737533
 49
0.0
 49
0.0
 49
0.0
 49
0.0
 49
0.0008202099737533
 49
0.0
 49
0.0
 49
0.0
 49
0.0
 49
1.0
 49
0.0
 49
0.0
 49
0.0
 49
0.0
 49
1.0
175
     0
142
0.0008202099737533
142
0.0
142
0.0
142
0.0
142
0.0
142
0.0008202099737533
142
0.0
142
0.0
142
0.0
142
0.0
142
1.0
142
0.0
142
0.0
142
0.0
142
0.0
142
1.0
179
     0
144
0.0008202099737533
144
0.0
144
0.0
144
0.0
144
0.0
144
0.0008202099737533
144
0.0
144
0.0
144
0.0
144
0.0
144
1.0
144
0.0
144
0.0
144
0.0
144
0.0
144
1.0
147
0.0008202099737533
147
0.0
147
0.0
147
0.0
147
0.0
147
0.0008202099737533
147
0.0
147
0.0
147
0.0
147
0.0
147
1.0
147
0.0
147
0.0
147
0.0
147
0.0
147
1.0
  0
MATERIAL
  5
1075
102
{ACAD_XDICTIONARY
360
1076
102
}
102
{ACAD_REACTORS
330
1064
102
}
330
1064
100
AcDbMaterial
  1
Global
 72
     0
 43
0.0008202099737533
 43
0.0
 43
0.0
 43
0.0
 43
0.0
 43
0.0008202099737533
 43
0.0
 43
0.0
 43
0.0
 43
0.0
 43
1.0
 43
0.0
 43
0.0
 43
0.0
 43
0.0
 43
1.0
 77
     0
 47
0.0008202099737533
 47
0.0
 47
0.0
 47
0.0
 47
0.0
 47
0.0008202099737533
 47
0.0
 47
0.0
 47
0.0
 47
0.0
 47
1.0
 47
0.0
 47
0.0
 47
0.0
 47
0.0
 47
1.0
171
     0
 49
0.0008202099737533
 49
0.0
 49
0.0
 49
0.0
 49
0.0
 49
0.0008202099737533
 49
0.0
 49
0.0
 49
0.0
 49
0.0
 49
1.0
 49
0.0
 49
0.0
 49
0.0
 49
0.0
 49
1.0
175
     0
142
0.0008202099737533
142
0.0
142
0.0
142
0.0
142
0.0
142
0.0008202099737533
142
0.0
142
0.0
142
0.0
142
0.0
142
1.0
142
0.0
142
0.0
142
0.0
142
0.0
142
1.0
179
     0
144
0.0008202099737533
144
0.0
144
0.0
144
0.0
144
0.0
144
0.0008202099737533
144
0.0
144
0.0
144
0.0
144
0.0
144
1.0
144
0.0
144
0.0
144
0.0
144
0.0
144
1.0
147
0.0008202099737533
147
0.0
147
0.0
147
0.0
147
0.0
147
0.0008202099737533
147
0.0
147
0.0
147
0.0
147
0.0
147
1.0
147
0.0
147
0.0
147
0.0
147
0.0
147
1.0
  0
MLEADERSTYLE
  5
10A7
102
{ACAD_REACTORS
330
10A6
102
}
330
10A6
100
AcDbMLeaderStyle
170
     2
171
     1
172
     0
 90
        2
 40
0.0
 41
0.0
173
     1
 91
-1056964608
340
14
 92
       -2
290
     1
 42
2.0
291
     1
 43
0.36
  3
Standard
 44
4.0
300

342
11
174
     1
178
     6
175
     1
176
     0
 93
-1056964608
 45
4.0
292
     0
297
     0
 46
4.0
 94
-1056964608
 47
1.0
 49
1.0
140
1.0
293
     1
141
0.0
294
     1
177
     0
142
1.0
295
     0
296
     0
143
0.125
1001
ACAD_MLEADERVER
1070
     2
  0
MLINESTYLE
  5
18
102
{ACAD_REACTORS
330
17
102
}
330
17
100
AcDbMlineStyle
  2
STANDARD
 70
     0
  3

 62
   256
 51
90.0
 52
90.0
 71
     2
 49
0.5
 62
   256
  6
BYLAYER
 49
-0.5
 62
   256
  6
BYLAYER
  0
ACDBPLACEHOLDER
  5
F
102
{ACAD_REACTORS
330
E
102
}
330
E
  0
SCALE
  5
1095
102
{ACAD_REACTORS
330
1094
102
}
330
1094
100
AcDbScale
 70
     0
300
1:1
140
1.0
141
1.0
290
     1
  0
SCALE
  5
1096
102
{ACAD_REACTORS
330
1094
102
}
330
1094
100
AcDbScale
 70
     0
300
1:2
140
1.0
141
2.0
290
     0
  0
SCALE
  5
1097
102
{ACAD_REACTORS
330
1094
102
}
330
1094
100
AcDbScale
 70
     0
300
1:4
140
1.0
141
4.0
290
     0
  0
SCALE
  5
1098
102
{ACAD_REACTORS
330
1094
102
}
330
1094
100
AcDbScale
 70
     0
300
1:5
140
1.0
141
5.0
290
     0
  0
SCALE
  5
1099
102
{ACAD_REACTORS
330
1094
102
}
330
1094
100
AcDbScale
 70
     0
300
1:8
140
1.0
141
8.0
290
     0
  0
SCALE
  5
109A
102
{ACAD_REACTORS
330
1094
102
}
330
1094
100
AcDbScale
 70
     0
300
1:10
140
1.0
141
10.0
290
     0
  0
SCALE
  5
109B
102
{ACAD_REACTORS
330
1094
102
}
330
1094
100
AcDbScale
 70
     0
300
1:16
140
1.0
141
16.0
290
     0
  0
SCALE
  5
109C
102
{ACAD_REACTORS
330
1094
102
}
330
1094
100
AcDbScale
 70
     0
300
1:20
140
1.0
141
20.0
290
     0
  0
SCALE
  5
109D
102
{ACAD_REACTORS
330
1094
102
}
330
1094
100
AcDbScale
 70
     0
300
1:30
140
1.0
141
30.0
290
     0
  0
SCALE
  5
109E
102
{ACAD_REACTORS
330
1094
102
}
330
1094
100
AcDbScale
 70
     0
300
1:40
140
1.0
141
40.0
290
     0
  0
SCALE
  5
109F
102
{ACAD_REACTORS
330
1094
102
}
330
1094
100
AcDbScale
 70
     0
300
1:50
140
1.0
141
50.0
290
     0
  0
SCALE
  5
10A0
102
{ACAD_REACTORS
330
1094
102
}
330
1094
100
AcDbScale
 70
     0
300
1:100
140
1.0
141
100.0
290
     0
  0
SCALE
  5
10A1
102
{ACAD_REACTORS
330
1094
102
}
330
1094
100
AcDbScale
 70
     0
300
2:1
140
2.0
141
1.0
290
     0
  0
SCALE
  5
10A2
102
{ACAD_REACTORS
330
1094
102
}
330
1094
100
AcDbScale
 70
     0
300
4:1
140
4.0
141
1.0
290
     0
  0
SCALE
  5
10A3
102
{ACAD_REACTORS
330
1094
102
}
330
1094
100
AcDbScale
 70
     0
300
8:1
140
8.0
141
1.0
290
     0
  0
SCALE
  5
10A4
102
{ACAD_REACTORS
330
1094
102
}
330
1094
100
AcDbScale
 70
     0
300
10:1
140
10.0
141
1.0
290
     0
  0
SCALE
  5
10A5
102
{ACAD_REACTORS
330
1094
102
}
330
1094
100
AcDbScale
 70
     0
300
100:1
140
100.0
141
1.0
290
     0
  0
TABLESTYLE
  5
1093
102
{ACAD_XDICTIONARY
360
10D1
102
}
102
{ACAD_REACTORS
330
1092
102
}
330
1092
100
AcDbTableStyle
  3
Standard
 70
     0
 71
     0
 40
1.5
 41
1.5
280
     0
281
     0
  7
Standard
140
4.5
170
     2
 62
     0
 63
     7
283
     0
274
    -2
284
     1
 64
     0
275
    -2
285
     1
 65
     0
276
    -2
286
     1
 66
     0
277
    -2
287
     1
 67
     0
278
    -2
288
     1
 68
     0
279
    -2
289
     1
 69
     0
  7
Standard
140
6.0
170
     5
 62
     0
 63
     7
283
     0
274
    -2
284
     1
 64
     0
275
    -2
285
     1
 65
     0
276
    -2
286
     1
 66
     0
277
    -2
287
     1
 67
     0
278
    -2
288
     1
 68
     0
279
    -2
289
     1
 69
     0
  7
Standard
140
4.5
170
     5
 62
     0
 63
     7
283
     0
274
    -2
284
     1
 64
     0
275
    -2
285
     1
 65
     0
276
    -2
286
     1
 66
     0
277
    -2
287
     1
 67
     0
278
    -2
288
     1
 68
     0
279
    -2
289
     1
 69
     0
  0
VISUALSTYLE
  5
1083
102
{ACAD_XDICTIONARY
360
10F4
102
}
102
{ACAD_REACTORS
330
107D
102
}
330
107D
100
AcDbVisualStyle
  2
2dWireframe
 70
     4
 71
     0
 72
     2
 73
     0
 90
        0
 40
-0.6
 41
-30.0
 62
     5
 63
     7
 74
     1
 91
        4
 64
     7
 65
   257
 75
     1
175
     1
 42
1.0
 92
        0
 66
   257
 43
1.0
 76
     1
 77
     6
 78
     2
 67
     7
 79
     5
170
     0
171
     0
290
     0
174
     0
 93
        1
 44
0.0
173
     0
291
     0
 45
0.0
1001
ACAD
1000
AcDbSavedByObjectVersion
1070
     0
  0
VISUALSTYLE
  5
1085
102
{ACAD_XDICTIONARY
360
10F8
102
}
102
{ACAD_REACTORS
330
107D
102
}
330
107D
100
AcDbVisualStyle
  2
3D Hidden
 70
     6
 71
     1
 72
     2
 73
     2
 90
        0
 40
-0.6
 41
-30.0
 62
     5
 63
     7
 74
     2
 91
        2
 64
     7
 65
   257
 75
     2
175
     1
 42
179.0
 92
        0
 66
   257
 43
1.0
 76
     1
 77
     6
 78
     2
 67
     7
 79
     3
170
     0
171
     0
290
     0
174
     0
 93
        1
 44
0.0
173
     0
291
     0
 45
0.0
1001
ACAD
1000
AcDbSavedByObjectVersion
1070
     0
  0
VISUALSTYLE
  5
1084
102
{ACAD_XDICTIONARY
360
10F6
102
}
102
{ACAD_REACTORS
330
107D
102
}
330
107D
100
AcDbVisualStyle
  2
3dWireframe
 70
     5
 71
     0
 72
     2
 73
     0
 90
        0
 40
-0.6
 41
-30.0
 62
     5
 63
     7
 74
     1
 91
        4
 64
     7
 65
   257
 75
     1
175
     1
 42
1.0
 92
        0
 66
   257
 43
1.0
 76
     1
 77
     6
 78
     2
 67
     7
 79
     5
170
     0
171
     0
290
     0
174
     0
 93
        1
 44
0.0
173
     0
291
     0
 45
0.0
1001
ACAD
1000
AcDbSavedByObjectVersion
1070
     0
  0
VISUALSTYLE
  5
1082
102
{ACAD_XDICTIONARY
360
10F2
102
}
102
{ACAD_REACTORS
330
107D
102
}
330
107D
100
AcDbVisualStyle
  2
Basic
 70
     7
 71
     1
 72
     0
 73
     1
 90
        0
 40
-0.6
 41
-30.0
 62
     5
 63
     7
 74
     0
 91
        4
 64
     7
 65
   257
 75
     1
175
     1
 42
1.0
 92
        8
 66
     7
 43
1.0
 76
     1
 77
     6
 78
     2
 67
     7
 79
     5
170
     0
171
     0
290
     0
174
     0
 93
        1
 44
0.0
173
     0
291
     1
 45
0.0
1001
ACAD
1000
AcDbSavedByObjectVersion
1070
     0
  0
VISUALSTYLE
  5
1089
102
{ACAD_XDICTIONARY
360
1100
102
}
102
{ACAD_REACTORS
330
107D
102
}
330
107D
100
AcDbVisualStyle
  2
Brighten
 70
    12
 71
     2
 72
     2
 73
     0
 90
        0
 40
-0.6
 41
-30.0
 62
     5
 63
     7
 74
     1
 91
        4
 64
     7
 65
   257
 75
     1
175
     1
 42
1.0
 92
        8
 66
     7
 43
1.0
 76
     1
 77
     6
 78
     2
 67
     7
 79
     5
170
     0
171
     0
290
     0
174
     0
 93
        1
 44
50.0
173
     0
291
     1
 45
0.0
1001
ACAD
1000
AcDbSavedByObjectVersion
1070
     0
  0
VISUALSTYLE
  5
108D
102
{ACAD_XDICTIONARY
360
1108
102
}
102
{ACAD_REACTORS
330
107D
102
}
330
107D
100
AcDbVisualStyle
  2
ColorChange
 70
    16
 71
     2
 72
     2
 73
     3
 90
        0
 40
-0.6
 41
-30.0
 62
     5
 63
     8
 74
     1
 91
        4
 64
     7
 65
   257
 75
     1
175
     1
 42
1.0
 92
        8
 66
     8
 43
1.0
 76
     1
 77
     6
 78
     2
 67
     7
 79
     5
170
     0
171
     0
290
     0
174
     0
 93
        1
 44
0.0
173
     0
291
     1
 45
0.0
1001
ACAD
1000
AcDbSavedByObjectVersion
1070
     0
  0
VISUALSTYLE
  5
1086
102
{ACAD_XDICTIONARY
360
10FA
102
}
102
{ACAD_REACTORS
330
107D
102
}
330
107D
100
AcDbVisualStyle
  2
Conceptual
 70
     9
 71
     3
 72
     2
 73
     0
 90
        0
 40
-0.6
 41
-30.0
 62
     5
 63
     7
 74
     2
 91
        2
 64
     7
 65
   257
 75
     1
175
     1
 42
179.0
 92
        8
 66
     7
 43
1.0
 76
     1
 77
     6
 78
     2
 67
     7
 79
     3
170
     0
171
     0
290
     0
174
     0
 93
        1
 44
0.0
173
     0
291
     0
 45
0.0
1001
ACAD
1000
AcDbSavedByObjectVersion
1070
     0
  0
VISUALSTYLE
  5
1088
102
{ACAD_XDICTIONARY
360
10FE
102
}
102
{ACAD_REACTORS
330
107D
102
}
330
107D
100
AcDbVisualStyle
  2
Dim
 70
    11
 71
     2
 72
     2
 73
     0
 90
        0
 40
-0.6
 41
-30.0
 62
     5
 63
     7
 74
     1
 91
        4
 64
     7
 65
   257
 75
     1
175
     1
 42
1.0
 92
        8
 66
     7
 43
1.0
 76
     1
 77
     6
 78
     2
 67
     7
 79
     5
170
     0
171
     0
290
     0
174
     0
 93
        1
 44
-50.0
173
     0
291
     1
 45
0.0
1001
ACAD
1000
AcDbSavedByObjectVersion
1070
     0
  0
VISUALSTYLE
  5
1090
102
{ACAD_XDICTIONARY
360
110E
102
}
102
{ACAD_REACTORS
330
107D
102
}
330
107D
100
AcDbVisualStyle
  2
EdgeColorOff
 70
    22
 71
     2
 72
     2
 73
     0
 90
        0
 40
-0.6
 41
-30.0
 62
     5
 63
     7
 74
     1
 91
        4
 64
     7
 65
   257
 75
     1
175
     1
 42
1.0
 92
        8
 66
     7
 43
1.0
 76
     1
 77
     6
 78
     2
 67
     7
 79
     5
170
     0
171
     0
290
     0
174
     0
 93
        1
 44
0.0
173
     0
291
     1
 45
0.0
1001
ACAD
1000
AcDbSavedByObjectVersion
1070
     0
  0
VISUALSTYLE
  5
108C
102
{ACAD_XDICTIONARY
360
1106
102
}
102
{ACAD_REACTORS
330
107D
102
}
330
107D
100
AcDbVisualStyle
  2
Facepattern
 70
    15
 71
     2
 72
     2
 73
     0
 90
        0
 40
-0.6
 41
-30.0
 62
     5
 63
     7
 74
     1
 91
        4
 64
     7
 65
   257
 75
     1
175
     1
 42
1.0
 92
        8
 66
     7
 43
1.0
 76
     1
 77
     6
 78
     2
 67
     7
 79
     5
170
     0
171
     0
290
     0
174
     0
 93
        1
 44
0.0
173
     0
291
     1
 45
0.0
1001
ACAD
1000
AcDbSavedByObjectVersion
1070
     0
  0
VISUALSTYLE
  5
107E
102
{ACAD_XDICTIONARY
360
10EA
102
}
102
{ACAD_REACTORS
330
107D
102
}
330
107D
100
AcDbVisualStyle
  2
Flat
 70
     0
 71
     2
 72
     1
 73
     1
 90
        2
 40
-0.6
 41
30.0
 62
     5
 63
     7
 74
     0
 91
        4
 64
     7
 65
   257
 75
     1
175
     1
 42
1.0
 92
        8
 66
     7
 43
1.0
 76
     1
 77
     6
 78
     2
 67
     7
 79
     5
170
     0
171
     0
290
     0
174
     0
 93
       13
 44
0.0
173
     0
291
     1
 45
0.0
1001
ACAD
1000
AcDbSavedByObjectVersion
1070
     0
  0
VISUALSTYLE
  5
107F
102
{ACAD_XDICTIONARY
360
10EC
102
}
102
{ACAD_REACTORS
330
107D
102
}
330
107D
100
AcDbVisualStyle
  2
FlatWithEdges
 70
     1
 71
     2
 72
     1
 73
     1
 90
        2
 40
-0.6
 41
30.0
 62
     5
 63
     7
 74
     1
 91
        4
 64
     7
 65
   257
 75
     1
175
     1
 42
1.0
 92
        0
 66
   257
 43
1.0
 76
     1
 77
     6
 78
     2
 67
     7
 79
     5
170
     0
171
     0
290
     0
174
     0
 93
       13
 44
0.0
173
     0
291
     1
 45
0.0
1001
ACAD
1000
AcDbSavedByObjectVersion
1070
     0
  0
VISUALSTYLE
  5
1080
102
{ACAD_XDICTIONARY
360
10EE
102
}
102
{ACAD_REACTORS
330
107D
102
}
330
107D
100
AcDbVisualStyle
  2
Gouraud
 70
     2
 71
     2
 72
     2
 73
     1
 90
        2
 40
-0.6
 41
30.0
 62
     5
 63
     7
 74
     0
 91
        4
 64
     7
 65
   257
 75
     1
175
     1
 42
1.0
 92
        0
 66
     7
 43
1.0
 76
     1
 77
     6
 78
     2
 67
     7
 79
     5
170
     0
171
     0
290
     0
174
     0
 93
       13
 44
0.0
173
     0
291
     1
 45
0.0
1001
ACAD
1000
AcDbSavedByObjectVersion
1070
     0
  0
VISUALSTYLE
  5
1081
102
{ACAD_XDICTIONARY
360
10F0
102
}
102
{ACAD_REACTORS
330
107D
102
}
330
107D
100
AcDbVisualStyle
  2
GouraudWithEdges
 70
     3
 71
     2
 72
     2
 73
     1
 90
        2
 40
-0.6
 41
30.0
 62
     5
 63
     7
 74
     1
 91
        4
 64
     7
 65
   257
 75
     1
175
     1
 42
1.0
 92
        0
 66
   257
 43
1.0
 76
     1
 77
     6
 78
     2
 67
     7
 79
     5
170
     0
171
     0
290
     0
174
     0
 93
       13
 44
0.0
173
     0
291
     1
 45
0.0
1001
ACAD
1000
AcDbSavedByObjectVersion
1070
     0
  0
VISUALSTYLE
  5
108E
102
{ACAD_XDICTIONARY
360
110A
102
}
102
{ACAD_REACTORS
330
107D
102
}
330
107D
100
AcDbVisualStyle
  2
JitterOff
 70
    20
 71
     2
 72
     2
 73
     0
 90
        0
 40
-0.6
 41
-30.0
 62
     5
 63
     7
 74
     1
 91
        4
 64
     7
 65
   257
 75
     1
175
     1
 42
1.0
 92
       10
 66
     7
 43
1.0
 76
     1
 77
     6
 78
     2
 67
     7
 79
     5
170
     0
171
     0
290
     0
174
     0
 93
        1
 44
0.0
173
     0
291
     1
 45
0.0
1001
ACAD
1000
AcDbSavedByObjectVersion
1070
     0
  0
VISUALSTYLE
  5
108B
102
{ACAD_XDICTIONARY
360
1104
102
}
102
{ACAD_REACTORS
330
107D
102
}
330
107D
100
AcDbVisualStyle
  2
Linepattern
 70
    14
 71
     2
 72
     2
 73
     0
 90
        0
 40
-0.6
 41
-30.0
 62
     5
 63
     7
 74
     1
 91
        4
 64
     7
 65
   257
 75
     7
175
     7
 42
1.0
 92
        8
 66
     7
 43
1.0
 76
     1
 77
     6
 78
     2
 67
     7
 79
     5
170
     0
171
     0
290
     0
174
     0
 93
        1
 44
0.0
173
     0
291
     1
 45
0.0
1001
ACAD
1000
AcDbSavedByObjectVersion
1070
     0
  0
VISUALSTYLE
  5
108F
102
{ACAD_XDICTIONARY
360
110C
102
}
102
{ACAD_REACTORS
330
107D
102
}
330
107D
100
AcDbVisualStyle
  2
OverhangOff
 70
    21
 71
     2
 72
     2
 73
     0
 90
        0
 40
-0.6
 41
-30.0
 62
     5
 63
     7
 74
     1
 91
        4
 64
     7
 65
   257
 75
     1
175
     1
 42
1.0
 92
        9
 66
     7
 43
1.0
 76
     1
 77
     6
 78
     2
 67
     7
 79
     5
170
     0
171
     0
290
     0
174
     0
 93
        1
 44
0.0
173
     0
291
     1
 45
0.0
1001
ACAD
1000
AcDbSavedByObjectVersion
1070
     0
  0
VISUALSTYLE
  5
1087
102
{ACAD_XDICTIONARY
360
10FC
102
}
102
{ACAD_REACTORS
330
107D
102
}
330
107D
100
AcDbVisualStyle
  2
Realistic
 70
     8
 71
     2
 72
     2
 73
     0
 90
        0
 40
-0.6
 41
-30.0
 62
     5
 63
     7
 74
     1
 91
        0
 64
     7
 65
   257
 75
     1
175
     1
 42
1.0
 92
        8
 66
     8
 43
1.0
 76
     1
 77
     6
 78
     2
 67
     7
 79
     5
170
     0
171
     0
290
     0
174
     0
 93
       13
 44
0.0
173
     0
291
     0
 45
0.0
1001
ACAD
1000
AcDbSavedByObjectVersion
1070
     0
  0
VISUALSTYLE
  5
108A
102
{ACAD_XDICTIONARY
360
1102
102
}
102
{ACAD_REACTORS
330
107D
102
}
330
107D
100
AcDbVisualStyle
  2
Thicken
 70
    13
 71
     2
 72
     2
 73
     0
 90
        0
 40
-0.6
 41
-30.0
 62
     5
 63
     7
 74
     1
 91
        4
 64
     7
 65
   257
 75
     1
175
     1
 42
1.0
 92
       12
 66
     7
 43
1.0
 76
     1
 77
     6
 78
     2
 67
     7
 79
     5
170
     0
171
     0
290
     0
174
     0
 93
        1
 44
0.0
173
     0
291
     1
 45
0.0
1001
ACAD
1000
AcDbSavedByObjectVersion
1070
     0
  0
DICTIONARYVAR
  5
10CD
102
{ACAD_REACTORS
330
3D
102
}
330
3D
100
DictionaryVariables
280
     0
  1
1:1
  0
DICTIONARYVAR
  5
10CC
102
{ACAD_REACTORS
330
3D
102
}
330
3D
100
DictionaryVariables
280
     0
  1
STANDARD
  0
DICTIONARYVAR
  5
10CB
102
{ACAD_REACTORS
330
3D
102
}
330
3D
100
DictionaryVariables
280
     0
  1
STANDARD
  0
DICTIONARYVAR
  5
3F
102
{ACAD_REACTORS
330
3D
102
}
330
3D
100
DictionaryVariables
280
     0
  1
2
  0
DICTIONARYVAR
  5
3E
102
{ACAD_REACTORS
330
3D
102
}
330
3D
100
DictionaryVariables
280
     0
  1
1
  0
DICTIONARYVAR
  5
10CF
102
{ACAD_REACTORS
330
3D
102
}
330
3D
100
DictionaryVariables
280
     0
  1
0
  0
DICTIONARYVAR
  5
10CE
102
{ACAD_REACTORS
330
3D
102
}
330
3D
100
DictionaryVariables
280
     0
  1
127
  0
DICTIONARYVAR
  5
10D0
102
{ACAD_REACTORS
330
3D
102
}
330
3D
100
DictionaryVariables
280
     0
  1
2
  0
XRECORD
  5
1060
102
{ACAD_REACTORS
330
105F
102
}
330
105F
100
AcDbXrecord
280
     1
  0
DICTIONARY
  5
10D5
330
1E
100
AcDbDictionary
280
     1
281
     1
  3
ACAD_XREC_ROUNDTRIP
360
10D6
  0
DICTIONARY
  5
10D9
330
26
100
AcDbDictionary
280
     1
281
     1
  3
ACAD_XREC_ROUNDTRIP
360
10DA
  0
DICTIONARY
  5
10D7
330
22
100
AcDbDictionary
280
     1
281
     1
  3
ACAD_XREC_ROUNDTRIP
360
10D8
  0
DICTIONARY
  5
106E
330
106D
100
AcDbDictionary
280
     1
281
     1
  3
ACAD_XREC_ROUNDTRIP
360
10E8
  3
BUMPTILE
360
1070
  3
DIFFUSETILE
360
106F
  3
OPACITYTILE
360
1073
  3
REFLECTIONTILE
360
1072
  3
REFRACTIONTILE
360
1074
  3
SPECULARTILE
360
1071
  0
DICTIONARY
  5
1066
330
1065
100
AcDbDictionary
280
     1
281
     1
  3
ACAD_XREC_ROUNDTRIP
360
10E7
  3
BUMPTILE
360
1068
  3
DIFFUSETILE
360
1067
  3
OPACITYTILE
360
106B
  3
REFLECTIONTILE
360
106A
  3
REFRACTIONTILE
360
106C
  3
SPECULARTILE
360
1069
  0
DICTIONARY
  5
1076
330
1075
100
AcDbDictionary
280
     1
281
     1
  3
ACAD_XREC_ROUNDTRIP
360
10E9
  3
BUMPTILE
360
1078
  3
DIFFUSETILE
360
1077
  3
OPACITYTILE
360
107B
  3
REFLECTIONTILE
360
107A
  3
REFRACTIONTILE
360
107C
  3
SPECULARTILE
360
1079
  0
DICTIONARY
  5
10D1
330
1093
100
AcDbDictionary
280
     1
281
     1
  3
ACAD_ROUNDTRIP_2008_TABLESTYLE_CELLSTYLEMAP
360
10D2
  3
ACAD_XREC_ROUNDTRIP
360
1110
  0
DICTIONARY
  5
10F4
330
1083
100
AcDbDictionary
280
     1
281
     1
  3
ACAD_XREC_ROUNDTRIP
360
10F5
  0
DICTIONARY
  5
10F8
330
1085
100
AcDbDictionary
280
     1
281
     1
  3
ACAD_XREC_ROUNDTRIP
360
10F9
  0
DICTIONARY
  5
10F6
330
1084
100
AcDbDictionary
280
     1
281
     1
  3
ACAD_XREC_ROUNDTRIP
360
10F7
  0
DICTIONARY
  5
10F2
330
1082
100
AcDbDictionary
280
     1
281
     1
  3
ACAD_XREC_ROUNDTRIP
360
10F3
  0
DICTIONARY
  5
1100
330
1089
100
AcDbDictionary
280
     1
281
     1
  3
ACAD_XREC_ROUNDTRIP
360
1101
  0
DICTIONARY
  5
1108
330
108D
100
AcDbDictionary
280
     1
281
     1
  3
ACAD_XREC_ROUNDTRIP
360
1109
  0
DICTIONARY
  5
10FA
330
1086
100
AcDbDictionary
280
     1
281
     1
  3
ACAD_XREC_ROUNDTRIP
360
10FB
  0
DICTIONARY
  5
10FE
330
1088
100
AcDbDictionary
280
     1
281
     1
  3
ACAD_XREC_ROUNDTRIP
360
10FF
  0
DICTIONARY
  5
110E
330
1090
100
AcDbDictionary
280
     1
281
     1
  3
ACAD_XREC_ROUNDTRIP
360
110F
  0
DICTIONARY
  5
1106
330
108C
100
AcDbDictionary
280
     1
281
     1
  3
ACAD_XREC_ROUNDTRIP
360
1107
  0
DICTIONARY
  5
10EA
330
107E
100
AcDbDictionary
280
     1
281
     1
  3
ACAD_XREC_ROUNDTRIP
360
10EB
  0
DICTIONARY
  5
10EC
330
107F
100
AcDbDictionary
280
     1
281
     1
  3
ACAD_XREC_ROUNDTRIP
360
10ED
  0
DICTIONARY
  5
10EE
330
1080
100
AcDbDictionary
280
     1
281
     1
  3
ACAD_XREC_ROUNDTRIP
360
10EF
  0
DICTIONARY
  5
10F0
330
1081
100
AcDbDictionary
280
     1
281
     1
  3
ACAD_XREC_ROUNDTRIP
360
10F1
  0
DICTIONARY
  5
110A
330
108E
100
AcDbDictionary
280
     1
281
     1
  3
ACAD_XREC_ROUNDTRIP
360
110B
  0
DICTIONARY
  5
1104
330
108B
100
AcDbDictionary
280
     1
281
     1
  3
ACAD_XREC_ROUNDTRIP
360
1105
  0
DICTIONARY
  5
110C
330
108F
100
AcDbDictionary
280
     1
281
     1
  3
ACAD_XREC_ROUNDTRIP
360
110D
  0
DICTIONARY
  5
10FC
330
1087
100
AcDbDictionary
280
     1
281
     1
  3
ACAD_XREC_ROUNDTRIP
360
10FD
  0
DICTIONARY
  5
1102
330
108A
100
AcDbDictionary
280
     1
281
     1
  3
ACAD_XREC_ROUNDTRIP
360
1103
  0
XRECORD
  5
10D6
102
{ACAD_REACTORS
330
10D5
102
}
330
10D5
100
AcDbXrecord
280
     1
102
SHADEPLOT
 70
     0
102
SHADEPLOTRESLEVEL
 70
     2
102
SHADEPLOTCUSTOMDPI
 70
   300
  0
XRECORD
  5
10DA
102
{ACAD_REACTORS
330
10D9
102
}
330
10D9
100
AcDbXrecord
280
     1
102
SHADEPLOT
 70
     0
102
SHADEPLOTRESLEVEL
 70
     2
102
SHADEPLOTCUSTOMDPI
 70
   300
  0
XRECORD
  5
10D8
102
{ACAD_REACTORS
330
10D7
102
}
330
10D7
100
AcDbXrecord
280
     1
102
SHADEPLOT
 70
     0
102
SHADEPLOTRESLEVEL
 70
     2
102
SHADEPLOTCUSTOMDPI
 70
   300
  0
XRECORD
  5
10E8
102
{ACAD_REACTORS
330
106E
102
}
330
106E
100
AcDbXrecord
280
     1
102
MATERIAL
148
0.0
149
0.0
149
0.0
 93
        0
 94
      127
282
     0
 72
     0
 77
     0
171
     0
175
     0
179
     0
273
     0
  0
XRECORD
  5
1070
102
{ACAD_REACTORS
330
106E
102
}
330
106E
100
AcDbXrecord
280
     1
270
     1
271
     1
  0
XRECORD
  5
106F
102
{ACAD_REACTORS
330
106E
102
}
330
106E
100
AcDbXrecord
280
     1
270
     1
271
     1
  0
XRECORD
  5
1073
102
{ACAD_REACTORS
330
106E
102
}
330
106E
100
AcDbXrecord
280
     1
270
     1
271
     1
  0
XRECORD
  5
1072
102
{ACAD_REACTORS
330
106E
102
}
330
106E
100
AcDbXrecord
280
     1
270
     1
271
     1
  0
XRECORD
  5
1074
102
{ACAD_REACTORS
330
106E
102
}
330
106E
100
AcDbXrecord
280
     1
270
     1
271
     1
  0
XRECORD
  5
1071
102
{ACAD_REACTORS
330
106E
102
}
330
106E
100
AcDbXrecord
280
     1
270
     1
271
     1
  0
XRECORD
  5
10E7
102
{ACAD_REACTORS
330
1066
102
}
330
1066
100
AcDbXrecord
280
     1
102
MATERIAL
148
0.0
149
0.0
149
0.0
 93
        0
 94
      127
282
     0
 72
     0
 77
     0
171
     0
175
     0
179
     0
273
     0
  0
XRECORD
  5
1068
102
{ACAD_REACTORS
330
1066
102
}
330
1066
100
AcDbXrecord
280
     1
270
     1
271
     1
  0
XRECORD
  5
1067
102
{ACAD_REACTORS
330
1066
102
}
330
1066
100
AcDbXrecord
280
     1
270
     1
271
     1
  0
XRECORD
  5
106B
102
{ACAD_REACTORS
330
1066
102
}
330
1066
100
AcDbXrecord
280
     1
270
     1
271
     1
  0
XRECORD
  5
106A
102
{ACAD_REACTORS
330
1066
102
}
330
1066
100
AcDbXrecord
280
     1
270
     1
271
     1
  0
XRECORD
  5
106C
102
{ACAD_REACTORS
330
1066
102
}
330
1066
100
AcDbXrecord
280
     1
270
     1
271
     1
  0
XRECORD
  5
1069
102
{ACAD_REACTORS
330
1066
102
}
330
1066
100
AcDbXrecord
280
     1
270
     1
271
     1
  0
XRECORD
  5
10E9
102
{ACAD_REACTORS
330
1076
102
}
330
1076
100
AcDbXrecord
280
     1
102
MATERIAL
148
0.0
149
0.0
149
0.0
 93
        0
 94
      127
282
     0
 72
     0
 77
     0
171
     0
175
     0
179
     0
273
     0
  0
XRECORD
  5
1078
102
{ACAD_REACTORS
330
1076
102
}
330
1076
100
AcDbXrecord
280
     1
270
     1
271
     1
  0
XRECORD
  5
1077
102
{ACAD_REACTORS
330
1076
102
}
330
1076
100
AcDbXrecord
280
     1
270
     1
271
     1
  0
XRECORD
  5
107B
102
{ACAD_REACTORS
330
1076
102
}
330
1076
100
AcDbXrecord
280
     1
270
     1
271
     1
  0
XRECORD
  5
107A
102
{ACAD_REACTORS
330
1076
102
}
330
1076
100
AcDbXrecord
280
     1
270
     1
271
     1
  0
XRECORD
  5
107C
102
{ACAD_REACTORS
330
1076
102
}
330
1076
100
AcDbXrecord
280
     1
270
     1
271
     1
  0
XRECORD
  5
1079
102
{ACAD_REACTORS
330
1076
102
}
330
1076
100
AcDbXrecord
280
     1
270
     1
271
     1
  0
CELLSTYLEMAP
  5
10D2
102
{ACAD_REACTORS
330
10D1
102
}
330
10D1
100
AcDbCellStyleMap
 90
        3
300
CELLSTYLE
  1
TABLEFORMAT_BEGIN
 90
        5
170
     1
 91
        0
 92
    32768
 62
   257
 93
        1
300
CONTENTFORMAT
  1
CONTENTFORMAT_BEGIN
 90
        0
 91
        0
 92
      512
 93
        0
300

 40
0.0
140
1.0
 94
        5
 62
     0
340
11
144
6.0
309
CONTENTFORMAT_END
171
     1
301
MARGIN
  1
CELLMARGIN_BEGIN
 40
1.5
 40
1.5
 40
1.5
 40
1.5
 40
4.5
 40
4.5
309
CELLMARGIN_END
 94
        6
 95
        1
302
GRIDFORMAT
  1
GRIDFORMAT_BEGIN
 90
        0
 91
        1
 62
     0
 92
       -2
340
0
 93
        0
 40
1.125
309
GRIDFORMAT_END
 95
        2
302
GRIDFORMAT
  1
GRIDFORMAT_BEGIN
 90
        0
 91
        1
 62
     0
 92
       -2
340
0
 93
        0
 40
1.125
309
GRIDFORMAT_END
 95
        4
302
GRIDFORMAT
  1
GRIDFORMAT_BEGIN
 90
        0
 91
        1
 62
     0
 92
       -2
340
0
 93
        0
 40
1.125
309
GRIDFORMAT_END
 95
        8
302
GRIDFORMAT
  1
GRIDFORMAT_BEGIN
 90
        0
 91
        1
 62
     0
 92
       -2
340
0
 93
        0
 40
1.125
309
GRIDFORMAT_END
 95
       16
302
GRIDFORMAT
  1
GRIDFORMAT_BEGIN
 90
        0
 91
        1
 62
     0
 92
       -2
340
0
 93
        0
 40
1.125
309
GRIDFORMAT_END
 95
       32
302
GRIDFORMAT
  1
GRIDFORMAT_BEGIN
 90
        0
 91
        1
 62
     0
 92
       -2
340
0
 93
        0
 40
1.125
309
GRIDFORMAT_END
309
TABLEFORMAT_END
  1
CELLSTYLE_BEGIN
 90
        1
 91
        1
300
_TITLE
309
CELLSTYLE_END
300
CELLSTYLE
  1
TABLEFORMAT_BEGIN
 90
        5
170
     1
 91
        0
 92
        0
 62
   257
 93
        1
300
CONTENTFORMAT
  1
CONTENTFORMAT_BEGIN
 90
        0
 91
        0
 92
      512
 93
        0
300

 40
0.0
140
1.0
 94
        5
 62
     0
340
11
144
4.5
309
CONTENTFORMAT_END
171
     1
301
MARGIN
  1
CELLMARGIN_BEGIN
 40
1.5
 40
1.5
 40
1.5
 40
1.5
 40
4.5
 40
4.5
309
CELLMARGIN_END
 94
        6
 95
        1
302
GRIDFORMAT
  1
GRIDFORMAT_BEGIN
 90
        0
 91
        1
 62
     0
 92
       -2
340
0
 93
        0
 40
1.125
309
GRIDFORMAT_END
 95
        2
302
GRIDFORMAT
  1
GRIDFORMAT_BEGIN
 90
        0
 91
        1
 62
     0
 92
       -2
340
0
 93
        0
 40
1.125
309
GRIDFORMAT_END
 95
        4
302
GRIDFORMAT
  1
GRIDFORMAT_BEGIN
 90
        0
 91
        1
 62
     0
 92
       -2
340
0
 93
        0
 40
1.125
309
GRIDFORMAT_END
 95
        8
302
GRIDFORMAT
  1
GRIDFORMAT_BEGIN
 90
        0
 91
        1
 62
     0
 92
       -2
340
0
 93
        0
 40
1.125
309
GRIDFORMAT_END
 95
       16
302
GRIDFORMAT
  1
GRIDFORMAT_BEGIN
 90
        0
 91
        1
 62
     0
 92
       -2
340
0
 93
        0
 40
1.125
309
GRIDFORMAT_END
 95
       32
302
GRIDFORMAT
  1
GRIDFORMAT_BEGIN
 90
        0
 91
        1
 62
     0
 92
       -2
340
0
 93
        0
 40
1.125
309
GRIDFORMAT_END
309
TABLEFORMAT_END
  1
CELLSTYLE_BEGIN
 90
        2
 91
        1
300
_HEADER
309
CELLSTYLE_END
300
CELLSTYLE
  1
TABLEFORMAT_BEGIN
 90
        5
170
     1
 91
        0
 92
        0
 62
   257
 93
        1
300
CONTENTFORMAT
  1
CONTENTFORMAT_BEGIN
 90
        0
 91
        0
 92
      512
 93
        0
300

 40
0.0
140
1.0
 94
        2
 62
     0
340
11
144
4.5
309
CONTENTFORMAT_END
171
     1
301
MARGIN
  1
CELLMARGIN_BEGIN
 40
1.5
 40
1.5
 40
1.5
 40
1.5
 40
4.5
 40
4.5
309
CELLMARGIN_END
 94
        6
 95
        1
302
GRIDFORMAT
  1
GRIDFORMAT_BEGIN
 90
        0
 91
        1
 62
     0
 92
       -2
340
0
 93
        0
 40
1.125
309
GRIDFORMAT_END
 95
        2
302
GRIDFORMAT
  1
GRIDFORMAT_BEGIN
 90
        0
 91
        1
 62
     0
 92
       -2
340
0
 93
        0
 40
1.125
309
GRIDFORMAT_END
 95
        4
302
GRIDFORMAT
  1
GRIDFORMAT_BEGIN
 90
        0
 91
        1
 62
     0
 92
       -2
340
0
 93
        0
 40
1.125
309
GRIDFORMAT_END
 95
        8
302
GRIDFORMAT
  1
GRIDFORMAT_BEGIN
 90
        0
 91
        1
 62
     0
 92
       -2
340
0
 93
        0
 40
1.125
309
GRIDFORMAT_END
 95
       16
302
GRIDFORMAT
  1
GRIDFORMAT_BEGIN
 90
        0
 91
        1
 62
     0
 92
       -2
340
0
 93
        0
 40
1.125
309
GRIDFORMAT_END
 95
       32
302
GRIDFORMAT
  1
GRIDFORMAT_BEGIN
 90
        0
 91
        1
 62
     0
 92
       -2
340
0
 93
        0
 40
1.125
309
GRIDFORMAT_END
309
TABLEFORMAT_END
  1
CELLSTYLE_BEGIN
 90
        3
 91
        2
300
_DATA
309
CELLSTYLE_END
  0
XRECORD
  5
1110
102
{ACAD_REACTORS
330
10D1
102
}
330
10D1
100
AcDbXrecord
280
     1
102
ACAD_ROUNDTRIP_PRE2007_TABLESTYLE
 90
      512
 91
        0
  1

 92
      512
 93
        0
  2

 94
      512
 95
        0
  3

  0
XRECORD
  5
10F5
102
{ACAD_REACTORS
330
10F4
102
}
330
10F4
100
AcDbXrecord
280
     1
102
RTVSPropertyOp0
 70
     1
102
RTVSPropertyOp1
 70
     1
102
RTVSPropertyOp2
 70
     1
102
RTVSPropertyOp3
 70
     1
102
RTVSPropertyOp4
 70
     1
102
RTVSPropertyOp5
 70
     1
102
RTVSPropertyOp6
 70
     1
102
RTVSPropertyOp7
 70
     1
102
RTVSPropertyOp8
 70
     1
102
RTVSPropertyOp9
 70
     1
102
RTVSPropertyOp10
 70
     1
102
RTVSPropertyOp11
 70
     1
102
RTVSPropertyOp12
 70
     1
102
RTVSPropertyOp13
 70
     1
102
RTVSPropertyOp14
 70
     1
102
RTVSPropertyOp15
 70
     1
102
RTVSPropertyOp16
 70
     1
102
RTVSPropertyOp17
 70
     1
102
RTVSPropertyOp18
 70
     1
102
RTVSPropertyOp19
 70
     1
102
RTVSPropertyOp20
 70
     1
102
RTVSPropertyOp21
 70
     1
102
RTVSPropertyOp22
 70
     1
102
RTVSPropertyOp23
 70
     1
102
RTVSPropertyOp24
 70
     1
102
RTVSPropertyOp25
 70
     1
102
RTVSPropertyOp26
 70
     1
102
RTVSPropertyOp27
 70
     1
  0
XRECORD
  5
10F9
102
{ACAD_REACTORS
330
10F8
102
}
330
10F8
100
AcDbXrecord
280
     1
102
RTVSPropertyOp0
 70
     1
102
RTVSPropertyOp1
 70
     1
102
RTVSPropertyOp2
 70
     1
102
RTVSPropertyOp3
 70
     1
102
RTVSPropertyOp4
 70
     1
102
RTVSPropertyOp5
 70
     1
102
RTVSPropertyOp6
 70
     1
102
RTVSPropertyOp7
 70
     1
102
RTVSPropertyOp8
 70
     1
102
RTVSPropertyOp9
 70
     1
102
RTVSPropertyOp10
 70
     1
102
RTVSPropertyOp11
 70
     1
102
RTVSPropertyOp12
 70
     1
102
RTVSPropertyOp13
 70
     1
102
RTVSPropertyOp14
 70
     1
102
RTVSPropertyOp15
 70
     1
102
RTVSPropertyOp16
 70
     1
102
RTVSPropertyOp17
 70
     1
102
RTVSPropertyOp18
 70
     1
102
RTVSPropertyOp19
 70
     1
102
RTVSPropertyOp20
 70
     1
102
RTVSPropertyOp21
 70
     1
102
RTVSPropertyOp22
 70
     1
102
RTVSPropertyOp23
 70
     1
102
RTVSPropertyOp24
 70
     1
102
RTVSPropertyOp25
 70
     1
102
RTVSPropertyOp26
 70
     1
102
RTVSPropertyOp27
 70
     1
  0
XRECORD
  5
10F7
102
{ACAD_REACTORS
330
10F6
102
}
330
10F6
100
AcDbXrecord
280
     1
102
RTVSPropertyOp0
 70
     1
102
RTVSPropertyOp1
 70
     1
102
RTVSPropertyOp2
 70
     1
102
RTVSPropertyOp3
 70
     1
102
RTVSPropertyOp4
 70
     1
102
RTVSPropertyOp5
 70
     1
102
RTVSPropertyOp6
 70
     1
102
RTVSPropertyOp7
 70
     1
102
RTVSPropertyOp8
 70
     1
102
RTVSPropertyOp9
 70
     1
102
RTVSPropertyOp10
 70
     1
102
RTVSPropertyOp11
 70
     1
102
RTVSPropertyOp12
 70
     1
102
RTVSPropertyOp13
 70
     1
102
RTVSPropertyOp14
 70
     1
102
RTVSPropertyOp15
 70
     1
102
RTVSPropertyOp16
 70
     1
102
RTVSPropertyOp17
 70
     1
102
RTVSPropertyOp18
 70
     1
102
RTVSPropertyOp19
 70
     1
102
RTVSPropertyOp20
 70
     1
102
RTVSPropertyOp21
 70
     1
102
RTVSPropertyOp22
 70
     1
102
RTVSPropertyOp23
 70
     1
102
RTVSPropertyOp24
 70
     1
102
RTVSPropertyOp25
 70
     1
102
RTVSPropertyOp26
 70
     1
102
RTVSPropertyOp27
 70
     1
  0
XRECORD
  5
10F3
102
{ACAD_REACTORS
330
10F2
102
}
330
10F2
100
AcDbXrecord
280
     1
102
RTVSPropertyOp0
 70
     1
102
RTVSPropertyOp1
 70
     1
102
RTVSPropertyOp2
 70
     1
102
RTVSPropertyOp3
 70
     1
102
RTVSPropertyOp4
 70
     1
102
RTVSPropertyOp5
 70
     1
102
RTVSPropertyOp6
 70
     1
102
RTVSPropertyOp7
 70
     1
102
RTVSPropertyOp8
 70
     1
102
RTVSPropertyOp9
 70
     1
102
RTVSPropertyOp10
 70
     1
102
RTVSPropertyOp11
 70
     1
102
RTVSPropertyOp12
 70
     1
102
RTVSPropertyOp13
 70
     1
102
RTVSPropertyOp14
 70
     1
102
RTVSPropertyOp15
 70
     1
102
RTVSPropertyOp16
 70
     1
102
RTVSPropertyOp17
 70
     1
102
RTVSPropertyOp18
 70
     1
102
RTVSPropertyOp19
 70
     1
102
RTVSPropertyOp20
 70
     1
102
RTVSPropertyOp21
 70
     1
102
RTVSPropertyOp22
 70
     1
102
RTVSPropertyOp23
 70
     1
102
RTVSPropertyOp24
 70
     1
102
RTVSPropertyOp25
 70
     1
102
RTVSPropertyOp26
 70
     1
102
RTVSPropertyOp27
 70
     1
  0
XRECORD
  5
1101
102
{ACAD_REACTORS
330
1100
102
}
330
1100
100
AcDbXrecord
280
     1
102
RTVSPropertyOp0
 70
     1
102
RTVSPropertyOp1
 70
     1
102
RTVSPropertyOp2
 70
     1
102
RTVSPropertyOp3
 70
     1
102
RTVSPropertyOp4
 70
     1
102
RTVSPropertyOp5
 70
     1
102
RTVSPropertyOp6
 70
     1
102
RTVSPropertyOp7
 70
     1
102
RTVSPropertyOp8
 70
     1
102
RTVSPropertyOp9
 70
     1
102
RTVSPropertyOp10
 70
     1
102
RTVSPropertyOp11
 70
     1
102
RTVSPropertyOp12
 70
     1
102
RTVSPropertyOp13
 70
     1
102
RTVSPropertyOp14
 70
     1
102
RTVSPropertyOp15
 70
     1
102
RTVSPropertyOp16
 70
     1
102
RTVSPropertyOp17
 70
     1
102
RTVSPropertyOp18
 70
     1
102
RTVSPropertyOp19
 70
     1
102
RTVSPropertyOp20
 70
     1
102
RTVSPropertyOp21
 70
     1
102
RTVSPropertyOp22
 70
     1
102
RTVSPropertyOp23
 70
     1
102
RTVSPropertyOp24
 70
     1
102
RTVSPropertyOp25
 70
     1
102
RTVSPropertyOp26
 70
     1
102
RTVSPropertyOp27
 70
     1
  0
XRECORD
  5
1109
102
{ACAD_REACTORS
330
1108
102
}
330
1108
100
AcDbXrecord
280
     1
102
RTVSPropertyOp0
 70
     1
102
RTVSPropertyOp1
 70
     1
102
RTVSPropertyOp2
 70
     1
102
RTVSPropertyOp3
 70
     1
102
RTVSPropertyOp4
 70
     1
102
RTVSPropertyOp5
 70
     1
102
RTVSPropertyOp6
 70
     1
102
RTVSPropertyOp7
 70
     1
102
RTVSPropertyOp8
 70
     1
102
RTVSPropertyOp9
 70
     1
102
RTVSPropertyOp10
 70
     1
102
RTVSPropertyOp11
 70
     1
102
RTVSPropertyOp12
 70
     1
102
RTVSPropertyOp13
 70
     1
102
RTVSPropertyOp14
 70
     1
102
RTVSPropertyOp15
 70
     1
102
RTVSPropertyOp16
 70
     1
102
RTVSPropertyOp17
 70
     1
102
RTVSPropertyOp18
 70
     1
102
RTVSPropertyOp19
 70
     1
102
RTVSPropertyOp20
 70
     1
102
RTVSPropertyOp21
 70
     1
102
RTVSPropertyOp22
 70
     1
102
RTVSPropertyOp23
 70
     1
102
RTVSPropertyOp24
 70
     1
102
RTVSPropertyOp25
 70
     1
102
RTVSPropertyOp26
 70
     1
102
RTVSPropertyOp27
 70
     1
  0
XRECORD
  5
10FB
102
{ACAD_REACTORS
330
10FA
102
}
330
10FA
100
AcDbXrecord
280
     1
102
RTVSPropertyOp0
 70
     1
102
RTVSPropertyOp1
 70
     1
102
RTVSPropertyOp2
 70
     1
102
RTVSPropertyOp3
 70
     1
102
RTVSPropertyOp4
 70
     1
102
RTVSPropertyOp5
 70
     1
102
RTVSPropertyOp6
 70
     1
102
RTVSPropertyOp7
 70
     1
102
RTVSPropertyOp8
 70
     1
102
RTVSPropertyOp9
 70
     1
102
RTVSPropertyOp10
 70
     1
102
RTVSPropertyOp11
 70
     1
102
RTVSPropertyOp12
 70
     1
102
RTVSPropertyOp13
 70
     1
102
RTVSPropertyOp14
 70
     1
102
RTVSPropertyOp15
 70
     1
102
RTVSPropertyOp16
 70
     1
102
RTVSPropertyOp17
 70
     1
102
RTVSPropertyOp18
 70
     1
102
RTVSPropertyOp19
 70
     1
102
RTVSPropertyOp20
 70
     1
102
RTVSPropertyOp21
 70
     1
102
RTVSPropertyOp22
 70
     1
102
RTVSPropertyOp23
 70
     1
102
RTVSPropertyOp24
 70
     1
102
RTVSPropertyOp25
 70
     1
102
RTVSPropertyOp26
 70
     1
102
RTVSPropertyOp27
 70
     1
  0
XRECORD
  5
10FF
102
{ACAD_REACTORS
330
10FE
102
}
330
10FE
100
AcDbXrecord
280
     1
102
RTVSPropertyOp0
 70
     1
102
RTVSPropertyOp1
 70
     1
102
RTVSPropertyOp2
 70
     1
102
RTVSPropertyOp3
 70
     1
102
RTVSPropertyOp4
 70
     1
102
RTVSPropertyOp5
 70
     1
102
RTVSPropertyOp6
 70
     1
102
RTVSPropertyOp7
 70
     1
102
RTVSPropertyOp8
 70
     1
102
RTVSPropertyOp9
 70
     1
102
RTVSPropertyOp10
 70
     1
102
RTVSPropertyOp11
 70
     1
102
RTVSPropertyOp12
 70
     1
102
RTVSPropertyOp13
 70
     1
102
RTVSPropertyOp14
 70
     1
102
RTVSPropertyOp15
 70
     1
102
RTVSPropertyOp16
 70
     1
102
RTVSPropertyOp17
 70
     1
102
RTVSPropertyOp18
 70
     1
102
RTVSPropertyOp19
 70
     1
102
RTVSPropertyOp20
 70
     1
102
RTVSPropertyOp21
 70
     1
102
RTVSPropertyOp22
 70
     1
102
RTVSPropertyOp23
 70
     1
102
RTVSPropertyOp24
 70
     1
102
RTVSPropertyOp25
 70
     1
102
RTVSPropertyOp26
 70
     1
102
RTVSPropertyOp27
 70
     1
  0
XRECORD
  5
110F
102
{ACAD_REACTORS
330
110E
102
}
330
110E
100
AcDbXrecord
280
     1
102
RTVSPropertyOp0
 70
     0
102
RTVSPropertyOp1
 70
     0
102
RTVSPropertyOp2
 70
     0
102
RTVSPropertyOp3
 70
     0
102
RTVSPropertyOp4
 70
     0
102
RTVSPropertyOp5
 70
     0
102
RTVSPropertyOp6
 70
     0
102
RTVSPropertyOp7
 70
     0
102
RTVSPropertyOp8
 70
     0
102
RTVSPropertyOp9
 70
     0
102
RTVSPropertyOp10
 70
     0
102
RTVSPropertyOp11
 70
     0
102
RTVSPropertyOp12
 70
     0
102
RTVSPropertyOp13
 70
     0
102
RTVSPropertyOp14
 70
     2
102
RTVSPropertyOp15
 70
     0
102
RTVSPropertyOp16
 70
     0
102
RTVSPropertyOp17
 70
     0
102
RTVSPropertyOp18
 70
     0
102
RTVSPropertyOp19
 70
     0
102
RTVSPropertyOp20
 70
     0
102
RTVSPropertyOp21
 70
     0
102
RTVSPropertyOp22
 70
     0
102
RTVSPropertyOp23
 70
     0
102
RTVSPropertyOp24
 70
     0
102
RTVSPropertyOp25
 70
     0
102
RTVSPropertyOp26
 70
     0
102
RTVSPropertyOp27
 70
     0
  0
XRECORD
  5
1107
102
{ACAD_REACTORS
330
1106
102
}
330
1106
100
AcDbXrecord
280
     1
102
RTVSPropertyOp0
 70
     1
102
RTVSPropertyOp1
 70
     1
102
RTVSPropertyOp2
 70
     1
102
RTVSPropertyOp3
 70
     1
102
RTVSPropertyOp4
 70
     1
102
RTVSPropertyOp5
 70
     1
102
RTVSPropertyOp6
 70
     1
102
RTVSPropertyOp7
 70
     1
102
RTVSPropertyOp8
 70
     1
102
RTVSPropertyOp9
 70
     1
102
RTVSPropertyOp10
 70
     1
102
RTVSPropertyOp11
 70
     1
102
RTVSPropertyOp12
 70
     1
102
RTVSPropertyOp13
 70
     1
102
RTVSPropertyOp14
 70
     1
102
RTVSPropertyOp15
 70
     1
102
RTVSPropertyOp16
 70
     1
102
RTVSPropertyOp17
 70
     1
102
RTVSPropertyOp18
 70
     1
102
RTVSPropertyOp19
 70
     1
102
RTVSPropertyOp20
 70
     1
102
RTVSPropertyOp21
 70
     1
102
RTVSPropertyOp22
 70
     1
102
RTVSPropertyOp23
 70
     1
102
RTVSPropertyOp24
 70
     1
102
RTVSPropertyOp25
 70
     1
102
RTVSPropertyOp26
 70
     1
102
RTVSPropertyOp27
 70
     1
  0
XRECORD
  5
10EB
102
{ACAD_REACTORS
330
10EA
102
}
330
10EA
100
AcDbXrecord
280
     1
102
RTVSPropertyOp0
 70
     1
102
RTVSPropertyOp1
 70
     1
102
RTVSPropertyOp2
 70
     1
102
RTVSPropertyOp3
 70
     1
102
RTVSPropertyOp4
 70
     1
102
RTVSPropertyOp5
 70
     1
102
RTVSPropertyOp6
 70
     1
102
RTVSPropertyOp7
 70
     1
102
RTVSPropertyOp8
 70
     1
102
RTVSPropertyOp9
 70
     1
102
RTVSPropertyOp10
 70
     1
102
RTVSPropertyOp11
 70
     1
102
RTVSPropertyOp12
 70
     1
102
RTVSPropertyOp13
 70
     1
102
RTVSPropertyOp14
 70
     1
102
RTVSPropertyOp15
 70
     1
102
RTVSPropertyOp16
 70
     1
102
RTVSPropertyOp17
 70
     1
102
RTVSPropertyOp18
 70
     1
102
RTVSPropertyOp19
 70
     1
102
RTVSPropertyOp20
 70
     1
102
RTVSPropertyOp21
 70
     1
102
RTVSPropertyOp22
 70
     1
102
RTVSPropertyOp23
 70
     1
102
RTVSPropertyOp24
 70
     1
102
RTVSPropertyOp25
 70
     1
102
RTVSPropertyOp26
 70
     1
102
RTVSPropertyOp27
 70
     1
  0
XRECORD
  5
10ED
102
{ACAD_REACTORS
330
10EC
102
}
330
10EC
100
AcDbXrecord
280
     1
102
RTVSPropertyOp0
 70
     1
102
RTVSPropertyOp1
 70
     1
102
RTVSPropertyOp2
 70
     1
102
RTVSPropertyOp3
 70
     1
102
RTVSPropertyOp4
 70
     1
102
RTVSPropertyOp5
 70
     1
102
RTVSPropertyOp6
 70
     1
102
RTVSPropertyOp7
 70
     1
102
RTVSPropertyOp8
 70
     1
102
RTVSPropertyOp9
 70
     1
102
RTVSPropertyOp10
 70
     1
102
RTVSPropertyOp11
 70
     1
102
RTVSPropertyOp12
 70
     1
102
RTVSPropertyOp13
 70
     1
102
RTVSPropertyOp14
 70
     1
102
RTVSPropertyOp15
 70
     1
102
RTVSPropertyOp16
 70
     1
102
RTVSPropertyOp17
 70
     1
102
RTVSPropertyOp18
 70
     1
102
RTVSPropertyOp19
 70
     1
102
RTVSPropertyOp20
 70
     1
102
RTVSPropertyOp21
 70
     1
102
RTVSPropertyOp22
 70
     1
102
RTVSPropertyOp23
 70
     1
102
RTVSPropertyOp24
 70
     1
102
RTVSPropertyOp25
 70
     1
102
RTVSPropertyOp26
 70
     1
102
RTVSPropertyOp27
 70
     1
  0
XRECORD
  5
10EF
102
{ACAD_REACTORS
330
10EE
102
}
330
10EE
100
AcDbXrecord
280
     1
102
RTVSPropertyOp0
 70
     1
102
RTVSPropertyOp1
 70
     1
102
RTVSPropertyOp2
 70
     1
102
RTVSPropertyOp3
 70
     1
102
RTVSPropertyOp4
 70
     1
102
RTVSPropertyOp5
 70
     1
102
RTVSPropertyOp6
 70
     1
102
RTVSPropertyOp7
 70
     1
102
RTVSPropertyOp8
 70
     1
102
RTVSPropertyOp9
 70
     1
102
RTVSPropertyOp10
 70
     1
102
RTVSPropertyOp11
 70
     1
102
RTVSPropertyOp12
 70
     1
102
RTVSPropertyOp13
 70
     1
102
RTVSPropertyOp14
 70
     1
102
RTVSPropertyOp15
 70
     1
102
RTVSPropertyOp16
 70
     1
102
RTVSPropertyOp17
 70
     1
102
RTVSPropertyOp18
 70
     1
102
RTVSPropertyOp19
 70
     1
102
RTVSPropertyOp20
 70
     1
102
RTVSPropertyOp21
 70
     1
102
RTVSPropertyOp22
 70
     1
102
RTVSPropertyOp23
 70
     1
102
RTVSPropertyOp24
 70
     1
102
RTVSPropertyOp25
 70
     1
102
RTVSPropertyOp26
 70
     1
102
RTVSPropertyOp27
 70
     1
  0
XRECORD
  5
10F1
102
{ACAD_REACTORS
330
10F0
102
}
330
10F0
100
AcDbXrecord
280
     1
102
RTVSPropertyOp0
 70
     1
102
RTVSPropertyOp1
 70
     1
102
RTVSPropertyOp2
 70
     1
102
RTVSPropertyOp3
 70
     1
102
RTVSPropertyOp4
 70
     1
102
RTVSPropertyOp5
 70
     1
102
RTVSPropertyOp6
 70
     1
102
RTVSPropertyOp7
 70
     1
102
RTVSPropertyOp8
 70
     1
102
RTVSPropertyOp9
 70
     1
102
RTVSPropertyOp10
 70
     1
102
RTVSPropertyOp11
 70
     1
102
RTVSPropertyOp12
 70
     1
102
RTVSPropertyOp13
 70
     1
102
RTVSPropertyOp14
 70
     1
102
RTVSPropertyOp15
 70
     1
102
RTVSPropertyOp16
 70
     1
102
RTVSPropertyOp17
 70
     1
102
RTVSPropertyOp18
 70
     1
102
RTVSPropertyOp19
 70
     1
102
RTVSPropertyOp20
 70
     1
102
RTVSPropertyOp21
 70
     1
102
RTVSPropertyOp22
 70
     1
102
RTVSPropertyOp23
 70
     1
102
RTVSPropertyOp24
 70
     1
102
RTVSPropertyOp25
 70
     1
102
RTVSPropertyOp26
 70
     1
102
RTVSPropertyOp27
 70
     1
  0
XRECORD
  5
110B
102
{ACAD_REACTORS
330
110A
102
}
330
110A
100
AcDbXrecord
280
     1
102
RTVSPropertyOp0
 70
     0
102
RTVSPropertyOp1
 70
     0
102
RTVSPropertyOp2
 70
     0
102
RTVSPropertyOp3
 70
     0
102
RTVSPropertyOp4
 70
     0
102
RTVSPropertyOp5
 70
     0
102
RTVSPropertyOp6
 70
     0
102
RTVSPropertyOp7
 70
     0
102
RTVSPropertyOp8
 70
     0
102
RTVSPropertyOp9
 70
     0
102
RTVSPropertyOp10
 70
     0
102
RTVSPropertyOp11
 70
     0
102
RTVSPropertyOp12
 70
     0
102
RTVSPropertyOp13
 70
     0
102
RTVSPropertyOp14
 70
     2
102
RTVSPropertyOp15
 70
     0
102
RTVSPropertyOp16
 70
     0
102
RTVSPropertyOp17
 70
     0
102
RTVSPropertyOp18
 70
     0
102
RTVSPropertyOp19
 70
     0
102
RTVSPropertyOp20
 70
     0
102
RTVSPropertyOp21
 70
     0
102
RTVSPropertyOp22
 70
     0
102
RTVSPropertyOp23
 70
     0
102
RTVSPropertyOp24
 70
     0
102
RTVSPropertyOp25
 70
     0
102
RTVSPropertyOp26
 70
     0
102
RTVSPropertyOp27
 70
     0
  0
XRECORD
  5
1105
102
{ACAD_REACTORS
330
1104
102
}
330
1104
100
AcDbXrecord
280
     1
102
RTVSPropertyOp0
 70
     1
102
RTVSPropertyOp1
 70
     1
102
RTVSPropertyOp2
 70
     1
102
RTVSPropertyOp3
 70
     1
102
RTVSPropertyOp4
 70
     1
102
RTVSPropertyOp5
 70
     1
102
RTVSPropertyOp6
 70
     1
102
RTVSPropertyOp7
 70
     1
102
RTVSPropertyOp8
 70
     1
102
RTVSPropertyOp9
 70
     1
102
RTVSPropertyOp10
 70
     1
102
RTVSPropertyOp11
 70
     1
102
RTVSPropertyOp12
 70
     1
102
RTVSPropertyOp13
 70
     1
102
RTVSPropertyOp14
 70
     1
102
RTVSPropertyOp15
 70
     1
102
RTVSPropertyOp16
 70
     1
102
RTVSPropertyOp17
 70
     1
102
RTVSPropertyOp18
 70
     1
102
RTVSPropertyOp19
 70
     1
102
RTVSPropertyOp20
 70
     1
102
RTVSPropertyOp21
 70
     1
102
RTVSPropertyOp22
 70
     1
102
RTVSPropertyOp23
 70
     1
102
RTVSPropertyOp24
 70
     1
102
RTVSPropertyOp25
 70
     1
102
RTVSPropertyOp26
 70
     1
102
RTVSPropertyOp27
 70
     1
  0
XRECORD
  5
110D
102
{ACAD_REACTORS
330
110C
102
}
330
110C
100
AcDbXrecord
280
     1
102
RTVSPropertyOp0
 70
     0
102
RTVSPropertyOp1
 70
     0
102
RTVSPropertyOp2
 70
     0
102
RTVSPropertyOp3
 70
     0
102
RTVSPropertyOp4
 70
     0
102
RTVSPropertyOp5
 70
     0
102
RTVSPropertyOp6
 70
     0
102
RTVSPropertyOp7
 70
     0
102
RTVSPropertyOp8
 70
     0
102
RTVSPropertyOp9
 70
     0
102
RTVSPropertyOp10
 70
     0
102
RTVSPropertyOp11
 70
     0
102
RTVSPropertyOp12
 70
     0
102
RTVSPropertyOp13
 70
     0
102
RTVSPropertyOp14
 70
     2
102
RTVSPropertyOp15
 70
     0
102
RTVSPropertyOp16
 70
     0
102
RTVSPropertyOp17
 70
     0
102
RTVSPropertyOp18
 70
     0
102
RTVSPropertyOp19
 70
     0
102
RTVSPropertyOp20
 70
     0
102
RTVSPropertyOp21
 70
     0
102
RTVSPropertyOp22
 70
     0
102
RTVSPropertyOp23
 70
     0
102
RTVSPropertyOp24
 70
     0
102
RTVSPropertyOp25
 70
     0
102
RTVSPropertyOp26
 70
     0
102
RTVSPropertyOp27
 70
     0
  0
XRECORD
  5
10FD
102
{ACAD_REACTORS
330
10FC
102
}
330
10FC
100
AcDbXrecord
280
     1
102
RTVSPropertyOp0
 70
     1
102
RTVSPropertyOp1
 70
     1
102
RTVSPropertyOp2
 70
     1
102
RTVSPropertyOp3
 70
     1
102
RTVSPropertyOp4
 70
     1
102
RTVSPropertyOp5
 70
     1
102
RTVSPropertyOp6
 70
     1
102
RTVSPropertyOp7
 70
     1
102
RTVSPropertyOp8
 70
     1
102
RTVSPropertyOp9
 70
     1
102
RTVSPropertyOp10
 70
     1
102
RTVSPropertyOp11
 70
     1
102
RTVSPropertyOp12
 70
     1
102
RTVSPropertyOp13
 70
     1
102
RTVSPropertyOp14
 70
     1
102
RTVSPropertyOp15
 70
     1
102
RTVSPropertyOp16
 70
     1
102
RTVSPropertyOp17
 70
     1
102
RTVSPropertyOp18
 70
     1
102
RTVSPropertyOp19
 70
     1
102
RTVSPropertyOp20
 70
     1
102
RTVSPropertyOp21
 70
     1
102
RTVSPropertyOp22
 70
     1
102
RTVSPropertyOp23
 70
     1
102
RTVSPropertyOp24
 70
     1
102
RTVSPropertyOp25
 70
     1
102
RTVSPropertyOp26
 70
     1
102
RTVSPropertyOp27
 70
     1
  0
XRECORD
  5
1103
102
{ACAD_REACTORS
330
1102
102
}
330
1102
100
AcDbXrecord
280
     1
102
RTVSPropertyOp0
 70
     1
102
RTVSPropertyOp1
 70
     1
102
RTVSPropertyOp2
 70
     1
102
RTVSPropertyOp3
 70
     1
102
RTVSPropertyOp4
 70
     1
102
RTVSPropertyOp5
 70
     1
102
RTVSPropertyOp6
 70
     1
102
RTVSPropertyOp7
 70
     1
102
RTVSPropertyOp8
 70
     1
102
RTVSPropertyOp9
 70
     1
102
RTVSPropertyOp10
 70
     1
102
RTVSPropertyOp11
 70
     1
102
RTVSPropertyOp12
 70
     1
102
RTVSPropertyOp13
 70
     1
102
RTVSPropertyOp14
 70
     1
102
RTVSPropertyOp15
 70
     1
102
RTVSPropertyOp16
 70
     1
102
RTVSPropertyOp17
 70
     1
102
RTVSPropertyOp18
 70
     1
102
RTVSPropertyOp19
 70
     1
102
RTVSPropertyOp20
 70
     1
102
RTVSPropertyOp21
 70
     1
102
RTVSPropertyOp22
 70
     1
102
RTVSPropertyOp23
 70
     1
102
RTVSPropertyOp24
 70
     1
102
RTVSPropertyOp25
 70
     1
102
RTVSPropertyOp26
 70
     1
102
RTVSPropertyOp27
 70
     1
  0
ENDSEC
  0
EOF
