  0
SECTION
  2
HEADER
  9
$ACADVER
  1
AC1015
  9
$ACADMAINTVER
 70
    20
  9
$DWGCODEPAGE
  3
ANSI_1252
  9
$INSBASE
 10
0.0
 20
0.0
 30
0.0
  9
$EXTMIN
 10
893.8124449679573
 20
1467.198506643438
 30
0.0
  9
$EXTMAX
 10
898.137575672367
 20
1467.740440383533
 30
0.0
  9
$LIMMIN
 10
0.0
 20
0.0
  9
$LIMMAX
 10
420.0
 20
297.0
  9
$ORTHOMODE
 70
     0
  9
$REGENMODE
 70
     1
  9
$FILLMODE
 70
     1
  9
$QTEXTMODE
 70
     0
  9
$MIRRTEXT
 70
     0
  9
$LTSCALE
 40
1.0
  9
$ATTMODE
 70
     1
  9
$TEXTSIZE
 40
2.5
  9
$TRACEWID
 40
1.0
  9
$TEXTSTYLE
  7
Standard
  9
$CLAYER
  8
0
  9
$CELTYPE
  6
ByLayer
  9
$CECOLOR
 62
   256
  9
$CELTSCALE
 40
1.0
  9
$DISPSILH
 70
     0
  9
$DIMSCALE
 40
1.0
  9
$DIMASZ
 40
2.5
  9
$DIMEXO
 40
0.625
  9
$DIMDLI
 40
3.75
  9
$DIMRND
 40
0.0
  9
$DIMDLE
 40
0.0
  9
$DIMEXE
 40
1.25
  9
$DIMTP
 40
0.0
  9
$DIMTM
 40
0.0
  9
$DIMTXT
 40
2.5
  9
$DIMCEN
 40
2.5
  9
$DIMTSZ
 40
0.0
  9
$DIMTOL
 70
     0
  9
$DIMLIM
 70
     0
  9
$DIMTIH
 70
     0
  9
$DIMTOH
 70
     0
  9
$DIMSE1
 70
     0
  9
$DIMSE2
 70
     0
  9
$DIMTAD
 70
     1
  9
$DIMZIN
 70
     8
  9
$DIMBLK
  1

  9
$DIMASO
 70
     1
  9
$DIMSHO
 70
     1
  9
$DIMPOST
  1

  9
$DIMAPOST
  1

  9
$DIMALT
 70
     0
  9
$DIMALTD
 70
     3
  9
$DIMALTF
 40
0.03937007874016
  9
$DIMLFAC
 40
1.0
  9
$DIMTOFL
 70
     1
  9
$DIMTVP
 40
0.0
  9
$DIMTIX
 70
     0
  9
$DIMSOXD
 70
     0
  9
$DIMSAH
 70
     0
  9
$DIMBLK1
  1

  9
$DIMBLK2
  1

  9
$DIMSTYLE
  2
ISO-25
  9
$DIMCLRD
 70
     0
  9
$DIMCLRE
 70
     0
  9
$DIMCLRT
 70
     0
  9
$DIMTFAC
 40
1.0
  9
$DIMGAP
 40
0.625
  9
$DIMJUST
 70
     0
  9
$DIMSD1
 70
     0
  9
$DIMSD2
 70
     0
  9
$DIMTOLJ
 70
     0
  9
$DIMTZIN
 70
     8
  9
$DIMALTZ
 70
     0
  9
$DIMALTTZ
 70
     0
  9
$DIMUPT
 70
     0
  9
$DIMDEC
 70
     2
  9
$DIMTDEC
 70
     2
  9
$DIMALTU
 70
     2
  9
$DIMALTTD
 70
     3
  9
$DIMTXSTY
  7
Standard
  9
$DIMAUNIT
 70
     0
  9
$DIMADEC
 70
     0
  9
$DIMALTRND
 40
0.0
  9
$DIMAZIN
 70
     0
  9
$DIMDSEP
 70
    44
  9
$DIMATFIT
 70
     3
  9
$DIMFRAC
 70
     0
  9
$DIMLDRBLK
  1

  9
$DIMLUNIT
 70
     2
  9
$DIMLWD
 70
    -2
  9
$DIMLWE
 70
    -2
  9
$DIMTMOVE
 70
     0
  9
$LUNITS
 70
     2
  9
$LUPREC
 70
     4
  9
$SKETCHINC
 40
1.0
  9
$FILLETRAD
 40
0.0
  9
$AUNITS
 70
     0
  9
$AUPREC
 70
     0
  9
$MENU
  1
.
  9
$ELEVATION
 40
0.0
  9
$PELEVATION
 40
0.0
  9
$THICKNESS
 40
0.0
  9
$LIMCHECK
 70
     0
  9
$CHAMFERA
 40
0.0
  9
$CHAMFERB
 40
0.0
  9
$CHAMFERC
 40
0.0
  9
$CHAMFERD
 40
0.0
  9
$SKPOLY
 70
     0
  9
$TDCREATE
 40
2453805.538244352
  9
$TDUCREATE
 40
2453805.496577686
  9
$TDUPDATE
 40
2456146.512536701
  9
$TDUUPDATE
 40
2456146.470870035
  9
$TDINDWG
 40
0.0047233102
  9
$TDUSRTIMER
 40
0.0047231250
  9
$USRTIMER
 70
     1
  9
$ANGBASE
 50
0.0
  9
$ANGDIR
 70
     0
  9
$PDMODE
 70
     0
  9
$PDSIZE
 40
0.0
  9
$PLINEWID
 40
0.0
  9
$SPLFRAME
 70
     0
  9
$SPLINETYPE
 70
     6
  9
$SPLINESEGS
 70
     8
  9
$HANDSEED
  5
FA9
  9
$SURFTAB1
 70
     6
  9
$SURFTAB2
 70
     6
  9
$SURFTYPE
 70
     6
  9
$SURFU
 70
     6
  9
$SURFV
 70
     6
  9
$UCSBASE
  2

  9
$UCSNAME
  2

  9
$UCSORG
 10
0.0
 20
0.0
 30
0.0
  9
$UCSXDIR
 10
1.0
 20
0.0
 30
0.0
  9
$UCSYDIR
 10
0.0
 20
1.0
 30
0.0
  9
$UCSORTHOREF
  2

  9
$UCSORTHOVIEW
 70
     0
  9
$UCSORGTOP
 10
0.0
 20
0.0
 30
0.0
  9
$UCSORGBOTTOM
 10
0.0
 20
0.0
 30
0.0
  9
$UCSORGLEFT
 10
0.0
 20
0.0
 30
0.0
  9
$UCSORGRIGHT
 10
0.0
 20
0.0
 30
0.0
  9
$UCSORGFRONT
 10
0.0
 20
0.0
 30
0.0
  9
$UCSORGBACK
 10
0.0
 20
0.0
 30
0.0
  9
$PUCSBASE
  2

  9
$PUCSNAME
  2

  9
$PUCSORG
 10
0.0
 20
0.0
 30
0.0
  9
$PUCSXDIR
 10
1.0
 20
0.0
 30
0.0
  9
$PUCSYDIR
 10
0.0
 20
1.0
 30
0.0
  9
$PUCSORTHOREF
  2

  9
$PUCSORTHOVIEW
 70
     0
  9
$PUCSORGTOP
 10
0.0
 20
0.0
 30
0.0
  9
$PUCSORGBOTTOM
 10
0.0
 20
0.0
 30
0.0
  9
$PUCSORGLEFT
 10
0.0
 20
0.0
 30
0.0
  9
$PUCSORGRIGHT
 10
0.0
 20
0.0
 30
0.0
  9
$PUCSORGFRONT
 10
0.0
 20
0.0
 30
0.0
  9
$PUCSORGBACK
 10
0.0
 20
0.0
 30
0.0
  9
$USERI1
 70
     0
  9
$USERI2
 70
     0
  9
$USERI3
 70
     0
  9
$USERI4
 70
     0
  9
$USERI5
 70
     0
  9
$USERR1
 40
0.0
  9
$USERR2
 40
0.0
  9
$USERR3
 40
0.0
  9
$USERR4
 40
0.0
  9
$USERR5
 40
0.0
  9
$WORLDVIEW
 70
     1
  9
$SHADEDGE
 70
     3
  9
$SHADEDIF
 70
    70
  9
$TILEMODE
 70
     1
  9
$MAXACTVP
 70
    64
  9
$PINSBASE
 10
0.0
 20
0.0
 30
0.0
  9
$PLIMCHECK
 70
     0
  9
$PEXTMIN
 10
1.000000000000000E+20
 20
1.000000000000000E+20
 30
1.000000000000000E+20
  9
$PEXTMAX
 10
-1.000000000000000E+20
 20
-1.000000000000000E+20
 30
-1.000000000000000E+20
  9
$PLIMMIN
 10
0.0
 20
0.0
  9
$PLIMMAX
 10
420.0
 20
297.0
  9
$UNITMODE
 70
     0
  9
$VISRETAIN
 70
     1
  9
$PLINEGEN
 70
     0
  9
$PSLTSCALE
 70
     1
  9
$TREEDEPTH
 70
  3020
  9
$CMLSTYLE
  2
Standard
  9
$CMLJUST
 70
     0
  9
$CMLSCALE
 40
20.0
  9
$PROXYGRAPHICS
 70
     1
  9
$MEASUREMENT
 70
     1
  9
$CELWEIGHT
370
    -1
  9
$ENDCAPS
280
     0
  9
$JOINSTYLE
280
     0
  9
$LWDISPLAY
290
     0
  9
$INSUNITS
 70
     4
  9
$HYPERLINKBASE
  1

  9
$STYLESHEET
  1

  9
$XEDIT
290
     1
  9
$CEPSNTYPE
380
     0
  9
$PSTYLEMODE
290
     1
  9
$FINGERPRINTGUID
  2
{D606CA40-1492-4BA8-B933-7AF3D4E036B9}
  9
$VERSIONGUID
  2
{C4B4F207-824F-4E23-A7D3-7A7FF35AB3DC}
  9
$EXTNAMES
290
     1
  9
$PSVPSCALE
 40
0.0
  9
$OLESTARTUP
290
     0
  0
ENDSEC
  0
SECTION
  2
CLASSES
  0
CLASS
  1
ACDBDICTIONARYWDFLT
  2
AcDbDictionaryWithDefault
  3
ObjectDBX Classes
 90
        0
280
     0
281
     0
  0
CLASS
  1
TABLESTYLE
  2
AcDbTableStyle
  3
ObjectDBX Classes
 90
     4095
280
     0
281
     0
  0
CLASS
  1
DIMASSOC
  2
AcDbDimAssoc
  3
"AcDbDimAssoc|Product Desc:     AcDim ARX App For Dimension|Company:          Autodesk, Inc.|WEB Address:      www.autodesk.com"
 90
    32768
280
     0
281
     0
  0
CLASS
  1
SORTENTSTABLE
  2
AcDbSortentsTable
  3
ObjectDBX Classes
 90
    32768
280
     0
281
     0
  0
CLASS
  1
DICTIONARYVAR
  2
AcDbDictionaryVar
  3
ObjectDBX Classes
 90
        0
280
     0
281
     0
  0
CLASS
  1
ACDBPLACEHOLDER
  2
AcDbPlaceHolder
  3
ObjectDBX Classes
 90
        0
280
     0
281
     0
  0
CLASS
  1
LAYOUT
  2
AcDbLayout
  3
ObjectDBX Classes
 90
        0
280
     0
281
     0
  0
CLASS
  1
MATERIAL
  2
AcDbMaterial
  3
ObjectDBX Classes
 90
     1153
280
     0
281
     0
  0
CLASS
  1
VISUALSTYLE
  2
AcDbVisualStyle
  3
ObjectDBX Classes
 90
     4095
280
     0
281
     0
  0
CLASS
  1
SCALE
  2
AcDbScale
  3
ObjectDBX Classes
 90
     1153
280
     0
281
     0
  0
CLASS
  1
MLEADERSTYLE
  2
AcDbMLeaderStyle
  3
ACDB_MLEADERSTYLE_CLASS
 90
     4095
280
     0
281
     0
  0
CLASS
  1
CELLSTYLEMAP
  2
AcDbCellStyleMap
  3
ObjectDBX Classes
 90
     1152
280
     0
281
     0
  0
ENDSEC
  0
SECTION
  2
TABLES
  0
TABLE
  2
VPORT
  5
8
330
0
100
AcDbSymbolTable
 70
     1
  0
VPORT
  5
E75
330
8
100
AcDbSymbolTableRecord
100
AcDbViewportTableRecord
  2
*Active
 70
     0
 10
0.0
 20
0.0
 11
1.0
 21
1.0
 12
896.0564677958178
 22
1467.469473513485
 13
0.0
 23
0.0
 14
10.0
 24
10.0
 15
10.0
 25
10.0
 16
0.0
 26
0.0
 36
1.0
 17
0.0
 27
0.0
 37
0.0
 40
2.73751003241749
 41
1.645464025026068
 42
50.0
 43
0.0
 44
0.0
 50
0.0
 51
0.0
 71
     0
 72
  1000
 73
     1
 74
     3
 75
     0
 76
     0
 77
     0
 78
     0
281
     0
 65
     1
110
0.0
120
0.0
130
0.0
111
1.0
121
0.0
131
0.0
112
0.0
122
1.0
132
0.0
 79
     0
146
0.0
  0
ENDTAB
  0
TABLE
  2
LTYPE
  5
5
330
0
100
AcDbSymbolTable
 70
     3
  0
LTYPE
  5
14
330
5
100
AcDbSymbolTableRecord
100
AcDbLinetypeTableRecord
  2
ByBlock
 70
     0
  3

 72
    65
 73
     0
 40
0.0
  0
LTYPE
  5
15
330
5
100
AcDbSymbolTableRecord
100
AcDbLinetypeTableRecord
  2
ByLayer
 70
     0
  3

 72
    65
 73
     0
 40
0.0
  0
LTYPE
  5
16
330
5
100
AcDbSymbolTableRecord
100
AcDbLinetypeTableRecord
  2
Continuous
 70
     0
  3
Solid line
 72
    65
 73
     0
 40
0.0
  0
LTYPE
  5
2B8
330
5
100
AcDbSymbolTableRecord
100
AcDbLinetypeTableRecord
  2
DASHDOT
 70
     0
  3
Dash dot __ . __ . __ . __ . __ . __ . __ . __
 72
    65
 73
     4
 40
25.4
 49
12.7
 74
     0
 49
-6.349999999999999
 74
     0
 49
0.0
 74
     0
 49
-6.349999999999999
 74
     0
  0
LTYPE
  5
2B9
330
5
100
AcDbSymbolTableRecord
100
AcDbLinetypeTableRecord
  2
HIDDEN
 70
     0
  3
Hidden __ __ __ __ __ __ __ __ __ __ __ __ __ _
 72
    65
 73
     2
 40
9.524999999999998
 49
6.349999999999999
 74
     0
 49
-3.174999999999999
 74
     0
  0
ENDTAB
  0
TABLE
  2
LAYER
  5
2
330
0
100
AcDbSymbolTable
 70
    10
  0
LAYER
  5
10
102
{ACAD_XDICTIONARY
360
EC5
102
}
330
2
100
AcDbSymbolTableRecord
100
AcDbLayerTableRecord
  2
0
 70
     0
 62
     7
  6
Continuous
370
    -3
390
F
  0
LAYER
  5
2BA
102
{ACAD_XDICTIONARY
360
EC7
102
}
330
2
100
AcDbSymbolTableRecord
100
AcDbLayerTableRecord
  2
2
 70
     0
 62
     2
  6
Continuous
370
    -3
390
F
  0
LAYER
  5
2BB
102
{ACAD_XDICTIONARY
360
EC9
102
}
330
2
100
AcDbSymbolTableRecord
100
AcDbLayerTableRecord
  2
4
 70
     0
 62
     4
  6
Continuous
370
    -3
390
F
  0
LAYER
  5
2BC
102
{ACAD_XDICTIONARY
360
ECB
102
}
330
2
100
AcDbSymbolTableRecord
100
AcDbLayerTableRecord
  2
cen
 70
     0
 62
     7
  6
DASHDOT
370
    -3
390
F
  0
LAYER
  5
2BD
102
{ACAD_XDICTIONARY
360
ECD
102
}
330
2
100
AcDbSymbolTableRecord
100
AcDbLayerTableRecord
  2
hid
 70
     0
 62
     7
  6
HIDDEN
370
    -3
390
F
  0
LAYER
  5
2BE
102
{ACAD_XDICTIONARY
360
ECF
102
}
330
2
100
AcDbSymbolTableRecord
100
AcDbLayerTableRecord
  2
hatch
 70
     0
 62
     9
  6
Continuous
370
    -3
390
F
  0
LAYER
  5
2BF
102
{ACAD_XDICTIONARY
360
ED1
102
}
330
2
100
AcDbSymbolTableRecord
100
AcDbLayerTableRecord
  2
9
 70
     0
 62
     9
  6
Continuous
370
    -3
390
F
  0
LAYER
  5
2C0
102
{ACAD_XDICTIONARY
360
ED3
102
}
330
2
100
AcDbSymbolTableRecord
100
AcDbLayerTableRecord
  2
cotas
 70
     0
 62
     1
  6
Continuous
370
    -3
390
F
  0
LAYER
  5
2C1
330
2
100
AcDbSymbolTableRecord
100
AcDbLayerTableRecord
  2
Defpoints
 70
     0
 62
     7
  6
Continuous
290
     0
370
    -3
390
F
  0
LAYER
  5
2C2
102
{ACAD_XDICTIONARY
360
ED5
102
}
330
2
100
AcDbSymbolTableRecord
100
AcDbLayerTableRecord
  2
SANINDUSA
 70
     0
 62
     3
  6
Continuous
370
    -3
390
F
  0
ENDTAB
  0
TABLE
  2
STYLE
  5
3
330
0
100
AcDbSymbolTable
 70
     2
  0
STYLE
  5
11
330
3
100
AcDbSymbolTableRecord
100
AcDbTextStyleTableRecord
  2
Standard
 70
     0
 40
0.0
 41
1.0
 50
0.0
 71
     0
 42
2.5
  3
txt
  4

  0
STYLE
  5
2C3
330
3
100
AcDbSymbolTableRecord
100
AcDbTextStyleTableRecord
  2
SANINDUSA
 70
     0
 40
0.0
 41
1.0
 50
0.0
 71
     0
 42
2.5
  3
verdana.TTF
  4

1001
ACAD
1000
Verdana
1071
       34
  0
ENDTAB
  0
TABLE
  2
VIEW
  5
6
330
0
100
AcDbSymbolTable
 70
     0
  0
ENDTAB
  0
TABLE
  2
UCS
  5
7
330
0
100
AcDbSymbolTable
 70
     0
  0
ENDTAB
  0
TABLE
  2
APPID
  5
9
330
0
100
AcDbSymbolTable
 70
     7
  0
APPID
  5
12
330
9
100
AcDbSymbolTableRecord
100
AcDbRegAppTableRecord
  2
ACAD
 70
     0
  0
APPID
  5
2C5
330
9
100
AcDbSymbolTableRecord
100
AcDbRegAppTableRecord
  2
ACAD_DSTYLE_DIMEXT_LENGTH
 70
     0
  0
APPID
  5
2C6
330
9
100
AcDbSymbolTableRecord
100
AcDbRegAppTableRecord
  2
ACAD_DSTYLE_DIMEXT_ENABLED
 70
     0
  0
APPID
  5
2C7
330
9
100
AcDbSymbolTableRecord
100
AcDbRegAppTableRecord
  2
ACAD_DSTYLE_DIMJOGGED_JOGANGLE_SYMBOL
 70
     0
  0
APPID
  5
2C8
330
9
100
AcDbSymbolTableRecord
100
AcDbRegAppTableRecord
  2
ACAD_DSTYLE_DIMARC_LENGTH_SYMBOL
 70
     0
  0
APPID
  5
2C9
330
9
100
AcDbSymbolTableRecord
100
AcDbRegAppTableRecord
  2
ACAD_PSEXT
 70
     0
  0
APPID
  5
FA8
330
9
100
AcDbSymbolTableRecord
100
AcDbRegAppTableRecord
  2
ACAD_MLEADERVER
 70
     0
  0
ENDTAB
  0
TABLE
  2
DIMSTYLE
  5
A
330
0
100
AcDbSymbolTable
 70
     2
100
AcDbDimStyleTable
 71
     1
340
2B
  0
DIMSTYLE
105
2B
330
A
100
AcDbSymbolTableRecord
100
AcDbDimStyleTableRecord
  2
ISO-25
 70
     0
 41
2.5
 42
0.625
 43
3.75
 44
1.25
 73
     0
 74
     0
 77
     1
 78
     8
140
2.5
141
2.5
143
0.03937007874016
147
0.625
171
     3
172
     1
271
     2
272
     2
274
     3
278
    44
283
     0
284
     8
340
11
  0
DIMSTYLE
105
2C4
330
A
100
AcDbSymbolTableRecord
100
AcDbDimStyleTableRecord
  2
SANINDUSA
 70
     0
 40
5.0
 41
2.0
 42
1.0
 43
1.0
 44
1.0
 73
     0
 74
     0
 77
     1
 78
     8
140
2.0
141
0.0
143
0.03937007874016
147
1.0
171
     3
172
     1
176
   256
177
   256
178
   256
179
     1
271
     1
272
     1
274
     3
278
    44
283
     0
284
     8
340
2C3
371
    -1
372
    -1
1001
ACAD_DSTYLE_DIMJOGGED_JOGANGLE_SYMBOL
1070
   384
1040
1.570796326794896
  0
ENDTAB
  0
TABLE
  2
BLOCK_RECORD
  5
1
330
0
100
AcDbSymbolTable
 70
   113
  0
BLOCK_RECORD
  5
23
330
1
100
AcDbSymbolTableRecord
100
AcDbBlockTableRecord
  2
*Model_Space
340
26
  0
BLOCK_RECORD
  5
1F
330
1
100
AcDbSymbolTableRecord
100
AcDbBlockTableRecord
  2
*Paper_Space
340
22
  0
BLOCK_RECORD
  5
27
330
1
100
AcDbSymbolTableRecord
100
AcDbBlockTableRecord
  2
*Paper_Space0
340
2A
  0
BLOCK_RECORD
  5
2F
330
1
100
AcDbSymbolTableRecord
100
AcDbBlockTableRecord
  2
_DotSmall
340
0
  0
BLOCK_RECORD
  5
27B
330
1
100
AcDbSymbolTableRecord
100
AcDbBlockTableRecord
  2
_ClosedBlank
340
0
102
{BLKREFS
331
28A
331
C5D
102
}
  0
ENDTAB
  0
ENDSEC
  0
SECTION
  2
BLOCKS
  0
BLOCK
  5
24
330
23
100
AcDbEntity
  8
0
100
AcDbBlockBegin
  2
*Model_Space
 70
     0
 10
0.0
 20
0.0
 30
0.0
  3
*Model_Space
  1

  0
ENDBLK
  5
25
330
23
100
AcDbEntity
  8
0
100
AcDbBlockEnd
  0
BLOCK
  5
20
330
1F
100
AcDbEntity
 67
     1
  8
0
100
AcDbBlockBegin
  2
*Paper_Space
 70
     0
 10
0.0
 20
0.0
 30
0.0
  3
*Paper_Space
  1

  0
ENDBLK
  5
21
330
1F
100
AcDbEntity
 67
     1
  8
0
100
AcDbBlockEnd
  0
BLOCK
  5
28
330
27
100
AcDbEntity
 67
     1
  8
0
100
AcDbBlockBegin
  2
*Paper_Space0
 70
     0
 10
0.0
 20
0.0
 30
0.0
  3
*Paper_Space0
  1

  0
ENDBLK
  5
29
330
27
100
AcDbEntity
 67
     1
  8
0
100
AcDbBlockEnd
  0
BLOCK
  5
30
330
2F
100
AcDbEntity
  8
0
100
AcDbBlockBegin
  2
_DotSmall
 70
     0
 10
0.0
 20
0.0
 30
0.0
  3
_DotSmall
  1

  0
LWPOLYLINE
  5
31
330
2F
100
AcDbEntity
  8
0
  6
ByBlock
 62
     0
100
AcDbPolyline
 90
        2
 70
     1
 43
0.5
 10
-0.0625
 20
0.0
 42
1.0
 10
0.0625
 20
0.0
 42
1.0
  0
ENDBLK
  5
32
330
2F
100
AcDbEntity
  8
0
100
AcDbBlockEnd
  0
BLOCK
  5
27C
330
27B
100
AcDbEntity
  8
0
100
AcDbBlockBegin
  2
_ClosedBlank
 70
     0
 10
0.0
 20
0.0
 30
0.0
  3
_ClosedBlank
  1

  0
LINE
  5
27D
330
27B
100
AcDbEntity
  8
0
  6
ByBlock
 62
     0
370
    -2
100
AcDbLine
 10
-1.0
 20
0.1666666666666666
 30
0.0
 11
0.0
 21
0.0
 31
0.0
  0
LINE
  5
27E
330
27B
100
AcDbEntity
  8
0
  6
ByBlock
 62
     0
370
    -2
100
AcDbLine
 10
0.0
 20
0.0
 30
0.0
 11
-1.0
 21
-0.1666666666666666
 31
0.0
  0
LINE
  5
27F
330
27B
100
AcDbEntity
  8
0
  6
ByBlock
 62
     0
370
    -2
100
AcDbLine
 10
-1.0
 20
0.1666666666666666
 30
0.0
 11
-1.0
 21
-0.1666666666666666
 31
0.0
  0
ENDBLK
  5
280
330
27B
100
AcDbEntity
  8
0
100
AcDbBlockEnd
  0
ENDSEC
  0
SECTION
  2
ENTITIES
  0
ARC
  5
699
330
23
100
AcDbEntity
  8
SANINDUSA
100
AcDbCircle
 10
898.1507900469322
 20
1404.762518005575
 30
0.0
 40
62.82842583486119
100
AcDbArc
 50
90.04069387440488
 51
90.30670534290273
  0
LINE
  5
69A
330
23
100
AcDbEntity
  8
SANINDUSA
100
AcDbLine
 10
895.8702802265278
 20
1467.389398332947
 30
0.0
 11
895.8021128888757
 21
1467.389398332947
 31
0.0
  0
ARC
  5
6A4
330
23
100
AcDbEntity
  8
SANINDUSA
100
AcDbCircle
 10
897.6012403025967
 20
1467.605398332948
 30
0.0
 40
0.0060000000000002
100
AcDbArc
 50
90.0
 51
180.0
  0
ARC
  5
6A6
330
23
100
AcDbEntity
  8
SANINDUSA
100
AcDbCircle
 10
896.8349289146104
 20
1467.605398332948
 30
0.0
 40
0.0059999999999999
100
AcDbArc
 50
90.0
 51
180.0
  0
ARC
  5
728
330
23
100
AcDbEntity
  8
SANINDUSA
100
AcDbCircle
 10
894.3610165848802
 20
1467.520662267178
 30
0.0
 40
0.3221587890303184
100
AcDbArc
 50
270.2539859916612
 51
319.1505367365636
  0
ARC
  5
729
330
23
100
AcDbEntity
  8
SANINDUSA
100
AcDbCircle
 10
894.363888728529
 20
1467.520743184423
 30
0.0
 40
0.3222389340075686
100
AcDbArc
 50
220.8584176746063
 51
269.7433315762165
  0
ARC
  5
72A
330
23
100
AcDbEntity
  8
SANINDUSA
100
AcDbCircle
 10
894.04523598413
 20
1467.245362895594
 30
0.0
 40
0.0988734087907641
100
AcDbArc
 50
40.75400330378886
 51
57.38951068670385
  0
ARC
  5
72B
330
23
100
AcDbEntity
  8
SANINDUSA
100
AcDbCircle
 10
894.6784073452647
 20
1467.246815226559
 30
0.0
 40
0.0969576615871468
100
AcDbArc
 50
122.4519880759044
 51
139.4175759196001
  0
ARC
  5
72C
330
23
100
AcDbEntity
  8
SANINDUSA
100
AcDbCircle
 10
894.6727886589163
 20
1467.258797726793
 30
0.0
 40
0.0838590901597672
100
AcDbArc
 50
117.9386219562099
 51
123.6042194488687
  0
ARC
  5
72D
330
23
100
AcDbEntity
  8
SANINDUSA
100
AcDbCircle
 10
894.0439783532456
 20
1467.245354224295
 30
0.0
 40
0.0995616841319232
100
AcDbArc
 50
56.78346033655603
 51
61.55610693391791
  0
ARC
  5
72E
330
23
100
AcDbEntity
  8
SANINDUSA
100
AcDbCircle
 10
894.0454562444351
 20
1467.249670346596
 30
0.0
 40
0.0949110477330389
100
AcDbArc
 50
61.09869764457546
 51
71.59677782163313
  0
ARC
  5
72F
330
23
100
AcDbEntity
  8
SANINDUSA
100
AcDbCircle
 10
894.6797240542272
 20
1467.249002418311
 30
0.0
 40
0.0956398758262911
100
AcDbArc
 50
108.5369196653243
 51
118.858079678511
  0
ARC
  5
732
330
23
100
AcDbEntity
  8
SANINDUSA
100
AcDbCircle
 10
894.8924449679575
 20
1467.720440383533
 30
0.0
 40
0.02
100
AcDbArc
 50
40.76890564108278
 51
90.0
  0
ARC
  5
738
330
23
100
AcDbEntity
  8
SANINDUSA
100
AcDbCircle
 10
893.8324449679573
 20
1467.720440383533
 30
0.0
 40
0.02
100
AcDbArc
 50
90.0
 51
139.2310943589172
  0
LINE
  5
73A
330
23
100
AcDbEntity
  8
SANINDUSA
100
AcDbLine
 10
893.8324449679573
 20
1467.740440383533
 30
0.0
 11
894.8924449679575
 21
1467.740440383533
 31
0.0
  0
ARC
  5
73D
330
23
100
AcDbEntity
  8
SANINDUSA
100
AcDbCircle
 10
894.8924449679575
 20
1467.720440383532
 30
0.0
 40
0.0200000000000146
100
AcDbArc
 50
26.80652440199374
 51
40.76890564108278
  0
ARC
  5
742
330
23
100
AcDbEntity
  8
SANINDUSA
100
AcDbCircle
 10
893.8324449679573
 20
1467.720440383533
 30
0.0
 40
0.019999999999846
100
AcDbArc
 50
139.2310943589172
 51
153.1934755980062
  0
ARC
  5
745
330
23
100
AcDbEntity
  8
SANINDUSA
100
AcDbCircle
 10
893.8324449679573
 20
1467.720440383533
 30
0.0
 40
0.0199999999999846
100
AcDbArc
 50
153.1934755980062
 51
180.0
  0
ARC
  5
746
330
23
100
AcDbEntity
  8
SANINDUSA
100
AcDbCircle
 10
894.8924449679577
 20
1467.720440383533
 30
0.0
 40
0.0199999999997044
100
AcDbArc
 50
0.0
 51
26.80652440199374
  0
LINE
  5
74A
330
23
100
AcDbEntity
  8
SANINDUSA
100
AcDbLine
 10
893.8184449679573
 20
1467.713369315721
 30
0.0
 11
894.9064449679575
 21
1467.713369315721
 31
0.0
  0
LINE
  5
74F
330
23
100
AcDbEntity
  8
SANINDUSA
100
AcDbLine
 10
894.9124449679574
 20
1467.720440383533
 30
0.0
 11
894.9124449679574
 21
1467.717611956408
 31
0.0
  0
LWPOLYLINE
  5
750
330
23
100
AcDbEntity
  8
SANINDUSA
100
AcDbPolyline
 90
        9
 70
   128
 43
0.0
 10
894.9064449679575
 20
1467.713369315721
 10
894.9076155098895
 20
1467.713450836872
 10
894.9087410685516
 20
1467.713692267513
 10
894.9097783893556
 20
1467.714084329601
 10
894.9106876086446
 20
1467.714611956408
 10
894.9114337856311
 20
1467.715254871533
 10
894.9119882451524
 20
1467.715988368107
 10
894.9123296796399
 20
1467.71678425827
 10
894.9124449679574
 20
1467.717611956408
  0
LWPOLYLINE
  5
751
330
23
100
AcDbEntity
  8
SANINDUSA
100
AcDbPolyline
 90
        9
 70
   128
 43
0.0
 10
893.8184449679573
 20
1467.713369315721
 10
893.8172744260253
 20
1467.713450836872
 10
893.8161488673632
 20
1467.713692267513
 10
893.8151115465592
 20
1467.714084329601
 10
893.8142023272703
 20
1467.714611956408
 10
893.8134561502836
 20
1467.715254871533
 10
893.8129016907623
 20
1467.715988368107
 10
893.8125602562749
 20
1467.71678425827
 10
893.8124449679573
 20
1467.717611956408
  0
LINE
  5
752
330
23
100
AcDbEntity
  8
SANINDUSA
100
AcDbLine
 10
893.8124449679573
 20
1467.720440383533
 30
0.0
 11
893.8124449679573
 21
1467.717611956408
 31
0.0
  0
LINE
  5
755
330
23
100
AcDbEntity
  8
SANINDUSA
100
AcDbLine
 10
893.8124449679573
 20
1467.717611956408
 30
0.0
 11
893.8124449679573
 21
1467.706298247909
 31
0.0
  0
LINE
  5
756
330
23
100
AcDbEntity
  8
SANINDUSA
100
AcDbLine
 10
894.9124449679574
 20
1467.717611956408
 30
0.0
 11
894.9124449679574
 21
1467.706298247909
 31
0.0
  0
LWPOLYLINE
  5
75E
330
23
100
AcDbEntity
  8
SANINDUSA
100
AcDbPolyline
 90
        6
 70
   128
 43
0.0
 10
894.5736665002282
 20
1467.579241773163
 10
894.5770907101511
 20
1467.578705089623
 10
894.5873944870394
 20
1467.577534134957
 10
894.5978919268224
 20
1467.576693958751
 10
894.6054865324231
 20
1467.575921534934
 10
894.6131238606566
 20
1467.574817875232
  0
ARC
  5
75F
330
23
100
AcDbEntity
  8
SANINDUSA
100
AcDbCircle
 10
894.3624449679575
 20
1466.505948313875
 30
0.0
 40
1.093879968481041
100
AcDbArc
 50
78.86660490452543
 51
101.1333950954745
  0
LWPOLYLINE
  5
760
330
23
100
AcDbEntity
  8
SANINDUSA
100
AcDbPolyline
 90
        6
 70
   128
 43
0.0
 10
894.1512234356865
 20
1467.579241773163
 10
894.1477992257636
 20
1467.578705089623
 10
894.1374954488754
 20
1467.577534134957
 10
894.1269980090925
 20
1467.576693958751
 10
894.1194034034916
 20
1467.575921534934
 10
894.1117660752579
 20
1467.574817875232
  0
LWPOLYLINE
  5
761
330
23
100
AcDbEntity
  8
SANINDUSA
100
AcDbPolyline
 90
        6
 70
   128
 43
0.0
 10
894.1117660761094
 20
1467.574817868131
 10
894.087785876737
 20
1467.570946887228
 10
894.0803536050905
 20
1467.56995468617
 10
894.0728727727899
 20
1467.569315038258
 10
894.0708624677013
 20
1467.569303699298
 10
894.0688463365162
 20
1467.569509678408
  0
LWPOLYLINE
  5
762
330
23
100
AcDbEntity
  8
SANINDUSA
100
AcDbPolyline
 90
        6
 70
   128
 43
0.0
 10
894.0688463365162
 20
1467.569509678408
 10
894.0663430258355
 20
1467.570056943297
 10
894.0650865953509
 20
1467.570334543369
 10
894.0638117764967
 20
1467.570617265893
 10
894.0637982843323
 20
1467.570620261235
 10
894.0637455017853
 20
1467.570631979627
  0
ARC
  5
763
330
23
100
AcDbEntity
  8
SANINDUSA
100
AcDbCircle
 10
894.3624449679575
 20
1466.505948313875
 30
0.0
 40
1.105790522300737
100
AcDbArc
 50
74.328413109622
 51
105.671586890378
  0
LWPOLYLINE
  5
764
330
23
100
AcDbEntity
  8
SANINDUSA
100
AcDbPolyline
 90
        6
 70
   128
 43
0.0
 10
894.6560435993985
 20
1467.569509678408
 10
894.6585469100792
 20
1467.570056943297
 10
894.6598033405638
 20
1467.570334543369
 10
894.6610781594182
 20
1467.570617265893
 10
894.6610916515824
 20
1467.570620261235
 10
894.6611444341295
 20
1467.570631979627
  0
LWPOLYLINE
  5
765
330
23
100
AcDbEntity
  8
SANINDUSA
100
AcDbPolyline
 90
        6
 70
   128
 43
0.0
 10
894.6131238598054
 20
1467.574817868131
 10
894.6371040591778
 20
1467.570946887228
 10
894.6445363308242
 20
1467.56995468617
 10
894.6520171631247
 20
1467.569315038258
 10
894.6540274682135
 20
1467.569303699298
 10
894.6560435993985
 20
1467.569509678408
  0
LWPOLYLINE
  5
76F
330
23
100
AcDbEntity
  8
SANINDUSA
100
AcDbPolyline
 90
       18
 70
   128
 43
0.0
 10
894.0637455017853
 20
1467.570631979627
 10
894.0612067243609
 20
1467.565096205126
 10
894.0564619226057
 20
1467.553004090913
 10
894.0525927561486
 20
1467.540551509728
 10
894.0495709115255
 20
1467.527828537676
 10
894.0473680752717
 20
1467.514925250859
 10
894.0459559339227
 20
1467.501931725381
 10
894.0453061740141
 20
1467.488938037345
 10
894.0455491945291
 20
1467.474000516765
 10
894.0468737682436
 20
1467.459061642372
 10
894.0492140056591
 20
1467.44420546326
 10
894.0525040172772
 20
1467.429516028522
 10
894.0566779135991
 20
1467.41507738725
 10
894.0616698051266
 20
1467.400973588537
 10
894.0685116367689
 20
1467.384636207903
 10
894.0762502748695
 20
1467.368674258734
 10
894.084850382068
 20
1467.353159681409
 10
894.094276621004
 20
1467.338164416309
  0
LWPOLYLINE
  5
771
330
23
100
AcDbEntity
  8
SANINDUSA
100
AcDbPolyline
 90
       18
 70
   128
 43
0.0
 10
894.6611444341295
 20
1467.570631979627
 10
894.6636832115538
 20
1467.565096205126
 10
894.6684280133093
 20
1467.553004090913
 10
894.6722971797662
 20
1467.540551509728
 10
894.6753190243894
 20
1467.527828537676
 10
894.6775218606431
 20
1467.514925250859
 10
894.678934001992
 20
1467.501931725381
 10
894.6795837619006
 20
1467.488938037345
 10
894.6793407413856
 20
1467.474000516765
 10
894.6780161676711
 20
1467.459061642372
 10
894.6756759302557
 20
1467.44420546326
 10
894.6723859186377
 20
1467.429516028522
 10
894.6682120223156
 20
1467.41507738725
 10
894.6632201307881
 20
1467.400973588537
 10
894.6563782991459
 20
1467.384636207903
 10
894.6486396610454
 20
1467.368674258734
 10
894.6400395538468
 20
1467.353159681409
 10
894.6306133149107
 20
1467.338164416309
  0
ARC
  5
77E
330
23
100
AcDbEntity
  8
SANINDUSA
100
AcDbCircle
 10
894.6824188529268
 20
1467.244504826582
 30
0.0
 40
0.1009357544817051
100
AcDbArc
 50
89.88664694879245
 51
109.1730663248138
  0
ARC
  5
77F
330
23
100
AcDbEntity
  8
SANINDUSA
100
AcDbCircle
 10
894.0424922524179
 20
1467.244700205456
 30
0.0
 40
0.1007404201773614
100
AcDbArc
 50
70.89196674013368
 51
90.12561290969875
  0
LINE
  5
782
330
23
100
AcDbEntity
  8
SANINDUSA
100
AcDbLine
 10
893.8124449679573
 20
1467.706298247909
 30
0.0
 11
893.8124449679573
 21
1467.365440383533
 31
0.0
  0
LINE
  5
78C
330
23
100
AcDbEntity
  8
SANINDUSA
100
AcDbLine
 10
894.9124449679574
 20
1467.706298247909
 30
0.0
 11
894.9124449679574
 21
1467.365440383533
 31
0.0
  0
CIRCLE
  5
78D
330
23
100
AcDbEntity
  8
SANINDUSA
100
AcDbCircle
 10
894.3624449679575
 20
1467.665440383533
 30
0.0
 40
0.0175
  0
ARC
  5
78F
330
23
100
AcDbEntity
  8
SANINDUSA
100
AcDbCircle
 10
893.8324449679573
 20
1467.365440383533
 30
0.0
 40
0.02
100
AcDbArc
 50
180.0
 51
270.0
  0
ARC
  5
790
330
23
100
AcDbEntity
  8
SANINDUSA
100
AcDbCircle
 10
894.8924449679575
 20
1467.365440383533
 30
0.0
 40
0.02
100
AcDbArc
 50
270.0
 51
0.0
  0
LINE
  5
794
330
23
100
AcDbEntity
  8
SANINDUSA
100
AcDbLine
 10
894.8924449679575
 20
1467.345440383533
 30
0.0
 11
894.682618542475
 21
1467.345440383533
 31
0.0
  0
LINE
  5
795
330
23
100
AcDbEntity
  8
SANINDUSA
100
AcDbLine
 10
893.8324449679573
 20
1467.345440383533
 30
0.0
 11
894.0422713934399
 21
1467.345440383533
 31
0.0
  0
LWPOLYLINE
  5
798
330
23
100
AcDbEntity
  8
SANINDUSA
100
AcDbPolyline
 90
        3
 70
   128
 43
0.0
 10
894.6253369226552
 20
1467.519088288023
 10
894.624342465299
 20
1467.523237784503
 10
894.6229100718367
 20
1467.52730609085
  0
LWPOLYLINE
  5
79A
330
23
100
AcDbEntity
  8
SANINDUSA
100
AcDbPolyline
 90
        3
 70
   128
 43
0.0
 10
894.0995530132596
 20
1467.519088288023
 10
894.1005474706159
 20
1467.523237784503
 10
894.1019798640779
 20
1467.52730609085
  0
ARC
  5
79C
330
23
100
AcDbEntity
  8
SANINDUSA
100
AcDbCircle
 10
894.4698766314468
 20
1467.489571477211
 30
0.0
 40
0.1582376196204696
100
AcDbArc
 50
4.14631490044515
 51
10.75062335453085
  0
ARC
  5
79D
330
23
100
AcDbEntity
  8
SANINDUSA
100
AcDbCircle
 10
894.2550133044681
 20
1467.489571477211
 30
0.0
 40
0.1582376196205166
100
AcDbArc
 50
169.2493766454691
 51
175.8536850995548
  0
LWPOLYLINE
  5
79E
330
23
100
AcDbEntity
  8
SANINDUSA
100
AcDbPolyline
 90
       15
 70
   128
 43
0.0
 10
894.5341571890324
 20
1467.530440383533
 10
894.5333209058553
 20
1467.531110376389
 10
894.5325296526466
 20
1467.53176744559
 10
894.5312767126411
 20
1467.532756126492
 10
894.529019914991
 20
1467.534404181605
 10
894.5249512963387
 20
1467.537042911404
 10
894.5176314237231
 20
1467.54104019807
 10
894.5109358997072
 20
1467.543976963813
 10
894.5044229456552
 20
1467.546640301291
 10
894.4933916039296
 20
1467.551086818405
 10
894.4825654396746
 20
1467.554995986406
 10
894.4695142409209
 20
1467.55857372786
 10
894.455916537284
 20
1467.56124506863
 10
894.4421208762754
 20
1467.562966489453
 10
894.4282605586938
 20
1467.563648063118
  0
LWPOLYLINE
  5
79F
330
23
100
AcDbEntity
  8
SANINDUSA
100
AcDbPolyline
 90
       21
 70
   128
 43
0.0
 10
894.4261908131826
 20
1467.58294754867
 10
894.4370446686528
 20
1467.582477078787
 10
894.44806059248
 20
1467.581983163693
 10
894.4589336920843
 20
1467.581475500188
 10
894.4692618186463
 20
1467.580976499492
 10
894.4792184911399
 20
1467.580488578512
 10
894.4871495857253
 20
1467.58010050564
 10
894.4944822314456
 20
1467.579751753525
 10
894.5012171510988
 20
1467.579454565299
 10
894.5077497703881
 20
1467.579210448258
 10
894.5138335880606
 20
1467.579045322507
 10
894.5194695233075
 20
1467.57896682593
 10
894.5242470203783
 20
1467.578967255877
 10
894.528819689386
 20
1467.579029473281
 10
894.5331880285531
 20
1467.579156111964
 10
894.5368730874585
 20
1467.57932343606
 10
894.5402765440231
 20
1467.579540895958
 10
894.5433983285601
 20
1467.579811183367
 10
894.5468730074491
 20
1467.580214753535
 10
894.5501310224738
 20
1467.580711558841
 10
894.5530454764195
 20
1467.581277150882
  0
LWPOLYLINE
  5
7A0
330
23
100
AcDbEntity
  8
SANINDUSA
100
AcDbPolyline
 90
       15
 70
   128
 43
0.0
 10
894.6229100718367
 20
1467.52730609085
 10
894.6197262998884
 20
1467.534229120915
 10
894.6158246744689
 20
1467.541025124693
 10
894.6112978080808
 20
1467.547465630692
 10
894.6062863782994
 20
1467.553376721401
 10
894.6008234859508
 20
1467.558768310606
 10
894.5948482822487
 20
1467.563706869486
 10
894.5884585944368
 20
1467.568110054452
 10
894.5817719972369
 20
1467.571918815935
 10
894.5747869067776
 20
1467.575157519507
 10
894.568723245724
 20
1467.577431210713
 10
894.5624360220817
 20
1467.579309779388
 10
894.556928918627
 20
1467.580581706516
 10
894.5549760673044
 20
1467.580952041978
 10
894.5530436228468
 20
1467.581277534438
  0
LWPOLYLINE
  5
7A1
330
23
100
AcDbEntity
  8
SANINDUSA
100
AcDbPolyline
 90
       15
 70
   128
 43
0.0
 10
894.1019798640779
 20
1467.52730609085
 10
894.1051636360265
 20
1467.534229120915
 10
894.1090652614459
 20
1467.541025124693
 10
894.1135921278341
 20
1467.547465630692
 10
894.1186035576153
 20
1467.553376721401
 10
894.1240664499639
 20
1467.558768310606
 10
894.1300416536661
 20
1467.563706869486
 10
894.136431341478
 20
1467.568110054452
 10
894.1431179386778
 20
1467.571918815935
 10
894.1501030291373
 20
1467.575157519507
 10
894.1561666901909
 20
1467.577431210713
 10
894.1624539138329
 20
1467.579309779388
 10
894.1679610172879
 20
1467.580581706516
 10
894.1699138686105
 20
1467.580952041978
 10
894.171846313068
 20
1467.581277534438
  0
LWPOLYLINE
  5
7A2
330
23
100
AcDbEntity
  8
SANINDUSA
100
AcDbPolyline
 90
       21
 70
   128
 43
0.0
 10
894.2986991227321
 20
1467.58294754867
 10
894.2878452672619
 20
1467.582477078787
 10
894.2768293434347
 20
1467.581983163693
 10
894.2659562438304
 20
1467.581475500188
 10
894.2556281172684
 20
1467.580976499492
 10
894.2456714447748
 20
1467.580488578512
 10
894.2377403501895
 20
1467.58010050564
 10
894.2304077044694
 20
1467.579751753525
 10
894.2236727848159
 20
1467.579454565299
 10
894.2171401655267
 20
1467.579210448258
 10
894.2110563478541
 20
1467.579045322507
 10
894.2054204126074
 20
1467.57896682593
 10
894.2006429155366
 20
1467.578967255877
 10
894.1960702465289
 20
1467.579029473281
 10
894.1917019073617
 20
1467.579156111964
 10
894.1880168484562
 20
1467.57932343606
 10
894.1846133918916
 20
1467.579540895958
 10
894.1814916073546
 20
1467.579811183367
 10
894.1780169284657
 20
1467.580214753535
 10
894.1747589134411
 20
1467.580711558841
 10
894.1718444594952
 20
1467.581277150882
  0
LWPOLYLINE
  5
7A3
330
23
100
AcDbEntity
  8
SANINDUSA
100
AcDbPolyline
 90
       15
 70
   128
 43
0.0
 10
894.1907327468825
 20
1467.530440383533
 10
894.1915690300595
 20
1467.531110376389
 10
894.1923602832682
 20
1467.53176744559
 10
894.1936132232736
 20
1467.532756126492
 10
894.1958700209239
 20
1467.534404181605
 10
894.199938639576
 20
1467.537042911404
 10
894.2072585121916
 20
1467.54104019807
 10
894.2139540362076
 20
1467.543976963813
 10
894.2204669902595
 20
1467.546640301291
 10
894.2314983319851
 20
1467.551086818405
 10
894.2423244962403
 20
1467.554995986406
 10
894.2553756949939
 20
1467.55857372786
 10
894.2689733986309
 20
1467.56124506863
 10
894.2827690596393
 20
1467.562966489453
 10
894.296629377221
 20
1467.563648063118
  0
ARC
  5
7A6
330
23
100
AcDbEntity
  8
SANINDUSA
100
AcDbCircle
 10
894.2609783699319
 20
1467.48939378831
 30
0.0
 40
0.1642001166259377
100
AcDbArc
 50
175.9423408564549
 51
199.3249920688759
  0
ARC
  5
7A7
330
23
100
AcDbEntity
  8
SANINDUSA
100
AcDbCircle
 10
894.4639115659828
 20
1467.48939378831
 30
0.0
 40
0.1642001166259448
100
AcDbArc
 50
340.6750079311241
 51
4.057659143545019
  0
LWPOLYLINE
  5
7A8
330
23
100
AcDbEntity
  8
SANINDUSA
100
AcDbPolyline
 90
       38
 70
   128
 43
0.0
 10
894.3624449679575
 20
1467.598501942118
 10
894.3642894037228
 20
1467.59848495257
 10
894.3665060866223
 20
1467.598417953724
 10
894.3686080976915
 20
1467.598303009185
 10
894.3705341135476
 20
1467.598143482874
 10
894.3722318495828
 20
1467.597945593783
 10
894.3736499519365
 20
1467.597715572184
 10
894.3747520743356
 20
1467.597461507539
 10
894.3755025397008
 20
1467.597191292708
 10
894.3758849385282
 20
1467.596913484611
 10
894.3758832301845
 20
1467.59663633917
 10
894.3755027554086
 20
1467.596367602024
 10
894.3747489106955
 20
1467.596114712305
 10
894.3736480252042
 20
1467.595883834309
 10
894.3722272434319
 20
1467.595681005066
 10
894.3705304988231
 20
1467.595510313653
 10
894.3686029917897
 20
1467.59537597479
 10
894.3665016782109
 20
1467.595280208791
 10
894.3624449679575
 20
1467.595211469846
 10
894.3620154957027
 20
1467.5952122207
 10
894.3597586925422
 20
1467.595241306049
 10
894.3575777359898
 20
1467.595311616921
 10
894.3555354786049
 20
1467.595422336214
 10
894.3536882645616
 20
1467.595570697269
 10
894.35173654809
 20
1467.59580458122
 10
894.3505130081861
 20
1467.596025646104
 10
894.349625886144
 20
1467.596270883161
 10
894.349105067263
 20
1467.59653455716
 10
894.3489602574626
 20
1467.596809406469
 10
894.3492008750558
 20
1467.597087965003
 10
894.3498148593432
 20
1467.597362022522
 10
894.350789812209
 20
1467.597623086565
 10
894.352093461058
 20
1467.597863095229
 10
894.353692818173
 20
1467.598073750237
 10
894.3555391423307
 20
1467.598248427029
 10
894.3575824447183
 20
1467.598380440759
 10
894.3597630090085
 20
1467.598465845662
 10
894.3624449679575
 20
1467.598501942118
  0
ARC
  5
7AA
330
23
100
AcDbEntity
  8
SANINDUSA
100
AcDbCircle
 10
894.3756413636561
 20
1466.158313309095
 30
0.0
 40
1.425530765775245
100
AcDbArc
 50
87.96786047665245
 51
90.53040494985081
  0
ARC
  5
7AB
330
23
100
AcDbEntity
  8
SANINDUSA
100
AcDbCircle
 10
894.3492485722586
 20
1466.158313309095
 30
0.0
 40
1.425530765775701
100
AcDbArc
 50
89.4695950501492
 51
92.03213952334756
  0
LWPOLYLINE
  5
7AD
330
23
100
AcDbEntity
  8
SANINDUSA
100
AcDbPolyline
 90
       29
 70
   128
 43
0.0
 10
894.0995530132596
 20
1467.519088288023
 10
894.1000553668853
 20
1467.518847992325
 10
894.1037714862922
 20
1467.517521251126
 10
894.1085731901086
 20
1467.51647952202
 10
894.114540327374
 20
1467.51582833959
 10
894.1215518639557
 20
1467.515653050631
 10
894.1258900551511
 20
1467.515784248061
 10
894.1305193553654
 20
1467.516112696143
 10
894.1394358611896
 20
1467.517158341273
 10
894.1491716516381
 20
1467.518773583429
 10
894.1544262203704
 20
1467.519807922144
 10
894.1598445341604
 20
1467.521011781275
 10
894.1712122928613
 20
1467.523998778709
 10
894.182288836431
 20
1467.527442601342
 10
894.184357674143
 20
1467.528141031269
 10
894.1860164914723
 20
1467.528712516877
 10
894.1873046652615
 20
1467.529163929647
 10
894.1882755935566
 20
1467.529509308427
 10
894.188648375159
 20
1467.529643354459
 10
894.1892555875792
 20
1467.529864012664
 10
894.1896852220681
 20
1467.530021640052
 10
894.1899973251445
 20
1467.530138263487
 10
894.1902447293067
 20
1467.530232227885
 10
894.1903275881001
 20
1467.530265393013
 10
894.1904794543779
 20
1467.530329960985
 10
894.1905524067163
 20
1467.530362265519
 10
894.1906985726413
 20
1467.530426364568
 10
894.1907326961196
 20
1467.530440363282
 10
894.1907327468825
 20
1467.530440383533
  0
ARC
  5
7AE
330
23
100
AcDbEntity
  8
SANINDUSA
100
AcDbCircle
 10
894.3624516096745
 20
1467.53043801695
 30
0.0
 40
0.0392992045118227
100
AcDbArc
 50
180.0
 51
200.1898892433627
  0
ARC
  5
7AF
330
23
100
AcDbEntity
  8
SANINDUSA
100
AcDbCircle
 10
894.3624383262402
 20
1467.53043801695
 30
0.0
 40
0.0392992045118092
100
AcDbArc
 50
339.8101107566373
 51
0.0
  0
LWPOLYLINE
  5
7B0
330
23
100
AcDbEntity
  8
SANINDUSA
100
AcDbPolyline
 90
       29
 70
   128
 43
0.0
 10
894.6253369226552
 20
1467.519088288023
 10
894.6248345690294
 20
1467.518847992325
 10
894.6211184496226
 20
1467.517521251126
 10
894.6163167458061
 20
1467.51647952202
 10
894.6103496085408
 20
1467.51582833959
 10
894.603338071959
 20
1467.515653050631
 10
894.5989998807636
 20
1467.515784248061
 10
894.5943705805495
 20
1467.516112696143
 10
894.5854540747252
 20
1467.517158341273
 10
894.5757182842767
 20
1467.518773583429
 10
894.5704637155442
 20
1467.519807922144
 10
894.5650454017544
 20
1467.521011781275
 10
894.5536776430536
 20
1467.523998778709
 10
894.5426010994838
 20
1467.527442601342
 10
894.540532261772
 20
1467.528141031269
 10
894.5388734444424
 20
1467.528712516877
 10
894.5375852706533
 20
1467.529163929647
 10
894.5366143423582
 20
1467.529509308427
 10
894.536241560756
 20
1467.529643354459
 10
894.5356343483355
 20
1467.529864012664
 10
894.5352047138468
 20
1467.530021640052
 10
894.5348926107705
 20
1467.530138263487
 10
894.5346452066081
 20
1467.530232227885
 10
894.5345623478145
 20
1467.530265393013
 10
894.5344104815369
 20
1467.530329960985
 10
894.5343375291987
 20
1467.530362265519
 10
894.5341913632734
 20
1467.530426364568
 10
894.5341572397952
 20
1467.530440363282
 10
894.5341571890324
 20
1467.530440383533
  0
ARC
  5
7B1
330
23
100
AcDbEntity
  8
SANINDUSA
100
AcDbCircle
 10
894.3624247929227
 20
1467.530455928482
 30
0.0
 40
0.0392802260468666
100
AcDbArc
 50
200.2279106070075
 51
270.0294281534054
  0
ARC
  5
7B2
330
23
100
AcDbEntity
  8
SANINDUSA
100
AcDbCircle
 10
894.3624651429921
 20
1467.530455928482
 30
0.0
 40
0.0392802260468655
100
AcDbArc
 50
269.9705718465946
 51
339.7720893929925
  0
ARC
  5
7B5
330
23
100
AcDbEntity
  8
SANINDUSA
100
AcDbCircle
 10
894.3637384171633
 20
1467.530421212383
 30
0.0
 40
0.0405860164570389
100
AcDbArc
 50
152.3156490973801
 51
179.972935846005
  0
ARC
  5
7B7
330
23
100
AcDbEntity
  8
SANINDUSA
100
AcDbCircle
 10
894.3611515187516
 20
1467.530421212383
 30
0.0
 40
0.0405860164569847
100
AcDbArc
 50
0.027064153994937
 51
27.6843509026199
  0
LWPOLYLINE
  5
7B9
330
23
100
AcDbEntity
  8
SANINDUSA
100
AcDbPolyline
 90
        5
 70
   128
 43
0.0
 10
894.4282611656657
 20
1467.563638534685
 10
894.4186642147615
 20
1467.563798974363
 10
894.4090892888816
 20
1467.564279191575
 10
894.3995276896478
 20
1467.564949766331
 10
894.3798048024966
 20
1467.56635649116
  0
ARC
  5
7BA
330
23
100
AcDbEntity
  8
SANINDUSA
100
AcDbCircle
 10
894.3618512717561
 20
1467.519286929522
 30
0.0
 40
0.0503688858511485
100
AcDbArc
 50
69.15209852455785
 51
89.30874300325541
  0
ARC
  5
7BB
330
23
100
AcDbEntity
  8
SANINDUSA
100
AcDbCircle
 10
894.3630386641585
 20
1467.519286929522
 30
0.0
 40
0.0503688858511941
100
AcDbArc
 50
90.69125699674458
 51
110.8479014754421
  0
LWPOLYLINE
  5
7BC
330
23
100
AcDbEntity
  8
SANINDUSA
100
AcDbPolyline
 90
        5
 70
   128
 43
0.0
 10
894.2966287702491
 20
1467.563638534685
 10
894.3062257211535
 20
1467.563798974363
 10
894.3158006470333
 20
1467.564279191575
 10
894.325362246267
 20
1467.564949766331
 10
894.3450851334182
 20
1467.56635649116
  0
ARC
  5
7BD
330
23
100
AcDbEntity
  8
SANINDUSA
100
AcDbCircle
 10
894.361869023203
 20
1467.530889485832
 30
0.0
 40
0.0397332268426821
100
AcDbArc
 50
27.56709284818581
 51
63.12311693940799
  0
ARC
  5
7BE
330
23
100
AcDbEntity
  8
SANINDUSA
100
AcDbCircle
 10
894.3630209127119
 20
1467.530889485832
 30
0.0
 40
0.0397332268426916
100
AcDbArc
 50
116.876883060592
 51
152.4329071518142
  0
CIRCLE
  5
7CA
330
23
100
AcDbEntity
  8
SANINDUSA
100
AcDbCircle
 10
894.3624449679575
 20
1467.530440383533
 30
0.0
 40
0.024
  0
LWPOLYLINE
  5
7CB
330
23
100
AcDbEntity
  8
SANINDUSA
100
AcDbPolyline
 90
       29
 70
   128
 43
0.0
 10
895.5990040573793
 20
1467.506648711754
 10
895.6023992199261
 20
1467.50249901581
 10
895.6074892048698
 20
1467.496772973318
 10
895.6128315298396
 20
1467.491236731149
 10
895.6184022299678
 20
1467.485918710177
 10
895.6241690918924
 20
1467.480851059851
 10
895.6301019511482
 20
1467.476059147305
 10
895.6361618546905
 20
1467.471542305139
 10
895.6427677228786
 20
1467.466992784344
 10
895.6496194030803
 20
1467.462646335126
 10
895.6567330849535
 20
1467.4584957245
 10
895.6641240402682
 20
1467.45453620627
 10
895.6718096190336
 20
1467.450763503812
 10
895.6798252466601
 20
1467.447176080664
 10
895.6876803411702
 20
1467.444009240589
 10
895.6957170296099
 20
1467.441085576581
 10
895.7042522212825
 20
1467.438284139682
 10
895.713347129064
 20
1467.435594628624
 10
895.7230997428537
 20
1467.43299712936
 10
895.7336875272405
 20
1467.430461543465
 10
895.7450316392254
 20
1467.428057908274
 10
895.7565008224154
 20
1467.425944560643
 10
895.7681684476705
 20
1467.424108613875
 10
895.7800332039623
 20
1467.422554081307
 10
895.7920938113025
 20
1467.421285031217
 10
895.8043483391936
 20
1467.420305667126
 10
895.8167941303395
 20
1467.419620283134
 10
895.8294277137559
 20
1467.419233214688
 10
895.8361955294213
 20
1467.419140478448
  0
LWPOLYLINE
  5
7CC
330
23
100
AcDbEntity
  8
SANINDUSA
100
AcDbPolyline
 90
       28
 70
   128
 43
0.0
 10
895.8361979537221
 20
1467.419137898257
 10
895.8479371341654
 20
1467.419349041654
 10
895.8599832027683
 20
1467.419826797304
 10
895.8726949141617
 20
1467.420641177635
 10
895.8852030862656
 20
1467.421763895435
 10
895.8975007288575
 20
1467.423189708804
 10
895.9095856520351
 20
1467.424913646042
 10
895.9214564535516
 20
1467.42693086137
 10
895.9331124080261
 20
1467.429236681483
 10
895.9445533803924
 20
1467.431826647418
 10
895.9558033087837
 20
1467.434700616457
 10
895.9651837684125
 20
1467.437378487621
 10
895.9738977933294
 20
1467.440141508507
 10
895.9820500713359
 20
1467.443007296722
 10
895.9897156352674
 20
1467.445988051736
 10
895.997726165269
 20
1467.449443637426
 10
896.0053284261222
 20
1467.453053089617
 10
896.0131599977179
 20
1467.457117929297
 10
896.0206569678632
 20
1467.461374401519
 10
896.0278380498513
 20
1467.465823960765
 10
896.0347234514754
 20
1467.470470866462
 10
896.0413307473636
 20
1467.475319953052
 10
896.0469831599684
 20
1467.479814739489
 10
896.0527750485249
 20
1467.484814763764
 10
896.0583518321385
 20
1467.490044229049
 10
896.0637366571022
 20
1467.495524141824
 10
896.0689018075614
 20
1467.501230153151
 10
896.0734046713945
 20
1467.506635829979
  0
LINE
  5
7D0
330
23
100
AcDbEntity
  8
SANINDUSA
100
AcDbLine
 10
895.7992551691093
 20
1467.416930042556
 30
0.0
 11
895.8011153248255
 21
1467.390328576474
 31
0.0
  0
LINE
  5
7D1
330
23
100
AcDbEntity
  8
SANINDUSA
100
AcDbLine
 10
895.871277790578
 20
1467.390328576474
 30
0.0
 11
895.8731379489
 21
1467.41693007982
 31
0.0
  0
ARC
  5
7D2
330
23
100
AcDbEntity
  8
SANINDUSA
100
AcDbCircle
 10
895.8702802265278
 20
1467.390398332948
 30
0.0
 40
0.0009999999999999
100
AcDbArc
 50
270.0
 51
355.9999999998427
  0
ARC
  5
7D3
330
23
100
AcDbEntity
  8
SANINDUSA
100
AcDbCircle
 10
895.8021128888757
 20
1467.390398332948
 30
0.0
 40
0.001
100
AcDbArc
 50
184.0000000001572
 51
270.0
  0
ARC
  5
7DA
330
23
100
AcDbEntity
  8
SANINDUSA
100
AcDbCircle
 10
896.3661972144954
 20
1467.597913128748
 30
0.0
 40
0.0199993432065746
100
AcDbArc
 50
359.9997789094155
 51
26.76482240631226
  0
ARC
  5
7DB
330
23
100
AcDbEntity
  8
SANINDUSA
100
AcDbCircle
 10
895.306196557702
 20
1467.597913051573
 30
0.0
 40
0.0200000000001438
100
AcDbArc
 50
153.1934755980062
 51
180.0
  0
ARC
  5
7DC
330
23
100
AcDbEntity
  8
SANINDUSA
100
AcDbCircle
 10
895.2954955633789
 20
1467.603443180404
 30
0.0
 40
0.0079557573942931
100
AcDbArc
 50
89.29348143910749
 51
153.973438523033
  0
ARC
  5
7DD
330
23
100
AcDbEntity
  8
SANINDUSA
100
AcDbCircle
 10
896.3768970264366
 20
1467.603441974896
 30
0.0
 40
0.0079569563477122
100
AcDbArc
 50
25.91468241493991
 51
90.70262720397469
  0
LINE
  5
7E2
330
23
100
AcDbEntity
  8
SANINDUSA
100
AcDbLine
 10
895.5680282107486
 20
1467.596398332948
 30
0.0
 11
895.5160229831843
 21
1467.596398332948
 31
0.0
  0
LINE
  5
7E4
330
23
100
AcDbEntity
  8
SANINDUSA
100
AcDbLine
 10
896.1043649046551
 20
1467.596398332948
 30
0.0
 11
896.1563701322193
 21
1467.596398332948
 31
0.0
  0
LINE
  5
7E9
330
23
100
AcDbEntity
  8
SANINDUSA
100
AcDbLine
 10
895.5160229831843
 20
1467.596398332948
 30
0.0
 11
895.3061965577019
 21
1467.596398332948
 31
0.0
  0
LINE
  5
7EC
330
23
100
AcDbEntity
  8
SANINDUSA
100
AcDbLine
 10
896.1563701322193
 20
1467.596398332948
 30
0.0
 11
896.3661965577019
 21
1467.596398332948
 31
0.0
  0
LINE
  5
7EF
330
23
100
AcDbEntity
  8
SANINDUSA
100
AcDbLine
 10
895.3061965577019
 20
1467.541398332948
 30
0.0
 11
895.5270567886223
 21
1467.541398332948
 31
0.0
  0
LINE
  5
7F1
330
23
100
AcDbEntity
  8
SANINDUSA
100
AcDbLine
 10
896.3841965577019
 20
1467.541398332948
 30
0.0
 11
896.3661965577019
 21
1467.541398332948
 31
0.0
  0
ARC
  5
7F4
330
23
100
AcDbEntity
  8
SANINDUSA
100
AcDbCircle
 10
896.3841965577019
 20
1467.543398332948
 30
0.0
 40
0.0020000000000002
100
AcDbArc
 50
270.0
 51
0.0
  0
ARC
  5
7F6
330
23
100
AcDbEntity
  8
SANINDUSA
100
AcDbCircle
 10
895.2921965577017
 20
1467.590398332948
 30
0.0
 40
0.0060000000000001
100
AcDbArc
 50
90.0
 51
180.0
  0
LINE
  5
7F7
330
23
100
AcDbEntity
  8
SANINDUSA
100
AcDbLine
 10
895.3061965577019
 20
1467.596398332948
 30
0.0
 11
895.2921965577017
 21
1467.596398332948
 31
0.0
  0
LINE
  5
7FA
330
23
100
AcDbEntity
  8
SANINDUSA
100
AcDbLine
 10
896.3661965577019
 20
1467.541398332948
 30
0.0
 11
896.1453363267812
 21
1467.541398332948
 31
0.0
  0
LINE
  5
7FC
330
23
100
AcDbEntity
  8
SANINDUSA
100
AcDbLine
 10
895.2881965577018
 20
1467.541398332948
 30
0.0
 11
895.3061965577019
 21
1467.541398332948
 31
0.0
  0
ARC
  5
7FD
330
23
100
AcDbEntity
  8
SANINDUSA
100
AcDbCircle
 10
895.2881965577018
 20
1467.543398332948
 30
0.0
 40
0.002
100
AcDbArc
 50
180.0
 51
270.0
  0
ARC
  5
7FF
330
23
100
AcDbEntity
  8
SANINDUSA
100
AcDbCircle
 10
896.3801965577019
 20
1467.590398332948
 30
0.0
 40
0.0060000000000002
100
AcDbArc
 50
0.0
 51
90.0
  0
LINE
  5
800
330
23
100
AcDbEntity
  8
SANINDUSA
100
AcDbLine
 10
896.3661965577019
 20
1467.596398332948
 30
0.0
 11
896.3801965577019
 21
1467.596398332948
 31
0.0
  0
LINE
  5
801
330
23
100
AcDbEntity
  8
SANINDUSA
100
AcDbLine
 10
895.2861965577017
 20
1467.590398332948
 30
0.0
 11
895.2861965577017
 21
1467.543398332948
 31
0.0
  0
LINE
  5
802
330
23
100
AcDbEntity
  8
SANINDUSA
100
AcDbLine
 10
896.3861965577018
 20
1467.590398332948
 30
0.0
 11
896.3861965577018
 21
1467.543398332948
 31
0.0
  0
LINE
  5
80E
330
23
100
AcDbEntity
  8
SANINDUSA
100
AcDbLine
 10
895.3551489346171
 20
1467.541398332948
 30
0.0
 11
895.3560280474407
 21
1467.516223835464
 31
0.0
  0
LINE
  5
810
330
23
100
AcDbEntity
  8
SANINDUSA
100
AcDbLine
 10
896.3172441807866
 20
1467.541398332948
 30
0.0
 11
896.3163650679629
 21
1467.516223835464
 31
0.0
  0
LWPOLYLINE
  5
812
330
23
100
AcDbEntity
  8
SANINDUSA
100
AcDbPolyline
 90
        6
 70
   128
 43
0.0
 10
895.547267915399
 20
1467.511398332948
 10
895.5488799385507
 20
1467.511295394901
 10
895.5512415793867
 20
1467.510880706116
 10
895.5535979943887
 20
1467.51039046666
 10
895.5554107897706
 20
1467.510124197444
 10
895.5573553397655
 20
1467.510000244854
  0
LWPOLYLINE
  5
814
330
23
100
AcDbEntity
  8
SANINDUSA
100
AcDbPolyline
 90
        6
 70
   128
 43
0.0
 10
896.1251252000046
 20
1467.511398332948
 10
896.1235131768528
 20
1467.511295394901
 10
896.1211515360169
 20
1467.510880706116
 10
896.1187951210151
 20
1467.51039046666
 10
896.116982325633
 20
1467.510124197444
 10
896.115037775638
 20
1467.510000244854
  0
LWPOLYLINE
  5
818
330
23
100
AcDbEntity
  8
SANINDUSA
100
AcDbPolyline
 90
        9
 70
   128
 43
0.0
 10
895.5487819558216
 20
1467.507575524782
 10
895.5485237515048
 20
1467.508365257362
 10
895.5481403119186
 20
1467.509100496362
 10
895.5476422602451
 20
1467.509760872007
 10
895.5470433949903
 20
1467.510328088613
 10
895.546360307698
 20
1467.510786431458
 10
895.5456119232801
 20
1467.511123202169
 10
895.5448189757042
 20
1467.511329070525
 10
895.544003433558
 20
1467.511398332948
  0
LWPOLYLINE
  5
819
330
23
100
AcDbEntity
  8
SANINDUSA
100
AcDbPolyline
 90
        9
 70
   128
 43
0.0
 10
896.123611159582
 20
1467.507575524782
 10
896.1238693638987
 20
1467.508365257362
 10
896.1242528034849
 20
1467.509100496362
 10
896.1247508551585
 20
1467.509760872007
 10
896.1253497204133
 20
1467.510328088613
 10
896.1260328077058
 20
1467.510786431458
 10
896.1267811921235
 20
1467.511123202169
 10
896.1275741396995
 20
1467.511329070525
 10
896.1283896818455
 20
1467.511398332948
  0
LINE
  5
81B
330
23
100
AcDbEntity
  8
SANINDUSA
100
AcDbLine
 10
896.3063711596927
 20
1467.511398332948
 30
0.0
 11
896.1251252000046
 21
1467.511398332948
 31
0.0
  0
LINE
  5
81E
330
23
100
AcDbEntity
  8
SANINDUSA
100
AcDbLine
 10
895.3610250015758
 20
1467.511398332948
 30
0.0
 11
895.3660219557109
 21
1467.511398332948
 31
0.0
  0
ARC
  5
81F
330
23
100
AcDbEntity
  8
SANINDUSA
100
AcDbCircle
 10
895.3610250015758
 20
1467.516398332948
 30
0.0
 40
0.005
100
AcDbArc
 50
182.0000000037536
 51
270.0
  0
LINE
  5
820
330
23
100
AcDbEntity
  8
SANINDUSA
100
AcDbLine
 10
895.3660219557109
 20
1467.511398332948
 30
0.0
 11
895.547267915399
 21
1467.511398332948
 31
0.0
  0
LINE
  5
821
330
23
100
AcDbEntity
  8
SANINDUSA
100
AcDbLine
 10
896.3113681138278
 20
1467.511398332948
 30
0.0
 11
896.3063711596927
 21
1467.511398332948
 31
0.0
  0
ARC
  5
822
330
23
100
AcDbEntity
  8
SANINDUSA
100
AcDbCircle
 10
896.3113681138278
 20
1467.516398332948
 30
0.0
 40
0.005
100
AcDbArc
 50
270.0
 51
357.9999999962464
  0
LWPOLYLINE
  5
823
330
23
100
AcDbEntity
  8
SANINDUSA
100
AcDbPolyline
 90
        3
 70
   128
 43
0.0
 10
895.5581009487259
 20
1467.509983088568
 10
895.5681003680156
 20
1467.509968618887
 10
895.5961170776397
 20
1467.50996134486
  0
LWPOLYLINE
  5
825
330
23
100
AcDbEntity
  8
SANINDUSA
100
AcDbPolyline
 90
        3
 70
   128
 43
0.0
 10
896.1142921666779
 20
1467.509983088568
 10
896.1042927473881
 20
1467.509968618887
 10
896.0762846733482
 20
1467.509961347102
  0
LWPOLYLINE
  5
827
330
23
100
AcDbEntity
  8
SANINDUSA
100
AcDbPolyline
 90
        3
 70
   128
 43
0.0
 10
895.5573553397655
 20
1467.510000244854
 10
895.55801109974
 20
1467.509981958071
 10
895.5581009487259
 20
1467.509983088568
  0
LWPOLYLINE
  5
828
330
23
100
AcDbEntity
  8
SANINDUSA
100
AcDbPolyline
 90
        3
 70
   128
 43
0.0
 10
896.115037775638
 20
1467.510000244854
 10
896.1143820156635
 20
1467.509981958071
 10
896.1142921666779
 20
1467.509983088568
  0
LWPOLYLINE
  5
82B
330
23
100
AcDbEntity
  8
SANINDUSA
100
AcDbPolyline
 90
       11
 70
   128
 43
0.0
 10
895.5487819558216
 20
1467.507575524782
 10
895.5489679322353
 20
1467.498660124851
 10
895.5491184571888
 20
1467.490305800628
 10
895.5492683096361
 20
1467.480904970939
 10
895.5493906985804
 20
1467.472452109639
 10
895.5494786685978
 20
1467.466117203044
 10
895.5495562987787
 20
1467.460499382463
 10
895.5496258424352
 20
1467.455625708956
 10
895.5496912482752
 20
1467.451412917581
 10
895.5497513926051
 20
1467.44801298052
 10
895.5498062937863
 20
1467.445441421883
  0
LWPOLYLINE
  5
82C
330
23
100
AcDbEntity
  8
SANINDUSA
100
AcDbPolyline
 90
       11
 70
   128
 43
0.0
 10
896.123611159582
 20
1467.507575524782
 10
896.1234251831683
 20
1467.498660124851
 10
896.1232746582147
 20
1467.490305800628
 10
896.1231248057675
 20
1467.480904970939
 10
896.1230024168232
 20
1467.472452109639
 10
896.1229144468058
 20
1467.466117203044
 10
896.1228368166249
 20
1467.460499382463
 10
896.1227672729684
 20
1467.455625708956
 10
896.1227018671284
 20
1467.451412917581
 10
896.1226417227987
 20
1467.44801298052
 10
896.1225868216173
 20
1467.445441421883
  0
ARC
  5
836
330
23
100
AcDbEntity
  8
SANINDUSA
100
AcDbCircle
 10
895.8356285884875
 20
1466.668290870699
 30
0.0
 40
0.8012239661666331
100
AcDbArc
 50
75.18218131518318
 51
76.84824324321302
  0
LWPOLYLINE
  5
837
330
23
100
AcDbEntity
  8
SANINDUSA
100
AcDbPolyline
 90
        4
 70
   128
 43
0.0
 10
896.0078422180638
 20
1467.450631643629
 10
896.0141587633437
 20
1467.449330047778
 10
896.0179318486058
 20
1467.448499409849
 10
896.0179319047632
 20
1467.448499397206
  0
LWPOLYLINE
  5
83C
330
23
100
AcDbEntity
  8
SANINDUSA
100
AcDbPolyline
 90
        4
 70
   128
 43
0.0
 10
895.66455089734
 20
1467.450631643629
 10
895.6582343520599
 20
1467.449330047778
 10
895.6544612667977
 20
1467.448499409849
 10
895.6544612106403
 20
1467.448499397206
  0
ARC
  5
83D
330
23
100
AcDbEntity
  8
SANINDUSA
100
AcDbCircle
 10
895.8367645269163
 20
1466.668290870698
 30
0.0
 40
0.8012239661676408
100
AcDbArc
 50
103.151756756787
 51
104.8178186848168
  0
ARC
  5
845
330
23
100
AcDbEntity
  8
SANINDUSA
100
AcDbCircle
 10
891.9915564255369
 20
1467.384735461203
 30
0.0
 40
3.558767671337859
100
AcDbArc
 50
0.6739025187359777
 51
0.9774068838696409
  0
ARC
  5
848
330
23
100
AcDbEntity
  8
SANINDUSA
100
AcDbCircle
 10
899.6808366898401
 20
1467.384735461203
 30
0.0
 40
3.558767671311078
100
AcDbArc
 50
179.0225931161304
 51
179.326097481264
  0
LWPOLYLINE
  5
84E
330
23
100
AcDbEntity
  8
SANINDUSA
100
AcDbPolyline
 90
        3
 70
   128
 43
0.0
 10
895.798074367455
 20
1467.420822545798
 10
895.7983704107311
 20
1467.420398658834
 10
895.799255168295
 20
1467.416930201576
  0
LWPOLYLINE
  5
84F
330
23
100
AcDbEntity
  8
SANINDUSA
100
AcDbPolyline
 90
        3
 70
   128
 43
0.0
 10
895.8743051587484
 20
1467.420803088145
 10
895.8740227046126
 20
1467.42039865861
 10
895.8731379472117
 20
1467.416930201215
  0
LWPOLYLINE
  5
850
330
23
100
AcDbEntity
  8
SANINDUSA
100
AcDbPolyline
 90
        3
 70
   128
 43
0.0
 10
895.6712365983529
 20
1467.450931827961
 10
895.6698912179646
 20
1467.450959444503
 10
895.66455089734
 20
1467.450631643629
  0
LWPOLYLINE
  5
851
330
23
100
AcDbEntity
  8
SANINDUSA
100
AcDbPolyline
 90
        3
 70
   128
 43
0.0
 10
896.0011563822277
 20
1467.450931825194
 10
896.0025018974389
 20
1467.450959444503
 10
896.0078422180638
 20
1467.450631643629
  0
ARC
  5
852
330
23
100
AcDbEntity
  8
SANINDUSA
100
AcDbCircle
 10
896.1122143974936
 20
1467.42766663703
 30
0.0
 40
0.0101577763015372
100
AcDbArc
 50
270.6066087536724
 51
353.927472209207
  0
ARC
  5
854
330
23
100
AcDbEntity
  8
SANINDUSA
100
AcDbCircle
 10
895.56017871791
 20
1467.42766663703
 30
0.0
 40
0.01015777630154
100
AcDbArc
 50
186.0725277907929
 51
269.3933912463276
  0
LINE
  5
856
330
23
100
AcDbEntity
  8
SANINDUSA
100
AcDbLine
 10
896.0777501630897
 20
1467.427859068998
 30
0.0
 11
896.0783857617398
 21
1467.421753594511
 31
0.0
  0
LWPOLYLINE
  5
857
330
23
100
AcDbEntity
  8
SANINDUSA
100
AcDbPolyline
 90
       10
 70
   128
 43
0.0
 10
896.0476709886469
 20
1467.440968888779
 10
896.0476710345226
 20
1467.440968876807
 10
896.0544898794378
 20
1467.439103858487
 10
896.0605862676763
 20
1467.43725543391
 10
896.065780157351
 20
1467.435475150878
 10
896.0701341219063
 20
1467.433735797892
 10
896.0735542130079
 20
1467.432057178072
 10
896.0757733771524
 20
1467.430609223443
 10
896.0771822921364
 20
1467.429207492215
 10
896.0777501630897
 20
1467.427859068998
  0
LWPOLYLINE
  5
858
330
23
100
AcDbEntity
  8
SANINDUSA
100
AcDbPolyline
 90
        4
 70
   128
 43
0.0
 10
896.0405390562231
 20
1467.442869172074
 10
896.0441691466771
 20
1467.441908367365
 10
896.0476709438575
 20
1467.440968900878
 10
896.0476709886469
 20
1467.440968888779
  0
LWPOLYLINE
  5
859
330
23
100
AcDbEntity
  8
SANINDUSA
100
AcDbPolyline
 90
        3
 70
   128
 43
0.0
 10
896.109023329703
 20
1467.417117573428
 10
896.1123078350674
 20
1467.417507641686
 10
896.1123219391126
 20
1467.417509430022
  0
LWPOLYLINE
  5
85A
330
23
100
AcDbEntity
  8
SANINDUSA
100
AcDbPolyline
 90
        6
 70
   128
 43
0.0
 10
896.1056776976535
 20
1467.416446162243
 10
896.1056506747047
 20
1467.416477395112
 10
896.1057316843646
 20
1467.416530955243
 10
896.1064578446851
 20
1467.416717191509
 10
896.1076328355078
 20
1467.416932341108
 10
896.109023329703
 20
1467.417117573428
  0
LWPOLYLINE
  5
85B
330
23
100
AcDbEntity
  8
SANINDUSA
100
AcDbPolyline
 90
       10
 70
   128
 43
0.0
 10
896.07838576174
 20
1467.421753594511
 10
896.078284517744
 20
1467.421087167342
 10
896.0778397171877
 20
1467.420430588484
 10
896.0770202789754
 20
1467.419766533066
 10
896.0758366986155
 20
1467.419115945432
 10
896.0743553065272
 20
1467.41850385006
 10
896.0725475758501
 20
1467.417908173816
 10
896.0703504585406
 20
1467.417313516911
 10
896.0678321386026
 20
1467.416742186471
 10
896.0661195237829
 20
1467.416398332948
  0
LWPOLYLINE
  5
85C
330
23
100
AcDbEntity
  8
SANINDUSA
100
AcDbPolyline
 90
        6
 70
   128
 43
0.0
 10
895.5667154177502
 20
1467.416446162243
 10
895.5667424406989
 20
1467.416477395112
 10
895.566661431039
 20
1467.416530955243
 10
895.5659352707185
 20
1467.416717191509
 10
895.5647602798958
 20
1467.416932341108
 10
895.5633697857008
 20
1467.417117573428
  0
LWPOLYLINE
  5
85D
330
23
100
AcDbEntity
  8
SANINDUSA
100
AcDbPolyline
 90
        3
 70
   128
 43
0.0
 10
895.5633697857008
 20
1467.417117573428
 10
895.5600852803364
 20
1467.417507641686
 10
895.560071176291
 20
1467.417509430022
  0
LWPOLYLINE
  5
85E
330
23
100
AcDbEntity
  8
SANINDUSA
100
AcDbPolyline
 90
        4
 70
   128
 43
0.0
 10
895.6318540591805
 20
1467.442869172074
 10
895.6282239687267
 20
1467.441908367365
 10
895.6247221715461
 20
1467.440968900878
 10
895.6247221267567
 20
1467.440968888779
  0
LWPOLYLINE
  5
85F
330
23
100
AcDbEntity
  8
SANINDUSA
100
AcDbPolyline
 90
       10
 70
   128
 43
0.0
 10
895.6247221267567
 20
1467.440968888779
 10
895.624722080881
 20
1467.440968876807
 10
895.617903235966
 20
1467.439103858487
 10
895.6118068477273
 20
1467.43725543391
 10
895.6066129580527
 20
1467.435475150878
 10
895.6022589934974
 20
1467.433735797892
 10
895.5988389023959
 20
1467.432057178072
 10
895.5966197382513
 20
1467.430609223443
 10
895.5952108232672
 20
1467.429207492215
 10
895.5946429523139
 20
1467.427859068998
  0
LINE
  5
860
330
23
100
AcDbEntity
  8
SANINDUSA
100
AcDbLine
 10
895.5946429523139
 20
1467.427859068998
 30
0.0
 11
895.5940073536638
 21
1467.421753594511
 31
0.0
  0
LWPOLYLINE
  5
861
330
23
100
AcDbEntity
  8
SANINDUSA
100
AcDbPolyline
 90
       10
 70
   128
 43
0.0
 10
895.5940073536638
 20
1467.421753594511
 10
895.5941085976597
 20
1467.421087167342
 10
895.5945533982159
 20
1467.420430588484
 10
895.5953728364283
 20
1467.419766533066
 10
895.5965564167881
 20
1467.419115945432
 10
895.5980378088765
 20
1467.41850385006
 10
895.5998455395535
 20
1467.417908173816
 10
895.6020426568629
 20
1467.417313516911
 10
895.6045609768009
 20
1467.416742186471
 10
895.6062735916207
 20
1467.416398332948
  0
LINE
  5
864
330
23
100
AcDbEntity
  8
SANINDUSA
100
AcDbLine
 10
895.5680282107486
 20
1467.596398332948
 30
0.0
 11
896.1043649046551
 21
1467.596398332948
 31
0.0
  0
LINE
  5
882
330
23
100
AcDbEntity
  8
SANINDUSA
100
AcDbLine
 10
896.1287701508306
 20
1467.416398332948
 30
0.0
 11
896.1059057719017
 21
1467.416398332948
 31
0.0
  0
LINE
  5
884
330
23
100
AcDbEntity
  8
SANINDUSA
100
AcDbLine
 10
895.543622964573
 20
1467.416398332948
 30
0.0
 11
895.5664873435019
 21
1467.416398332948
 31
0.0
  0
ARC
  5
887
330
23
100
AcDbEntity
  8
SANINDUSA
100
AcDbCircle
 10
895.8361965577017
 20
1466.876398332948
 30
0.0
 40
0.5850000000000232
100
AcDbArc
 50
67.47744491129733
 51
70.39118942704883
  0
ARC
  5
88A
330
23
100
AcDbEntity
  8
SANINDUSA
100
AcDbCircle
 10
895.8361965577019
 20
1466.876398332948
 30
0.0
 40
0.5850000000000581
100
AcDbArc
 50
109.6088105729511
 51
112.5225550887027
  0
ARC
  5
88B
330
23
100
AcDbEntity
  8
SANINDUSA
100
AcDbCircle
 10
896.2569072358204
 20
1467.461398332948
 30
0.0
 40
0.0500000000000263
100
AcDbArc
 50
90.0
 51
135.0
  0
ARC
  5
88D
330
23
100
AcDbEntity
  8
SANINDUSA
100
AcDbCircle
 10
895.4154858795831
 20
1467.461398332948
 30
0.0
 40
0.0500000000000014
100
AcDbArc
 50
45.0
 51
90.0
  0
LINE
  5
891
330
23
100
AcDbEntity
  8
SANINDUSA
100
AcDbLine
 10
896.3861965577018
 20
1467.595084624449
 30
0.0
 11
896.3861965577018
 21
1467.590398332948
 31
0.0
  0
LINE
  5
894
330
23
100
AcDbEntity
  8
SANINDUSA
100
AcDbLine
 10
895.2861965577017
 20
1467.595084624449
 30
0.0
 11
895.2861965577017
 21
1467.590398332948
 31
0.0
  0
LINE
  5
896
330
23
100
AcDbEntity
  8
SANINDUSA
100
AcDbLine
 10
896.2215518967612
 20
1467.496753672007
 30
0.0
 11
896.1499833542662
 21
1467.425185129512
 31
0.0
  0
LINE
  5
898
330
23
100
AcDbEntity
  8
SANINDUSA
100
AcDbLine
 10
895.4508412186426
 20
1467.496753672007
 30
0.0
 11
895.5224097611374
 21
1467.425185129512
 31
0.0
  0
ARC
  5
89A
330
23
100
AcDbEntity
  8
SANINDUSA
100
AcDbCircle
 10
895.8361965577019
 20
1466.876398332948
 30
0.0
 40
0.5849999999998868
100
AcDbArc
 50
70.85495918613782
 51
75.59805828226306
  0
ARC
  5
89B
330
23
100
AcDbEntity
  8
SANINDUSA
100
AcDbCircle
 10
895.8361965577021
 20
1466.876398332947
 30
0.0
 40
0.5850000000004816
100
AcDbArc
 50
104.4164402382248
 51
109.1450408138622
  0
LINE
  5
89C
330
23
100
AcDbEntity
  8
SANINDUSA
100
AcDbLine
 10
896.0325204688166
 20
1467.427471759929
 30
0.0
 11
896.0280535274243
 21
1467.429042796567
 31
0.0
  0
LINE
  5
89D
330
23
100
AcDbEntity
  8
SANINDUSA
100
AcDbLine
 10
895.639872646587
 20
1467.427471759929
 30
0.0
 11
895.6443395879793
 21
1467.429042796567
 31
0.0
  0
LINE
  5
89F
330
23
100
AcDbEntity
  8
SANINDUSA
100
AcDbLine
 10
895.6059125937274
 20
1467.416398332948
 30
0.0
 11
895.6101987701021
 21
1467.416398332948
 31
0.0
  0
LINE
  5
8A1
330
23
100
AcDbEntity
  8
SANINDUSA
100
AcDbLine
 10
896.0664805216762
 20
1467.416398332948
 30
0.0
 11
896.0621943453016
 21
1467.416398332948
 31
0.0
  0
ARC
  5
8A2
330
23
100
AcDbEntity
  8
SANINDUSA
100
AcDbCircle
 10
896.1287701508306
 20
1467.446398332948
 30
0.0
 40
0.0299999999999691
100
AcDbArc
 50
275.4684338667978
 51
315.0
  0
ARC
  5
8A4
330
23
100
AcDbEntity
  8
SANINDUSA
100
AcDbCircle
 10
895.543622964573
 20
1467.446398332948
 30
0.0
 40
0.0300000000000461
100
AcDbArc
 50
225.0
 51
264.5315661332022
  0
LINE
  5
8A6
330
23
100
AcDbEntity
  8
SANINDUSA
100
AcDbLine
 10
895.5407640443315
 20
1467.416534867391
 30
0.0
 11
895.543622964573
 21
1467.416398332948
 31
0.0
  0
LINE
  5
8A7
330
23
100
AcDbEntity
  8
SANINDUSA
100
AcDbLine
 10
896.1316290710721
 20
1467.416534867391
 30
0.0
 11
896.1287701508306
 21
1467.416398332948
 31
0.0
  0
LINE
  5
8A8
330
23
100
AcDbEntity
  8
SANINDUSA
100
AcDbLine
 10
895.5664873435019
 20
1467.416398332948
 30
0.0
 11
895.6059125937274
 21
1467.416398332948
 31
0.0
  0
LINE
  5
8A9
330
23
100
AcDbEntity
  8
SANINDUSA
100
AcDbLine
 10
896.1059057719017
 20
1467.416398332948
 30
0.0
 11
896.0664805216762
 21
1467.416398332948
 31
0.0
  0
ARC
  5
8AA
330
23
100
AcDbEntity
  8
SANINDUSA
100
AcDbCircle
 10
896.0621943453016
 20
1467.421398332948
 30
0.0
 40
0.0050000000000001
100
AcDbArc
 50
247.4774449112973
 51
270.0
  0
ARC
  5
8AB
330
23
100
AcDbEntity
  8
SANINDUSA
100
AcDbCircle
 10
895.6101987701021
 20
1467.421398332948
 30
0.0
 40
0.0050000000000001
100
AcDbArc
 50
270.0
 51
292.5225550887027
  0
LINE
  5
8AD
330
23
100
AcDbEntity
  8
SANINDUSA
100
AcDbLine
 10
896.3861965577018
 20
1467.597913051573
 30
0.0
 11
896.3861965577018
 21
1467.595084624449
 31
0.0
  0
LINE
  5
8AF
330
23
100
AcDbEntity
  8
SANINDUSA
100
AcDbLine
 10
895.2861965577017
 20
1467.597913051573
 30
0.0
 11
895.2861965577017
 21
1467.595084624449
 31
0.0
  0
LINE
  5
8B7
330
23
100
AcDbEntity
  8
SANINDUSA
100
AcDbLine
 10
895.2955936639346
 20
1467.611398332948
 30
0.0
 11
896.3767994514689
 21
1467.611398332948
 31
0.0
  0
ARC
  5
8B8
330
23
100
AcDbEntity
  8
SANINDUSA
100
AcDbCircle
 10
895.5261861357429
 20
1467.447739357331
 30
0.0
 40
0.0936630223189552
100
AcDbArc
 50
38.97269512353631
 51
89.4673943609251
  0
ARC
  5
8BC
330
23
100
AcDbEntity
  8
SANINDUSA
100
AcDbCircle
 10
896.1433284263371
 20
1467.45375027925
 30
0.0
 40
0.0876710498465143
100
AcDbArc
 50
88.68765936645583
 51
142.8986290134665
  0
LWPOLYLINE
  5
8C2
330
23
100
AcDbEntity
  8
SANINDUSA
100
AcDbPolyline
 90
        9
 70
   128
 43
0.0
 10
896.8290269382912
 20
1467.546201461526
 10
896.8290282506607
 20
1467.54578029987
 10
896.8290715530734
 20
1467.544772116739
 10
896.8291856705564
 20
1467.543799652741
 10
896.8294158866426
 20
1467.542965281781
 10
896.829770769307
 20
1467.542325733219
 10
896.8302961332524
 20
1467.541812053892
 10
896.831002083349
 20
1467.541477175996
 10
896.8315882720499
 20
1467.541436670915
  0
ARC
  5
8C3
330
23
100
AcDbEntity
  8
SANINDUSA
100
AcDbCircle
 10
896.9728353525059
 20
1467.709280444976
 30
0.0
 40
0.2750777243909945
100
AcDbArc
 50
278.0997097615572
 51
313.5768433563683
  0
LWPOLYLINE
  5
8C4
330
23
100
AcDbEntity
  8
SANINDUSA
100
AcDbPolyline
 90
        9
 70
   128
 43
0.0
 10
896.8672248790277
 20
1467.417508906215
 10
896.8668920481686
 20
1467.41745854998
 10
896.8665611007246
 20
1467.417397020158
 10
896.8662324116989
 20
1467.41732438647
 10
896.8659063535364
 20
1467.417240731219
 10
896.8655832957002
 20
1467.417146149196
 10
896.8652636042543
 20
1467.417040747575
 10
896.8649476414478
 20
1467.416924645787
 10
896.8646357653051
 20
1467.416797975391
  0
LWPOLYLINE
  5
8C5
330
23
100
AcDbEntity
  8
SANINDUSA
100
AcDbPolyline
 90
        9
 70
   128
 43
0.0
 10
896.8646311385851
 20
1467.416796004957
 10
896.8643977768865
 20
1467.416703761788
 10
896.8641600811873
 20
1467.416623342659
 10
896.8639186501626
 20
1467.416554950117
 10
896.8636740918954
 20
1467.416498756422
 10
896.8634270223459
 20
1467.416454903105
 10
896.8631780637984
 20
1467.416423500619
 10
896.8629278432958
 20
1467.416404628055
 10
896.8626770183247
 20
1467.416398332948
  0
LWPOLYLINE
  5
8C6
330
23
100
AcDbEntity
  8
SANINDUSA
100
AcDbPolyline
 90
        5
 70
   128
 43
0.0
 10
896.9014970242239
 20
1467.422047248246
 10
896.9705673235054
 20
1467.431234366311
 10
896.9959556282798
 20
1467.434672820664
 10
897.0102269088199
 20
1467.43673172982
 10
897.0115927632008
 20
1467.436946793782
  0
ARC
  5
8C7
330
23
100
AcDbEntity
  8
SANINDUSA
100
AcDbCircle
 10
897.1284949762802
 20
1467.683773598054
 30
0.0
 40
0.2782666017425695
100
AcDbArc
 50
296.5737378606338
 51
302.244140296797
  0
LINE
  5
8C8
330
23
100
AcDbEntity
  8
SANINDUSA
100
AcDbLine
 10
897.0742037440103
 20
1467.390328576474
 30
0.0
 11
897.0760421027151
 21
1467.41661833077
 31
0.0
  0
ARC
  5
8C9
330
23
100
AcDbEntity
  8
SANINDUSA
100
AcDbCircle
 10
897.07320617996
 20
1467.390398332948
 30
0.0
 40
0.0010000000000002
100
AcDbArc
 50
270.0
 51
355.9999999998427
  0
ARC
  5
8CA
330
23
100
AcDbEntity
  8
SANINDUSA
100
AcDbCircle
 10
896.9989563990131
 20
1467.387876375728
 30
0.0
 40
0.005
100
AcDbArc
 50
24.82661129805656
 51
84.99999997775294
  0
LINE
  5
8D1
330
23
100
AcDbEntity
  8
SANINDUSA
100
AcDbLine
 10
896.8289289146104
 20
1467.605398332948
 30
0.0
 11
896.8289289146104
 21
1467.560694124688
 31
0.0
  0
LINE
  5
8D4
330
23
100
AcDbEntity
  8
SANINDUSA
100
AcDbLine
 10
896.8559999824222
 20
1467.599327265136
 30
0.0
 11
896.8531715552975
 21
1467.602155692261
 31
0.0
  0
LINE
  5
8D8
330
23
100
AcDbEntity
  8
SANINDUSA
100
AcDbLine
 10
896.8315886109868
 20
1467.541398332948
 30
0.0
 11
896.8489289146104
 21
1467.541398332948
 31
0.0
  0
ARC
  5
8DA
330
23
100
AcDbEntity
  8
SANINDUSA
100
AcDbCircle
 10
896.863071050234
 20
1467.606398332948
 30
0.0
 40
0.01
100
AcDbArc
 50
225.0
 51
270.0
  0
LINE
  5
8E0
330
23
100
AcDbEntity
  8
SANINDUSA
100
AcDbLine
 10
897.2039289146104
 20
1467.596398332948
 30
0.0
 11
896.863071050234
 21
1467.596398332948
 31
0.0
  0
LINE
  5
8E2
330
23
100
AcDbEntity
  8
SANINDUSA
100
AcDbLine
 10
896.8531715552975
 20
1467.602155692261
 30
0.0
 11
896.8468578467986
 21
1467.60846940076
 31
0.0
  0
LINE
  5
8E5
330
23
100
AcDbEntity
  8
SANINDUSA
100
AcDbLine
 10
896.8489289146104
 20
1467.541398332948
 30
0.0
 11
897.2039289146104
 21
1467.541398332948
 31
0.0
  0
LINE
  5
8E6
330
23
100
AcDbEntity
  8
SANINDUSA
100
AcDbLine
 10
897.2179289146104
 20
1467.596398332948
 30
0.0
 11
897.2039289146104
 21
1467.596398332948
 31
0.0
  0
ARC
  5
8E7
330
23
100
AcDbEntity
  8
SANINDUSA
100
AcDbCircle
 10
897.2179289146104
 20
1467.590398332948
 30
0.0
 40
0.0060000000000001
100
AcDbArc
 50
0.0
 51
90.0
  0
LINE
  5
8E9
330
23
100
AcDbEntity
  8
SANINDUSA
100
AcDbLine
 10
897.2239289146104
 20
1467.543398332948
 30
0.0
 11
897.2239289146104
 21
1467.590398332948
 31
0.0
  0
ARC
  5
8EB
330
23
100
AcDbEntity
  8
SANINDUSA
100
AcDbCircle
 10
897.2219289146105
 20
1467.543398332948
 30
0.0
 40
0.002
100
AcDbArc
 50
270.0
 51
0.0
  0
LINE
  5
8EC
330
23
100
AcDbEntity
  8
SANINDUSA
100
AcDbLine
 10
897.2039289146104
 20
1467.541398332948
 30
0.0
 11
897.2219289146105
 21
1467.541398332948
 31
0.0
  0
ARC
  5
8ED
330
23
100
AcDbEntity
  8
SANINDUSA
100
AcDbCircle
 10
896.8397867789867
 20
1467.601398332948
 30
0.0
 40
0.0099999999997482
100
AcDbArc
 50
45.0
 51
90.0
  0
LINE
  5
8EF
330
23
100
AcDbEntity
  8
SANINDUSA
100
AcDbLine
 10
896.8397867789866
 20
1467.611398332948
 30
0.0
 11
896.8349289146104
 21
1467.611398332948
 31
0.0
  0
LINE
  5
8F3
330
23
100
AcDbEntity
  8
SANINDUSA
100
AcDbLine
 10
897.1640974248714
 20
1467.516223835464
 30
0.0
 11
897.164976537695
 21
1467.541398332948
 31
0.0
  0
LINE
  5
8F8
330
23
100
AcDbEntity
  8
SANINDUSA
100
AcDbLine
 10
896.8289289146104
 20
1467.560694124688
 30
0.0
 11
896.8289289146104
 21
1467.516293634458
 31
0.0
  0
ARC
  5
8FB
330
23
100
AcDbEntity
  8
SANINDUSA
100
AcDbCircle
 10
896.8309289146104
 20
1467.513398332948
 30
0.0
 40
0.002
100
AcDbArc
 50
180.0
 51
270.0
  0
LINE
  5
8FC
330
23
100
AcDbEntity
  8
SANINDUSA
100
AcDbLine
 10
896.8289289146104
 20
1467.516293634458
 30
0.0
 11
896.8289289146104
 21
1467.513398332948
 31
0.0
  0
LINE
  5
8FE
330
23
100
AcDbEntity
  8
SANINDUSA
100
AcDbLine
 10
896.8309289146104
 20
1467.511398332948
 30
0.0
 11
897.1541035166012
 21
1467.511398332948
 31
0.0
  0
ARC
  5
8FF
330
23
100
AcDbEntity
  8
SANINDUSA
100
AcDbCircle
 10
897.1591004707363
 20
1467.516398332948
 30
0.0
 40
0.0050000000000004
100
AcDbArc
 50
270.0
 51
357.9999999962464
  0
LINE
  5
900
330
23
100
AcDbEntity
  8
SANINDUSA
100
AcDbLine
 10
897.1541035166012
 20
1467.511398332948
 30
0.0
 11
897.1591004707363
 21
1467.511398332948
 31
0.0
  0
LINE
  5
903
330
23
100
AcDbEntity
  8
SANINDUSA
100
AcDbLine
 10
896.8289289146104
 20
1467.513398332948
 30
0.0
 11
896.8289289146104
 21
1467.49816788557
 31
0.0
  0
LINE
  5
907
330
23
100
AcDbEntity
  8
SANINDUSA
100
AcDbLine
 10
896.8625821469075
 20
1467.500071108976
 30
0.0
 11
896.8630767041867
 21
1467.511398332948
 31
0.0
  0
LINE
  5
90C
330
23
100
AcDbEntity
  8
SANINDUSA
100
AcDbLine
 10
896.8289289146104
 20
1467.49816788557
 30
0.0
 11
896.8289289146104
 21
1467.426599343075
 31
0.0
  0
LINE
  5
90E
330
23
100
AcDbEntity
  8
SANINDUSA
100
AcDbLine
 10
896.8594573968596
 20
1467.428502566481
 30
0.0
 11
896.8625821469075
 21
1467.500071108976
 31
0.0
  0
LINE
  5
90F
330
23
100
AcDbEntity
  8
SANINDUSA
100
AcDbLine
 10
897.3652642666127
 20
1467.596398332948
 30
0.0
 11
897.2179289146104
 21
1467.596398332948
 31
0.0
  0
LINE
  5
915
330
23
100
AcDbEntity
  8
SANINDUSA
100
AcDbLine
 10
896.8309289146104
 20
1467.416398332948
 30
0.0
 11
896.8543017400735
 21
1467.416398332948
 31
0.0
  0
ARC
  5
916
330
23
100
AcDbEntity
  8
SANINDUSA
100
AcDbCircle
 10
896.8309289146104
 20
1467.418398332948
 30
0.0
 40
0.0019999999999999
100
AcDbArc
 50
180.0
 51
270.0
  0
LINE
  5
917
330
23
100
AcDbEntity
  8
SANINDUSA
100
AcDbLine
 10
896.8289289146104
 20
1467.426599343075
 30
0.0
 11
896.8289289146104
 21
1467.418398332948
 31
0.0
  0
LWPOLYLINE
  5
918
330
23
100
AcDbEntity
  8
SANINDUSA
100
AcDbPolyline
 90
        9
 70
   128
 43
0.0
 10
896.8591426646925
 20
1467.421294014714
 10
896.8590107033922
 20
1467.420354390432
 10
896.8587020107626
 20
1467.419456837678
 10
896.8582278046776
 20
1467.41863397347
 10
896.8576053177612
 20
1467.417915700651
 10
896.8568571711543
 20
1467.417328121215
 10
896.8560105524652
 20
1467.41689258777
 10
896.8550962277717
 20
1467.416624927576
 10
896.8541474235845
 20
1467.416534867391
  0
LINE
  5
919
330
23
100
AcDbEntity
  8
SANINDUSA
100
AcDbLine
 10
896.8591426646925
 20
1467.421294014714
 30
0.0
 11
896.8594573968596
 21
1467.428502566481
 31
0.0
  0
LINE
  5
91C
330
23
100
AcDbEntity
  8
SANINDUSA
100
AcDbLine
 10
897.2089289146104
 20
1467.541398332948
 30
0.0
 11
897.2089289146104
 21
1467.509753950548
 31
0.0
  0
LINE
  5
927
330
23
100
AcDbEntity
  8
SANINDUSA
100
AcDbLine
 10
896.8543017400735
 20
1467.416398332948
 30
0.0
 11
896.8626770183247
 21
1467.416398332948
 31
0.0
  0
LWPOLYLINE
  5
929
330
23
100
AcDbEntity
  8
SANINDUSA
100
AcDbPolyline
 90
        9
 70
   128
 43
0.0
 10
897.1624538017552
 20
1467.510000244854
 10
897.1627872854531
 20
1467.510348876554
 10
897.1630853453376
 20
1467.51072796005
 10
897.1633451914682
 20
1467.511133946996
 10
897.1635643915973
 20
1467.511563037215
 10
897.1637408939384
 20
1467.51201121428
 10
897.1638730463697
 20
1467.512474283102
 10
897.1639596119002
 20
1467.512947909201
 10
897.1639997802475
 20
1467.513427659278
  0
LINE
  5
92A
330
23
100
AcDbEntity
  8
SANINDUSA
100
AcDbLine
 10
897.1639997802475
 20
1467.513427659278
 30
0.0
 11
897.1640974248714
 21
1467.516223835464
 31
0.0
  0
LINE
  5
92B
330
23
100
AcDbEntity
  8
SANINDUSA
100
AcDbLine
 10
896.8672248790277
 20
1467.417508906215
 30
0.0
 11
896.9014872227715
 21
1467.422104220334
 31
0.0
  0
LWPOLYLINE
  5
92C
330
23
100
AcDbEntity
  8
SANINDUSA
100
AcDbPolyline
 90
       12
 70
   128
 43
0.0
 10
897.2864471596917
 20
1467.454662804485
 10
897.29848778223
 20
1467.463464909837
 10
897.3099293463565
 20
1467.473045574793
 10
897.3205979193263
 20
1467.483508422088
 10
897.3304976413013
 20
1467.494893758398
 10
897.339567902318
 20
1467.507143028977
 10
897.3476897257707
 20
1467.520149474166
 10
897.3543822974079
 20
1467.533004707216
 10
897.360084357226
 20
1467.546320224897
 10
897.3647518075187
 20
1467.559980009372
 10
897.3683554347223
 20
1467.573866630852
 10
897.3712032819696
 20
1467.589544904489
  0
LINE
  5
92D
330
23
100
AcDbEntity
  8
SANINDUSA
100
AcDbLine
 10
897.2769580052075
 20
1467.448420606386
 30
0.0
 11
897.2864471596917
 21
1467.454662804485
 31
0.0
  0
ARC
  5
92E
330
23
100
AcDbEntity
  8
SANINDUSA
100
AcDbCircle
 10
897.1271040972357
 20
1467.686220347281
 30
0.0
 40
0.2810771231834291
100
AcDbArc
 50
288.330083604317
 51
296.6041909613373
  0
ARC
  5
932
330
23
100
AcDbEntity
  8
SANINDUSA
100
AcDbCircle
 10
897.3652642666127
 20
1467.59039831518
 30
0.0
 40
0.0060000177679307
100
AcDbArc
 50
351.8228209492131
 51
90.0
  0
LWPOLYLINE
  5
934
330
23
100
AcDbEntity
  8
SANINDUSA
100
AcDbPolyline
 90
        7
 70
   128
 43
0.0
 10
897.2020797778515
 20
1467.445358759213
 10
897.1872049635106
 20
1467.440020737243
 10
897.1722407980626
 20
1467.435774430714
 10
897.15718236596
 20
1467.432584108656
 10
897.1421038520627
 20
1467.430394118071
 10
897.1139059669969
 20
1467.427576351223
 10
897.0856329457962
 20
1467.425913359837
  0
ARC
  5
935
330
23
100
AcDbEntity
  8
SANINDUSA
100
AcDbCircle
 10
897.0596190081211
 20
1466.328114694176
 30
0.0
 40
1.098106841468871
100
AcDbArc
 50
88.64254713109655
 51
90.24714175844929
  0
ARC
  5
938
330
23
100
AcDbEntity
  8
SANINDUSA
100
AcDbCircle
 10
897.213928923599
 20
1467.424151610912
 30
0.0
 40
0.0050000089889552
100
AcDbArc
 50
180.0
 51
288.317024560172
  0
LINE
  5
939
330
23
100
AcDbEntity
  8
SANINDUSA
100
AcDbLine
 10
897.2089289146104
 20
1467.509753950548
 30
0.0
 11
897.2089289146104
 21
1467.424151668941
 31
0.0
  0
ARC
  5
93B
330
23
100
AcDbEntity
  8
SANINDUSA
100
AcDbCircle
 10
897.2039289146104
 20
1467.440713256737
 30
0.0
 40
0.0050000000000001
100
AcDbArc
 50
0.0
 51
111.7049700129341
  0
LWPOLYLINE
  5
93D
330
23
100
AcDbEntity
  8
SANINDUSA
100
AcDbPolyline
 90
        5
 70
   128
 43
0.0
 10
897.0548824077376
 20
1467.426211319863
 10
897.0471381867533
 20
1467.426209004339
 10
897.043054167233
 20
1467.426209700797
 10
897.0389104594978
 20
1467.426213770156
 10
897.038910399498
 20
1467.426213770251
  0
ARC
  5
93E
330
23
100
AcDbEntity
  8
SANINDUSA
100
AcDbCircle
 10
897.0407703007827
 20
1467.845182341278
 30
0.0
 40
0.418972697899254
100
AcDbArc
 50
266.7096017031614
 51
269.7457185080196
  0
LWPOLYLINE
  5
93F
330
23
100
AcDbEntity
  8
SANINDUSA
100
AcDbPolyline
 90
        3
 70
   128
 43
0.0
 10
896.9908686637499
 20
1467.431169649193
 10
896.9876974753654
 20
1467.432303956586
 10
896.9859045437772
 20
1467.433311556272
  0
LWPOLYLINE
  5
940
330
23
100
AcDbEntity
  8
SANINDUSA
100
AcDbPolyline
 90
        3
 70
   128
 43
0.0
 10
897.01163177111
 20
1467.42720521018
 10
897.0017505280145
 20
1467.428735971393
 10
896.9908686637499
 20
1467.431169649193
  0
LWPOLYLINE
  5
941
330
23
100
AcDbEntity
  8
SANINDUSA
100
AcDbPolyline
 90
        3
 70
   128
 43
0.0
 10
897.0167256618571
 20
1467.426900180409
 10
897.0167256102493
 20
1467.426900183325
 10
897.01163177111
 20
1467.42720521018
  0
ARC
  5
946
330
23
100
AcDbEntity
  8
SANINDUSA
100
AcDbCircle
 10
897.0860177432177
 20
1467.415920766032
 30
0.0
 40
0.0100000000000003
100
AcDbArc
 50
92.20527126838179
 51
175.9999999998427
  0
ARC
  5
947
330
23
100
AcDbEntity
  8
SANINDUSA
100
AcDbCircle
 10
897.010283569422
 20
1467.416677342522
 30
0.0
 40
0.0106138421514683
100
AcDbArc
 50
13.44358639490288
 51
82.70240555957448
  0
LINE
  5
94B
330
23
100
AcDbEntity
  8
SANINDUSA
100
AcDbLine
 10
896.958498559087
 20
1467.429629086404
 30
0.0
 11
896.9596578932446
 21
1467.420187067399
 31
0.0
  0
ARC
  5
953
330
23
100
AcDbEntity
  8
SANINDUSA
100
AcDbCircle
 10
897.0150869344216
 20
1467.395820572915
 30
0.0
 40
0.0072427124145892
100
AcDbArc
 50
310.6872911333545
 51
2.239191661633572
  0
LWPOLYLINE
  5
954
330
23
100
AcDbEntity
  8
SANINDUSA
100
AcDbPolyline
 90
        3
 70
   128
 43
0.0
 10
897.0223241164783
 20
1467.396103555244
 10
897.0216019715321
 20
1467.406069243418
 10
897.0206065848696
 20
1467.419144931889
  0
LINE
  5
955
330
23
100
AcDbEntity
  8
SANINDUSA
100
AcDbLine
 10
897.07320617996
 20
1467.389398332947
 30
0.0
 11
897.0203493934546
 21
1467.389398332947
 31
0.0
  0
LWPOLYLINE
  5
956
330
23
100
AcDbEntity
  8
SANINDUSA
100
AcDbPolyline
 90
        9
 70
   128
 43
0.0
 10
897.0198086775548
 20
1467.390328576474
 10
897.019825219478
 20
1467.390143731
 10
897.019860159491
 20
1467.389967821851
 10
897.0199122712269
 20
1467.3898070233
 10
897.0199797256054
 20
1467.389666979246
 10
897.0200601550311
 20
1467.389552605126
 10
897.0201507364956
 20
1467.38946791538
 10
897.0202482906612
 20
1467.38941588255
 10
897.0203493934546
 20
1467.389398332947
  0
ARC
  5
958
330
23
100
AcDbEntity
  8
SANINDUSA
100
AcDbCircle
 10
896.9894342777939
 20
1467.423843147701
 30
0.0
 40
0.0299999999999877
100
AcDbArc
 50
187.0000000052536
 51
264.9999999972199
  0
LINE
  5
95D
330
23
100
AcDbEntity
  8
SANINDUSA
100
AcDbLine
 10
896.9868196055115
 20
1467.393957306758
 30
0.0
 11
896.9993921777268
 21
1467.392857349218
 31
0.0
  0
LINE
  5
961
330
23
100
AcDbEntity
  8
SANINDUSA
100
AcDbLine
 10
897.0187860821555
 20
1467.389398332947
 30
0.0
 11
897.0203493934546
 21
1467.389398332947
 31
0.0
  0
LINE
  5
963
330
23
100
AcDbEntity
  8
SANINDUSA
100
AcDbLine
 10
897.0131072765928
 20
1467.389398332947
 30
0.0
 11
897.0187860821555
 21
1467.389398332947
 31
0.0
  0
ARC
  5
965
330
23
100
AcDbEntity
  8
SANINDUSA
100
AcDbCircle
 10
897.004400637415
 20
1467.390398332948
 30
0.0
 40
0.0010000000000002
100
AcDbArc
 50
204.8551837798581
 51
270.0
  0
LINE
  5
966
330
23
100
AcDbEntity
  8
SANINDUSA
100
AcDbLine
 10
897.004400637415
 20
1467.389398332947
 30
0.0
 11
897.0131072765928
 21
1467.389398332947
 31
0.0
  0
ARC
  5
96A
330
23
100
AcDbEntity
  8
SANINDUSA
100
AcDbCircle
 10
897.8948063643624
 20
1467.683773597884
 30
0.0
 40
0.2782666015476022
100
AcDbArc
 50
296.5737378548082
 51
302.2441403078155
  0
ARC
  5
96B
330
23
100
AcDbEntity
  8
SANINDUSA
100
AcDbCircle
 10
897.8948063643624
 20
1467.683773597884
 30
0.0
 40
0.2672666015476022
100
AcDbArc
 50
296.5737378548082
 51
302.2441403078155
  0
LWPOLYLINE
  5
96C
330
23
100
AcDbEntity
  8
SANINDUSA
100
AcDbPolyline
 90
        9
 70
   128
 43
0.0
 10
897.6309425265714
 20
1467.416796004957
 10
897.6307091648729
 20
1467.416703761788
 10
897.6304714691735
 20
1467.416623342659
 10
897.6302300381489
 20
1467.416554950117
 10
897.6299854798819
 20
1467.416498756422
 10
897.6297384103322
 20
1467.416454903105
 10
897.6294894517847
 20
1467.416423500619
 10
897.6292392312821
 20
1467.416404628055
 10
897.6289884063112
 20
1467.416398332948
  0
LWPOLYLINE
  5
96D
330
23
100
AcDbEntity
  8
SANINDUSA
100
AcDbPolyline
 90
        9
 70
   128
 43
0.0
 10
897.6335362670139
 20
1467.417508906215
 10
897.6332034361549
 20
1467.41745854998
 10
897.6328724887109
 20
1467.417397020158
 10
897.6325437996852
 20
1467.41732438647
 10
897.6322177415225
 20
1467.417240731219
 10
897.6318946836865
 20
1467.417146149196
 10
897.6315749922406
 20
1467.417040747575
 10
897.6312590294341
 20
1467.416924645787
 10
897.6309471532914
 20
1467.416797975391
  0
LWPOLYLINE
  5
96E
330
23
100
AcDbEntity
  8
SANINDUSA
100
AcDbPolyline
 90
        7
 70
   128
 43
0.0
 10
897.968391165838
 20
1467.445358759213
 10
897.9535163514967
 20
1467.440020737243
 10
897.9385521860491
 20
1467.435774430714
 10
897.9234937539462
 20
1467.432584108656
 10
897.908415240049
 20
1467.430394118071
 10
897.8802173549832
 20
1467.427576351223
 10
897.8519443337825
 20
1467.425913359837
  0
ARC
  5
96F
330
23
100
AcDbEntity
  8
SANINDUSA
100
AcDbCircle
 10
897.852329131204
 20
1467.415920766032
 30
0.0
 40
0.0100000000000003
100
AcDbArc
 50
92.20527126838179
 51
175.9999999998427
  0
LINE
  5
970
330
23
100
AcDbEntity
  8
SANINDUSA
100
AcDbLine
 10
897.8423534907014
 20
1467.41661833077
 30
0.0
 11
897.8405151319966
 21
1467.390328576474
 31
0.0
  0
ARC
  5
971
330
23
100
AcDbEntity
  8
SANINDUSA
100
AcDbCircle
 10
897.8395175679464
 20
1467.390398332948
 30
0.0
 40
0.001
100
AcDbArc
 50
270.0
 51
355.9999999998427
  0
LINE
  5
972
330
23
100
AcDbEntity
  8
SANINDUSA
100
AcDbLine
 10
897.8395175679464
 20
1467.389398332947
 30
0.0
 11
897.8302403025967
 21
1467.389398332947
 31
0.0
  0
ARC
  5
973
330
23
100
AcDbEntity
  8
SANINDUSA
100
AcDbCircle
 10
897.8302403025967
 20
1467.390398332948
 30
0.0
 40
0.0010000000000002
100
AcDbArc
 50
180.0
 51
270.0
  0
LINE
  5
974
330
23
100
AcDbEntity
  8
SANINDUSA
100
AcDbLine
 10
897.8292403025966
 20
1467.424131486036
 30
0.0
 11
897.8292403025966
 21
1467.390398332948
 31
0.0
  0
ARC
  5
975
330
23
100
AcDbEntity
  8
SANINDUSA
100
AcDbCircle
 10
897.8342403025967
 20
1467.424131486036
 30
0.0
 40
0.005
100
AcDbArc
 50
131.0000000013763
 51
180.0
  0
LINE
  5
976
330
23
100
AcDbEntity
  8
SANINDUSA
100
AcDbLine
 10
897.8309600074517
 20
1467.427905033937
 30
0.0
 11
897.8382269075337
 21
1467.434222053803
 31
0.0
  0
ARC
  5
977
330
23
100
AcDbEntity
  8
SANINDUSA
100
AcDbCircle
 10
897.8447874978236
 20
1467.426674958001
 30
0.0
 40
0.01
100
AcDbArc
 50
91.61893182792779
 51
131.0000000013763
  0
LINE
  5
978
330
23
100
AcDbEntity
  8
SANINDUSA
100
AcDbLine
 10
898.1302810250973
 20
1467.596256996573
 30
0.0
 11
898.099017200688
 21
1467.589348043743
 31
0.0
  0
ARC
  5
979
330
23
100
AcDbEntity
  8
SANINDUSA
100
AcDbCircle
 10
898.1022539389909
 20
1467.574701422114
 30
0.0
 40
0.015
100
AcDbArc
 50
102.4614420370984
 51
154.4982512326694
  0
LINE
  5
97A
330
23
100
AcDbEntity
  8
SANINDUSA
100
AcDbLine
 10
898.0887153568307
 20
1467.581159501789
 30
0.0
 11
898.0776478835805
 21
1467.557957884058
 31
0.0
  0
LINE
  5
97B
330
23
100
AcDbEntity
  8
SANINDUSA
100
AcDbLine
 10
898.0776478835805
 20
1467.557957884058
 30
0.0
 11
898.0700018744679
 21
1467.544468996388
 31
0.0
  0
LINE
  5
97C
330
23
100
AcDbEntity
  8
SANINDUSA
100
AcDbLine
 10
898.0700018744679
 20
1467.544468996388
 30
0.0
 11
898.0613368346009
 21
1467.531431884525
 31
0.0
  0
LINE
  5
97D
330
23
100
AcDbEntity
  8
SANINDUSA
100
AcDbLine
 10
898.0613368346009
 20
1467.531431884525
 30
0.0
 11
898.0516891983429
 21
1467.518964033664
 31
0.0
  0
LINE
  5
97E
330
23
100
AcDbEntity
  8
SANINDUSA
100
AcDbLine
 10
898.0516891983429
 20
1467.518964033664
 30
0.0
 11
898.0411196235751
 21
1467.50717073346
 31
0.0
  0
LINE
  5
97F
330
23
100
AcDbEntity
  8
SANINDUSA
100
AcDbLine
 10
898.0411196235751
 20
1467.50717073346
 30
0.0
 11
898.0297099622953
 21
1467.496146553819
 31
0.0
  0
LINE
  5
980
330
23
100
AcDbEntity
  8
SANINDUSA
100
AcDbLine
 10
898.0297099622953
 20
1467.496146553819
 30
0.0
 11
898.0182567042954
 21
1467.486541344522
 31
0.0
  0
LINE
  5
981
330
23
100
AcDbEntity
  8
SANINDUSA
100
AcDbLine
 10
898.0182567042954
 20
1467.486541344522
 30
0.0
 11
898.0062093764887
 21
1467.477767507118
 31
0.0
  0
LINE
  5
982
330
23
100
AcDbEntity
  8
SANINDUSA
100
AcDbLine
 10
898.0062093764887
 20
1467.477767507118
 30
0.0
 11
897.993661781423
 21
1467.469869355488
 31
0.0
  0
LINE
  5
983
330
23
100
AcDbEntity
  8
SANINDUSA
100
AcDbLine
 10
897.993661781423
 20
1467.469869355488
 30
0.0
 11
897.9807090514654
 21
1467.462889191964
 31
0.0
  0
LINE
  5
984
330
23
100
AcDbEntity
  8
SANINDUSA
100
AcDbLine
 10
897.9807090514654
 20
1467.462889191964
 30
0.0
 11
897.9674495940965
 21
1467.456851242253
 31
0.0
  0
LINE
  5
985
330
23
100
AcDbEntity
  8
SANINDUSA
100
AcDbLine
 10
897.9674495940965
 20
1467.456851242253
 30
0.0
 11
897.9539814165818
 21
1467.451760004828
 31
0.0
  0
LINE
  5
986
330
23
100
AcDbEntity
  8
SANINDUSA
100
AcDbLine
 10
897.9539814165818
 20
1467.451760004828
 30
0.0
 11
897.9404069330131
 21
1467.447616891372
 31
0.0
  0
LINE
  5
987
330
23
100
AcDbEntity
  8
SANINDUSA
100
AcDbLine
 10
897.9404069330131
 20
1467.447616891372
 30
0.0
 11
897.9267806816778
 21
1467.444400749148
 31
0.0
  0
LINE
  5
988
330
23
100
AcDbEntity
  8
SANINDUSA
100
AcDbLine
 10
897.9267806816778
 20
1467.444400749148
 30
0.0
 11
897.913028590602
 21
1467.442078248572
 31
0.0
  0
LINE
  5
989
330
23
100
AcDbEntity
  8
SANINDUSA
100
AcDbLine
 10
897.913028590602
 20
1467.442078248572
 30
0.0
 11
897.8991651771456
 21
1467.4404041733
 31
0.0
  0
LINE
  5
98A
330
23
100
AcDbEntity
  8
SANINDUSA
100
AcDbLine
 10
897.8991651771456
 20
1467.4404041733
 30
0.0
 11
897.8718741910915
 21
1467.437991063012
 31
0.0
  0
LINE
  5
98B
330
23
100
AcDbEntity
  8
SANINDUSA
100
AcDbLine
 10
897.8718741910915
 20
1467.437991063012
 30
0.0
 11
897.8445049785127
 21
1467.436670966346
 31
0.0
  0
ARC
  5
98C
330
23
100
AcDbEntity
  8
SANINDUSA
100
AcDbCircle
 10
898.131575654599
 20
1467.59039831518
 30
0.0
 40
0.0060000177679604
100
AcDbArc
 50
351.8228209492131
 51
102.4621119863788
  0
LWPOLYLINE
  5
98D
330
23
100
AcDbEntity
  8
SANINDUSA
100
AcDbPolyline
 90
       12
 70
   128
 43
0.0
 10
898.0432693932671
 20
1467.448420606432
 10
898.0647991702163
 20
1467.463464909837
 10
898.076240734343
 20
1467.473045574793
 10
898.0869093073126
 20
1467.483508422088
 10
898.0968090292876
 20
1467.494893758398
 10
898.1058792903043
 20
1467.507143028977
 10
898.114001113757
 20
1467.520149474166
 10
898.1206936853942
 20
1467.533004707216
 10
898.1263957452123
 20
1467.546320224897
 10
898.1310631955052
 20
1467.559980009372
 10
898.1346668227086
 20
1467.573866630852
 10
898.137514669956
 20
1467.589544904489
  0
LWPOLYLINE
  5
98E
330
23
100
AcDbEntity
  8
SANINDUSA
100
AcDbPolyline
 90
       26
 70
   128
 43
0.0
 10
898.036968769551
 20
1467.457437376407
 10
898.0581051226584
 20
1467.47220676811
 10
898.068847275802
 20
1467.481201776924
 10
898.0788952013703
 20
1467.491055944971
 10
898.0882253038151
 20
1467.501786181072
 10
898.0967797559982
 20
1467.513338858471
 10
898.1044428839624
 20
1467.525610739831
 10
898.1107451516104
 20
1467.53771626873
 10
898.1161206818859
 20
1467.550269270753
 10
898.1205200107925
 20
1467.563144369774
 10
898.1239169073235
 20
1467.576234352082
 10
898.1250392040832
 20
1467.582412940387
 42
0.5359513235298956
 10
898.1238395212825
 20
1467.583568100333
 10
898.1085402683632
 20
1467.580187137871
 42
0.2310373683771738
 10
898.095491266144
 20
1467.569814984729
 10
898.0874089557911
 20
1467.552871399599
 10
898.0793789803721
 20
1467.538705128696
 10
898.070278759944
 20
1467.525013259584
 10
898.0601457875573
 20
1467.511918198254
 10
898.0490473224984
 20
1467.499534773838
 10
898.0370749741826
 20
1467.48796691785
 10
898.0250367140843
 20
1467.477871099889
 10
898.0123842075839
 20
1467.468656522469
 10
897.9992071678989
 20
1467.460362163516
 10
897.9856030460613
 20
1467.453030968059
 10
897.9833038866061
 20
1467.451984001446
  0
ARC
  5
98F
330
23
100
AcDbEntity
  8
SANINDUSA
100
AcDbCircle
 10
897.893415485222
 20
1467.686220347281
 30
0.0
 40
0.2810771231835715
100
AcDbArc
 50
288.330083604317
 51
296.6041909613373
  0
ARC
  5
990
330
23
100
AcDbEntity
  8
SANINDUSA
100
AcDbCircle
 10
897.893415485222
 20
1467.686220347281
 30
0.0
 40
0.2700771231835715
100
AcDbArc
 50
290.4072822147579
 51
296.6041909613373
  0
ARC
  5
992
330
23
100
AcDbEntity
  8
SANINDUSA
100
AcDbCircle
 10
897.9802403115852
 20
1467.424151610912
 30
0.0
 40
0.0050000089890286
100
AcDbArc
 50
180.0
 51
288.317024560172
  0
LINE
  5
993
330
23
100
AcDbEntity
  8
SANINDUSA
100
AcDbLine
 10
897.9752403025967
 20
1467.440713256737
 30
0.0
 11
897.9752403025967
 21
1467.424151668941
 31
0.0
  0
LINE
  5
994
330
23
100
AcDbEntity
  8
SANINDUSA
100
AcDbLine
 10
897.9862403025967
 20
1467.440713256737
 30
0.0
 11
897.9862403025967
 21
1467.434031128904
 31
0.0
  0
ARC
  5
995
330
23
100
AcDbEntity
  8
SANINDUSA
100
AcDbCircle
 10
897.9702403025967
 20
1467.440713256737
 30
0.0
 40
0.0050000000000001
100
AcDbArc
 50
0.0
 51
111.7049700129341
  0
ARC
  5
996
330
23
100
AcDbEntity
  8
SANINDUSA
100
AcDbCircle
 10
897.9702403025967
 20
1467.440713256737
 30
0.0
 40
0.0160000000000001
100
AcDbArc
 50
0.0
 51
37.549791284191
  0
ARC
  5
998
330
23
100
AcDbEntity
  8
SANINDUSA
100
AcDbCircle
 10
897.8223107388563
 20
1466.029966941033
 30
0.0
 40
1.406879098965319
100
AcDbArc
 50
89.09609218298465
 51
90.14272792265428
  0
ARC
  5
999
330
23
100
AcDbEntity
  8
SANINDUSA
100
AcDbCircle
 10
896.627953348894
 20
1467.425261454962
 30
0.0
 40
1.108295299718169
100
AcDbArc
 50
6.302070351454051
 51
7.697929649740024
  0
LINE
  5
99B
330
23
100
AcDbEntity
  8
SANINDUSA
100
AcDbLine
 10
897.7295512086152
 20
1467.546919281816
 30
0.0
 11
897.7411416253262
 21
1467.452522912876
 31
0.0
  0
LINE
  5
99E
330
23
100
AcDbEntity
  8
SANINDUSA
100
AcDbLine
 10
897.725179965227
 20
1467.582520202291
 30
0.0
 11
897.7262607363433
 21
1467.57371802791
 31
0.0
  0
ARC
  5
99F
330
23
100
AcDbEntity
  8
SANINDUSA
100
AcDbCircle
 10
897.7241874190752
 20
1467.582398332948
 30
0.0
 40
0.001
100
AcDbArc
 50
7.0000000052536
 51
90.0
  0
ARC
  5
9A0
330
23
100
AcDbEntity
  8
SANINDUSA
100
AcDbCircle
 10
897.7305437547668
 20
1467.547041151159
 30
0.0
 40
0.0010000000000002
100
AcDbArc
 50
96.99999999958222
 51
187.0000000052536
  0
ARC
  5
9A1
330
23
100
AcDbEntity
  8
SANINDUSA
100
AcDbCircle
 10
897.7272532824949
 20
1467.573839897253
 30
0.0
 40
0.0010000000000001
100
AcDbArc
 50
187.0000000052536
 51
276.9999999995822
  0
ARC
  5
9A3
330
23
100
AcDbEntity
  8
SANINDUSA
100
AcDbCircle
 10
897.7394766701317
 20
1467.54813797525
 30
0.0
 40
0.0010000000000001
100
AcDbArc
 50
7.0000000052536
 51
96.99999999958222
  0
ARC
  5
9A5
330
23
100
AcDbEntity
  8
SANINDUSA
100
AcDbCircle
 10
897.7361861978597
 20
1467.574936721344
 30
0.0
 40
0.001
100
AcDbArc
 50
276.9999999995822
 51
7.0000000052536
  0
ARC
  5
9A6
330
23
100
AcDbEntity
  8
SANINDUSA
100
AcDbCircle
 10
896.6458724006079
 20
1467.427461637858
 30
0.0
 40
1.101242205710051
100
AcDbArc
 50
6.297600114796895
 51
7.702399886354827
  0
ARC
  5
9A7
330
23
100
AcDbEntity
  8
SANINDUSA
100
AcDbCircle
 10
897.9692390979248
 20
1467.548587607205
 30
0.0
 40
0.2160398273821567
100
AcDbArc
 50
170.0651008156625
 51
173.9629185964326
  0
LWPOLYLINE
  5
9A8
330
23
100
AcDbEntity
  8
SANINDUSA
100
AcDbPolyline
 90
       21
 70
   128
 43
0.0
 10
897.7527331374597
 20
1467.463729154133
 10
897.7532036073425
 20
1467.465572439895
 10
897.7536975224362
 20
1467.468220140038
 10
897.7542051859414
 20
1467.471568613883
 10
897.7547041866371
 20
1467.475439278494
 10
897.7551921076168
 20
1467.479876246904
 10
897.7555801804889
 20
1467.483949248651
 10
897.7559289326041
 20
1467.488216683667
 10
897.7562261208307
 20
1467.492678551951
 10
897.7564702378716
 20
1467.497687047931
 10
897.756635363622
 20
1467.503139509477
 10
897.7567138601989
 20
1467.509035936589
 10
897.7567134302523
 20
1467.514757243259
 10
897.7566512128486
 20
1467.52088755973
 10
897.7565245741651
 20
1467.527426886003
 10
897.7563572500688
 20
1467.533537133849
 10
897.7561397901716
 20
1467.539772752491
 10
897.7558695027628
 20
1467.546133741931
 10
897.7554659325948
 20
1467.554119308866
 10
897.754969127288
 20
1467.562633312188
 10
897.7544035352471
 20
1467.571282990027
  0
ARC
  5
9A9
330
23
100
AcDbEntity
  8
SANINDUSA
100
AcDbCircle
 10
897.7851274129328
 20
1467.456248407266
 30
0.0
 40
0.0332468149813242
100
AcDbArc
 50
166.9967404995679
 51
181.8374684972085
  0
LINE
  5
9AA
330
23
100
AcDbEntity
  8
SANINDUSA
100
AcDbLine
 10
897.7404692162833
 20
1467.548259844593
 30
0.0
 11
897.7518976932767
 21
1467.455182368815
 31
0.0
  0
LINE
  5
9AB
330
23
100
AcDbEntity
  8
SANINDUSA
100
AcDbLine
 10
897.7358524037731
 20
1467.585860765069
 30
0.0
 11
897.7371787440114
 21
1467.575058590687
 31
0.0
  0
LINE
  5
9AC
330
23
100
AcDbEntity
  8
SANINDUSA
100
AcDbLine
 10
897.7564389129668
 20
1467.585860765069
 30
0.0
 11
897.7358524037731
 21
1467.585860765069
 31
0.0
  0
LINE
  5
9AD
330
23
100
AcDbEntity
  8
SANINDUSA
100
AcDbLine
 10
897.7273751518383
 20
1467.572847351102
 30
0.0
 11
897.7363080672031
 21
1467.573944175192
 31
0.0
  0
LINE
  5
9AE
330
23
100
AcDbEntity
  8
SANINDUSA
100
AcDbLine
 10
897.7393548007883
 20
1467.549130521401
 30
0.0
 11
897.7304218854236
 21
1467.548033697311
 31
0.0
  0
LINE
  5
9AF
330
23
100
AcDbEntity
  8
SANINDUSA
100
AcDbLine
 10
897.7697277976298
 20
1467.4364177852
 30
0.0
 11
897.7795205977416
 21
1467.427905033937
 31
0.0
  0
ARC
  5
9B0
330
23
100
AcDbEntity
  8
SANINDUSA
100
AcDbCircle
 10
897.7762403025968
 20
1467.424131486036
 30
0.0
 40
0.005
100
AcDbArc
 50
0.0
 51
48.99999999862362
  0
LINE
  5
9B1
330
23
100
AcDbEntity
  8
SANINDUSA
100
AcDbLine
 10
897.7812403025968
 20
1467.412665766124
 30
0.0
 11
897.7812403025968
 21
1467.424131486036
 31
0.0
  0
ARC
  5
9B2
330
23
100
AcDbEntity
  8
SANINDUSA
100
AcDbCircle
 10
897.7802403025966
 20
1467.412665766124
 30
0.0
 40
0.001
100
AcDbArc
 50
264.9999999972199
 51
0.0
  0
LINE
  5
9B3
330
23
100
AcDbEntity
  8
SANINDUSA
100
AcDbLine
 10
897.7679358412064
 20
1467.412738447169
 30
0.0
 11
897.7801531468539
 21
1467.411669571426
 31
0.0
  0
LINE
  5
9B4
330
23
100
AcDbEntity
  8
SANINDUSA
100
AcDbLine
 10
897.7679358412064
 20
1467.412738447169
 30
0.0
 11
897.7673523810002
 21
1467.419407427841
 31
0.0
  0
ARC
  5
9B5
330
23
100
AcDbEntity
  8
SANINDUSA
100
AcDbCircle
 10
897.7573904340193
 20
1467.418535870414
 30
0.0
 40
0.0100000000000001
100
AcDbArc
 50
4.999999995723404
 51
70.2333993506089
  0
ARC
  5
9B6
330
23
100
AcDbEntity
  8
SANINDUSA
100
AcDbCircle
 10
897.7709180098756
 20
1467.456178993178
 30
0.0
 40
0.03
100
AcDbArc
 50
187.0000000052536
 51
250.2333993506089
  0
LWPOLYLINE
  5
9B7
330
23
100
AcDbEntity
  8
SANINDUSA
100
AcDbPolyline
 90
        3
 70
   128
 43
0.0
 10
897.7553454890317
 20
1467.446176014066
 10
897.7530622303124
 20
1467.450465113543
 10
897.7518974471742
 20
1467.455182338597
  0
ARC
  5
9B8
330
23
100
AcDbEntity
  8
SANINDUSA
100
AcDbCircle
 10
897.7717529706362
 20
1467.457620936156
 30
0.0
 40
0.0200047917819282
100
AcDbArc
 50
214.897426392911
 51
253.3722488758541
  0
ARC
  5
9B9
330
23
100
AcDbEntity
  8
SANINDUSA
100
AcDbCircle
 10
897.7631669656025
 20
1467.428870429301
 30
0.0
 40
0.010000354891909
100
AcDbArc
 50
48.99993237969124
 51
73.37242911886473
  0
ARC
  5
9BA
330
23
100
AcDbEntity
  8
SANINDUSA
100
AcDbCircle
 10
897.7700907971355
 20
1467.477766860368
 30
0.0
 40
0.0395235091185537
100
AcDbArc
 50
264.100672026838
 51
268.8863011689995
  0
ARC
  5
9BC
330
23
100
AcDbEntity
  8
SANINDUSA
100
AcDbCircle
 10
897.8121835132093
 20
1467.186463198925
 30
0.0
 40
0.4035869523117397
100
AcDbArc
 50
89.67540078229173
 51
91.21039670104094
  0
ARC
  5
9BD
330
23
100
AcDbEntity
  8
SANINDUSA
100
AcDbCircle
 10
897.8196128022819
 20
1466.759904851352
 30
0.0
 40
0.8302085647099829
100
AcDbArc
 50
91.10115361916955
 51
93.28958224778071
  0
ARC
  5
9C7
330
23
100
AcDbEntity
  8
SANINDUSA
100
AcDbCircle
 10
897.6224185863163
 20
1467.466398332948
 30
0.0
 40
0.0050000000000001
100
AcDbArc
 50
270.0
 51
357.5000000055319
  0
LINE
  5
9C8
330
23
100
AcDbEntity
  8
SANINDUSA
100
AcDbLine
 10
897.6274138274241
 20
1467.466180236011
 30
0.0
 11
897.6259890800674
 21
1467.433548156584
 31
0.0
  0
LINE
  5
9C9
330
23
100
AcDbEntity
  8
SANINDUSA
100
AcDbLine
 10
897.6527403025967
 20
1467.584398332948
 30
0.0
 11
897.6527403025967
 21
1467.595398332948
 31
0.0
  0
ARC
  5
9CA
330
23
100
AcDbEntity
  8
SANINDUSA
100
AcDbCircle
 10
897.6517403025967
 20
1467.584398332948
 30
0.0
 40
0.0009999999999999
100
AcDbArc
 50
270.0
 51
0.0
  0
LINE
  5
9CB
330
23
100
AcDbEntity
  8
SANINDUSA
100
AcDbLine
 10
897.6373181387737
 20
1467.583398332948
 30
0.0
 11
897.6517403025967
 21
1467.583398332948
 31
0.0
  0
ARC
  5
9CC
330
23
100
AcDbEntity
  8
SANINDUSA
100
AcDbCircle
 10
897.6373181387737
 20
1467.578398332948
 30
0.0
 40
0.005
100
AcDbArc
 50
90.0
 51
177.5000000055319
  0
ARC
  5
9CD
330
23
100
AcDbEntity
  8
SANINDUSA
100
AcDbCircle
 10
897.6373181387737
 20
1467.578398332948
 30
0.0
 40
0.016
100
AcDbArc
 50
154.6079481657291
 51
177.5000000055319
  0
LINE
  5
9CE
330
23
100
AcDbEntity
  8
SANINDUSA
100
AcDbLine
 10
897.6274138274241
 20
1467.466180236011
 30
0.0
 11
897.6323228976657
 21
1467.578616429884
 31
0.0
  0
LINE
  5
9CF
330
23
100
AcDbEntity
  8
SANINDUSA
100
AcDbLine
 10
897.6167165923421
 20
1467.47335471356
 30
0.0
 11
897.6213333672284
 21
1467.579096243146
 31
0.0
  0
ARC
  5
9D0
330
23
100
AcDbEntity
  8
SANINDUSA
100
AcDbCircle
 10
897.6157175441205
 20
1467.473398332948
 30
0.0
 40
0.001
100
AcDbArc
 50
270.0
 51
357.5000000055319
  0
LINE
  5
9D1
330
23
100
AcDbEntity
  8
SANINDUSA
100
AcDbLine
 10
897.6224185863163
 20
1467.461398332948
 30
0.0
 11
897.5972403025966
 21
1467.461398332948
 31
0.0
  0
LINE
  5
9D2
330
23
100
AcDbEntity
  8
SANINDUSA
100
AcDbLine
 10
897.6157175441205
 20
1467.472398332948
 30
0.0
 11
897.6072403025966
 21
1467.472398332948
 31
0.0
  0
ARC
  5
9D3
330
23
100
AcDbEntity
  8
SANINDUSA
100
AcDbCircle
 10
897.5972403025966
 20
1467.463398332948
 30
0.0
 40
0.0020000000000002
100
AcDbArc
 50
180.0
 51
270.0
  0
LINE
  5
9D4
330
23
100
AcDbEntity
  8
SANINDUSA
100
AcDbLine
 10
897.5952403025967
 20
1467.463398332948
 30
0.0
 11
897.5952403025967
 21
1467.605398332948
 31
0.0
  0
LINE
  5
9D5
330
23
100
AcDbEntity
  8
SANINDUSA
100
AcDbLine
 10
897.6062403025967
 20
1467.473398332948
 30
0.0
 11
897.6062403025967
 21
1467.597427770199
 31
0.0
  0
ARC
  5
9D6
330
23
100
AcDbEntity
  8
SANINDUSA
100
AcDbCircle
 10
897.6072403025966
 20
1467.473398332948
 30
0.0
 40
0.001
100
AcDbArc
 50
180.0
 51
270.0
  0
LINE
  5
9D7
330
23
100
AcDbEntity
  8
SANINDUSA
100
AcDbLine
 10
897.606098166973
 20
1467.611398332948
 30
0.0
 11
897.6012403025967
 21
1467.611398332948
 31
0.0
  0
ARC
  5
9D8
330
23
100
AcDbEntity
  8
SANINDUSA
100
AcDbCircle
 10
897.606098166973
 20
1467.601398332948
 30
0.0
 40
0.0100000000000002
100
AcDbArc
 50
45.0
 51
90.0
  0
LINE
  5
9D9
330
23
100
AcDbEntity
  8
SANINDUSA
100
AcDbLine
 10
897.6223113704087
 20
1467.599327265136
 30
0.0
 11
897.6131692347848
 21
1467.60846940076
 31
0.0
  0
LINE
  5
9DA
330
23
100
AcDbEntity
  8
SANINDUSA
100
AcDbLine
 10
897.6145331958155
 20
1467.591549090543
 30
0.0
 11
897.6079474093777
 21
1467.59813487698
 31
0.0
  0
ARC
  5
9DB
330
23
100
AcDbEntity
  8
SANINDUSA
100
AcDbCircle
 10
897.6072403025966
 20
1467.597427770199
 30
0.0
 40
0.001
100
AcDbArc
 50
45.0
 51
180.0
  0
ARC
  5
9DC
330
23
100
AcDbEntity
  8
SANINDUSA
100
AcDbCircle
 10
897.6293824382205
 20
1467.606398332948
 30
0.0
 40
0.0100000000000003
100
AcDbArc
 50
225.0
 51
270.0
  0
ARC
  5
9DD
330
23
100
AcDbEntity
  8
SANINDUSA
100
AcDbCircle
 10
897.6293824382205
 20
1467.606398332948
 30
0.0
 40
0.0210000000000003
100
AcDbArc
 50
225.0
 51
250.2836363512985
  0
ARC
  5
9DE
330
23
100
AcDbEntity
  8
SANINDUSA
100
AcDbCircle
 10
897.6219604273994
 20
1467.58568809984
 30
0.0
 40
0.001
100
AcDbArc
 50
334.6079481657291
 51
70.28363635129853
  0
LINE
  5
9DF
330
23
100
AcDbEntity
  8
SANINDUSA
100
AcDbLine
 10
897.6293824382205
 20
1467.596398332948
 30
0.0
 11
897.6517403025967
 21
1467.596398332948
 31
0.0
  0
ARC
  5
9E0
330
23
100
AcDbEntity
  8
SANINDUSA
100
AcDbCircle
 10
897.6517403025967
 20
1467.595398332948
 30
0.0
 40
0.0009999999999999
100
AcDbArc
 50
0.0
 51
90.0
  0
LINE
  5
9E6
330
23
100
AcDbEntity
  8
SANINDUSA
100
AcDbLine
 10
897.5952403025967
 20
1467.418627146507
 30
0.0
 11
897.5952403025967
 21
1467.463398332948
 31
0.0
  0
ARC
  5
9E8
330
23
100
AcDbEntity
  8
SANINDUSA
100
AcDbCircle
 10
897.6887403025967
 20
1467.584398332948
 30
0.0
 40
0.0010000000000002
100
AcDbArc
 50
180.0
 51
270.0
  0
LINE
  5
9E9
330
23
100
AcDbEntity
  8
SANINDUSA
100
AcDbLine
 10
897.6887403025967
 20
1467.583398332948
 30
0.0
 11
897.6517403025967
 21
1467.583398332948
 31
0.0
  0
ARC
  5
9EA
330
23
100
AcDbEntity
  8
SANINDUSA
100
AcDbCircle
 10
897.6887403025967
 20
1467.595398332948
 30
0.0
 40
0.0010000000000002
100
AcDbArc
 50
90.0
 51
180.0
  0
LINE
  5
9EC
330
23
100
AcDbEntity
  8
SANINDUSA
100
AcDbLine
 10
897.6517403025967
 20
1467.596398332948
 30
0.0
 11
897.6887403025967
 21
1467.596398332948
 31
0.0
  0
LINE
  5
9ED
330
23
100
AcDbEntity
  8
SANINDUSA
100
AcDbLine
 10
897.6877403025966
 20
1467.595398332948
 30
0.0
 11
897.6877403025966
 21
1467.584398332948
 31
0.0
  0
LINE
  5
9EE
330
23
100
AcDbEntity
  8
SANINDUSA
100
AcDbLine
 10
897.7171348502972
 20
1467.583398332948
 30
0.0
 11
897.7241874190752
 21
1467.583398332948
 31
0.0
  0
ARC
  5
9EF
330
23
100
AcDbEntity
  8
SANINDUSA
100
AcDbCircle
 10
897.7171348502972
 20
1467.582398332948
 30
0.0
 40
0.001
100
AcDbArc
 50
90.0
 51
187.0000000052536
  0
LINE
  5
9F0
330
23
100
AcDbEntity
  8
SANINDUSA
100
AcDbLine
 10
897.7161423041454
 20
1467.582276463604
 30
0.0
 11
897.7358947427473
 21
1467.421405760832
 31
0.0
  0
ARC
  5
9F1
330
23
100
AcDbEntity
  8
SANINDUSA
100
AcDbCircle
 10
897.7557456657804
 20
1467.423843147701
 30
0.0
 40
0.02
100
AcDbArc
 50
187.0000000052536
 51
264.9999999972199
  0
LINE
  5
9F2
330
23
100
AcDbEntity
  8
SANINDUSA
100
AcDbLine
 10
897.7540025509252
 20
1467.403919253739
 30
0.0
 11
897.7803274583393
 21
1467.401616122772
 31
0.0
  0
ARC
  5
9F3
330
23
100
AcDbEntity
  8
SANINDUSA
100
AcDbCircle
 10
897.7802403025966
 20
1467.400619928074
 30
0.0
 40
0.0010000000000001
100
AcDbArc
 50
0.0
 51
84.99999999721991
  0
LINE
  5
9F4
330
23
100
AcDbEntity
  8
SANINDUSA
100
AcDbLine
 10
897.7812403025968
 20
1467.390398332948
 30
0.0
 11
897.7812403025968
 21
1467.400619928074
 31
0.0
  0
ARC
  5
9F5
330
23
100
AcDbEntity
  8
SANINDUSA
100
AcDbCircle
 10
897.7802403025966
 20
1467.390398332948
 30
0.0
 40
0.001
100
AcDbArc
 50
270.0
 51
0.0
  0
LINE
  5
9F6
330
23
100
AcDbEntity
  8
SANINDUSA
100
AcDbLine
 10
897.7802403025966
 20
1467.389398332947
 30
0.0
 11
897.7707120254013
 21
1467.389398332947
 31
0.0
  0
ARC
  5
9F7
330
23
100
AcDbEntity
  8
SANINDUSA
100
AcDbCircle
 10
897.7707120254013
 20
1467.390398332948
 30
0.0
 40
0.0010000000000002
100
AcDbArc
 50
204.8551837798581
 51
270.0
  0
ARC
  5
9F8
330
23
100
AcDbEntity
  8
SANINDUSA
100
AcDbCircle
 10
897.7652677869993
 20
1467.387876375728
 30
0.0
 40
0.005
100
AcDbArc
 50
24.85518377985815
 51
84.99999999721991
  0
LINE
  5
9F9
330
23
100
AcDbEntity
  8
SANINDUSA
100
AcDbLine
 10
897.7531309934978
 20
1467.393957306758
 30
0.0
 11
897.7657035657129
 21
1467.392857349218
 31
0.0
  0
ARC
  5
9FA
330
23
100
AcDbEntity
  8
SANINDUSA
100
AcDbCircle
 10
897.7557456657804
 20
1467.423843147701
 30
0.0
 40
0.0300000000000001
100
AcDbArc
 50
187.0000000052536
 51
264.9999999972199
  0
LINE
  5
9FB
330
23
100
AcDbEntity
  8
SANINDUSA
100
AcDbLine
 10
897.7064685620915
 20
1467.579007679665
 30
0.0
 11
897.7259692812308
 21
1467.420187067399
 31
0.0
  0
ARC
  5
9FC
330
23
100
AcDbEntity
  8
SANINDUSA
100
AcDbCircle
 10
897.7015058313334
 20
1467.578398332948
 30
0.0
 40
0.005
100
AcDbArc
 50
7.0000000052536
 51
90.0
  0
ARC
  5
9FD
330
23
100
AcDbEntity
  8
SANINDUSA
100
AcDbCircle
 10
897.7239418499534
 20
1467.584398332948
 30
0.0
 40
0.012
100
AcDbArc
 50
7.0000000052536
 51
90.0
  0
LINE
  5
9FE
330
23
100
AcDbEntity
  8
SANINDUSA
100
AcDbLine
 10
897.6887403025967
 20
1467.583398332948
 30
0.0
 11
897.7015058313334
 21
1467.583398332948
 31
0.0
  0
LINE
  5
9FF
330
23
100
AcDbEntity
  8
SANINDUSA
100
AcDbLine
 10
897.6887403025967
 20
1467.596398332948
 30
0.0
 11
897.7239418499534
 21
1467.596398332948
 31
0.0
  0
ARC
  5
A00
330
23
100
AcDbEntity
  8
SANINDUSA
100
AcDbCircle
 10
897.7650484295875
 20
1467.593776845647
 30
0.0
 40
0.0026214873158506
100
AcDbArc
 50
64.6452332444735
 51
89.99394768594777
  0
LWPOLYLINE
  5
A01
330
23
100
AcDbEntity
  8
SANINDUSA
100
AcDbPolyline
 90
        6
 70
   128
 43
0.0
 10
897.7608628179979
 20
1467.593414459096
 10
897.7647337989012
 20
1467.594822044245
 10
897.7657259999592
 20
1467.595295627494
 10
897.7663656478712
 20
1467.595813280425
 10
897.7663769868312
 20
1467.595968698793
 10
897.7661710077212
 20
1467.596145814638
  0
LWPOLYLINE
  5
A02
330
23
100
AcDbEntity
  8
SANINDUSA
100
AcDbPolyline
 90
        6
 70
   128
 43
0.0
 10
897.7564389129668
 20
1467.585860765069
 10
897.756975596506
 20
1467.586734194275
 10
897.758146551172
 20
1467.589528076339
 10
897.7589867273783
 20
1467.591775988028
 10
897.7597591511948
 20
1467.592806875793
 10
897.7608628108974
 20
1467.593414465339
  0
LINE
  5
A03
330
23
100
AcDbEntity
  8
SANINDUSA
100
AcDbLine
 10
897.7239418499534
 20
1467.596398332948
 30
0.0
 11
897.7650487065025
 21
1467.596398332948
 31
0.0
  0
LINE
  5
A0A
330
23
100
AcDbEntity
  8
SANINDUSA
100
AcDbLine
 10
897.8302403025967
 20
1467.389398332947
 30
0.0
 11
897.7802403025966
 21
1467.389398332947
 31
0.0
  0
ARC
  5
A11
330
23
100
AcDbEntity
  8
SANINDUSA
100
AcDbCircle
 10
897.8439602241692
 20
1468.619283856527
 30
0.0
 40
1.183388548952716
100
AcDbArc
 50
266.3852188318996
 51
267.2121774482691
  0
ARC
  5
A1E
330
23
100
AcDbEntity
  8
SANINDUSA
100
AcDbCircle
 10
897.8061387921096
 20
1467.865485555368
 30
0.0
 40
0.4286442814105741
100
AcDbArc
 50
267.3610615068629
 51
269.8799011250712
  0
LWPOLYLINE
  5
A1F
330
23
100
AcDbEntity
  8
SANINDUSA
100
AcDbPolyline
 90
        6
 70
   128
 43
0.0
 10
897.8052403025968
 20
1467.436842215629
 10
897.8052403625966
 20
1467.436842215585
 10
897.8108288918893
 20
1467.43683991252
 10
897.8148474374673
 20
1467.436840518781
 10
897.8188060487722
 20
1467.436841674832
 10
897.8188061050852
 20
1467.436841674848
  0
LINE
  5
A2A
330
23
100
AcDbEntity
  8
SANINDUSA
100
AcDbLine
 10
897.6259890800674
 20
1467.433548156584
 30
0.0
 11
897.6261424287518
 21
1467.431891777412
 31
0.0
  0
ARC
  5
A2D
330
23
100
AcDbEntity
  8
SANINDUSA
100
AcDbCircle
 10
897.7736834225236
 20
1467.562644733443
 30
0.0
 40
0.0211332759195088
100
AcDbArc
 50
129.7837606561345
 51
155.821664807652
  0
LWPOLYLINE
  5
A2E
330
23
100
AcDbEntity
  8
SANINDUSA
100
AcDbPolyline
 90
        7
 70
   128
 43
0.0
 10
897.7719722888403
 20
1467.588745388161
 10
897.7719722635493
 20
1467.588745382129
 10
897.7695207945791
 20
1467.587875139947
 10
897.767505276546
 20
1467.586544245008
 10
897.7645065888754
 20
1467.583434388553
 10
897.7614234016165
 20
1467.580055857824
 10
897.7601604100387
 20
1467.578884914613
  0
LWPOLYLINE
  5
A34
330
23
100
AcDbEntity
  8
SANINDUSA
100
AcDbPolyline
 90
        7
 70
   128
 43
0.0
 10
897.6261424287518
 20
1467.431891777412
 10
897.6271592134095
 20
1467.427284851759
 10
897.6282079484439
 20
1467.42271439463
 10
897.6283228987213
 20
1467.420802272796
 10
897.6278794830205
 20
1467.418952815943
 10
897.6267579695784
 20
1467.417562080244
 10
897.6251304199001
 20
1467.41663033538
  0
LWPOLYLINE
  5
A38
330
23
100
AcDbEntity
  8
SANINDUSA
100
AcDbPolyline
 90
        4
 70
   128
 43
0.0
 10
897.6335385176449
 20
1467.417509430022
 10
897.6683011145469
 20
1467.422171613599
 10
897.7231063129732
 20
1467.429545849837
 10
897.7247922352109
 20
1467.429773337948
  0
LINE
  5
A3E
330
23
100
AcDbEntity
  8
SANINDUSA
100
AcDbLine
 10
897.6237259043189
 20
1467.416398332948
 30
0.0
 11
897.5972403025966
 21
1467.416398332948
 31
0.0
  0
ARC
  5
A40
330
23
100
AcDbEntity
  8
SANINDUSA
100
AcDbCircle
 10
897.5972403025966
 20
1467.418398332948
 30
0.0
 40
0.002
100
AcDbArc
 50
180.0
 51
270.0
  0
LWPOLYLINE
  5
A42
330
23
100
AcDbEntity
  8
SANINDUSA
100
AcDbPolyline
 90
        9
 70
   128
 43
0.0
 10
897.6251304199001
 20
1467.41663033538
 10
897.6249593785469
 20
1467.416576285027
 10
897.6247865348513
 20
1467.416529280612
 10
897.6246121413714
 20
1467.416489390815
 10
897.6244364529293
 20
1467.416456673923
 10
897.6242597262395
 20
1467.416431177742
 10
897.6240822195334
 20
1467.416412939527
 10
897.6239041921825
 20
1467.416401985927
 10
897.6237259043189
 20
1467.416398332948
  0
LINE
  5
A45
330
23
100
AcDbEntity
  8
SANINDUSA
100
AcDbLine
 10
897.7650487065025
 20
1467.596398332948
 30
0.0
 11
897.9975162698201
 21
1467.596398332948
 31
0.0
  0
LINE
  5
A49
330
23
100
AcDbEntity
  8
SANINDUSA
100
AcDbLine
 10
897.6289884063112
 20
1467.416398332948
 30
0.0
 11
897.6237259043189
 21
1467.416398332948
 31
0.0
  0
LINE
  5
A4A
330
23
100
AcDbEntity
  8
SANINDUSA
100
AcDbLine
 10
897.9975162698201
 20
1467.596398332948
 30
0.0
 11
898.131575654599
 21
1467.596398332948
 31
0.0
  0
ARC
  5
A4C
330
23
100
AcDbEntity
  8
SANINDUSA
100
AcDbCircle
 10
897.9837183108312
 20
1467.451073917625
 30
0.0
 40
0.001
100
AcDbArc
 50
114.4830624308538
 51
217.549791284191
  0
LWPOLYLINE
  5
A59
330
23
100
AcDbEntity
  8
SANINDUSA
  6
Continuous
100
AcDbPolyline
 90
       53
 70
   128
 43
0.0
 10
894.3624449679575
 20
1467.248720242801
 10
894.3719280479685
 20
1467.248900326973
 10
894.3813737567747
 20
1467.249439116555
 10
894.3908724352281
 20
1467.250341670388
 10
894.4002046227543
 20
1467.251580686709
 10
894.4100557839901
 20
1467.253269524646
 10
894.4166268153949
 20
1467.254615124213
 10
894.4229261564146
 20
1467.256071290406
 10
894.4289554417148
 20
1467.25761954419
 10
894.4347163790951
 20
1467.259241509933
 10
894.4402110770122
 20
1467.260919787993
 10
894.4454555785073
 20
1467.262643221706
 10
894.4590164171515
 20
1467.26766358787
 10
894.4718579148966
 20
1467.273197367357
 10
894.4839971257485
 20
1467.279166339812
 10
894.4961168599002
 20
1467.28588971273
 10
894.5080844861644
 20
1467.293337180791
 10
894.5198119491081
 20
1467.301487164989
 10
894.5291810998602
 20
1467.30866505252
 10
894.5383769329126
 20
1467.316347113271
 10
894.5473734409402
 20
1467.324541081811
 10
894.555786195627
 20
1467.332884505253
 10
894.5637669066941
 20
1467.34148922166
 10
894.57164825589
 20
1467.350742636657
 10
894.5793613710423
 20
1467.360646954243
 10
894.5835838656623
 20
1467.366479977506
 10
894.5878073386973
 20
1467.372646851577
 10
894.5887541387071
 20
1467.374079065473
 10
894.5897001025981
 20
1467.375529298928
 10
894.590645056124
 20
1467.376997797642
 10
894.5915382567893
 20
1467.378404628814
 10
894.592395062487
 20
1467.379771770901
 10
894.5932852008533
 20
1467.381210928794
 10
894.5940044069548
 20
1467.382388142742
 10
894.5944820035505
 20
1467.383177178453
 10
894.5954274029588
 20
1467.384756637495
 10
894.5967410999655
 20
1467.386991831965
 10
894.5976439777128
 20
1467.388556130203
 10
894.5985084230212
 20
1467.390076118379
 10
894.5993347172121
 20
1467.391550060182
 10
894.6001241272867
 20
1467.392978141262
 10
894.60095183521
 20
1467.394497150791
 10
894.6017445220755
 20
1467.395973330448
 10
894.6026164826003
 20
1467.397622150057
 10
894.6034575122457
 20
1467.399238330371
 10
894.6042917097715
 20
1467.400867415086
 10
894.6066902045776
 20
1467.405705659227
 10
894.6096412866882
 20
1467.412008374025
 10
894.6110817431414
 20
1467.415244308534
 10
894.6131892221812
 20
1467.420191972257
 10
894.6150766182183
 20
1467.424866224716
 10
894.6170374681059
 20
1467.429998033473
 10
894.6188599480848
 20
1467.435055747851
  0
LWPOLYLINE
  5
A5A
330
23
100
AcDbEntity
  8
SANINDUSA
  6
Continuous
100
AcDbPolyline
 90
       53
 70
   128
 43
0.0
 10
894.3624449679575
 20
1467.248720242801
 10
894.3529618879463
 20
1467.248900326973
 10
894.34351617914
 20
1467.249439116555
 10
894.3340175006868
 20
1467.250341670388
 10
894.3246853131604
 20
1467.251580686709
 10
894.3148341519249
 20
1467.253269524646
 10
894.3082631205198
 20
1467.254615124213
 10
894.3019637795002
 20
1467.256071290406
 10
894.2959344942
 20
1467.25761954419
 10
894.2901735568197
 20
1467.259241509933
 10
894.2846788589026
 20
1467.260919787993
 10
894.2794343574075
 20
1467.262643221706
 10
894.2658735187634
 20
1467.26766358787
 10
894.2530320210183
 20
1467.273197367357
 10
894.2408928101663
 20
1467.279166339812
 10
894.2287730760146
 20
1467.28588971273
 10
894.2168054497505
 20
1467.293337180791
 10
894.2050779868067
 20
1467.301487164989
 10
894.1957088360545
 20
1467.30866505252
 10
894.1865130030022
 20
1467.316347113271
 10
894.1775164949746
 20
1467.324541081811
 10
894.1691037402877
 20
1467.332884505253
 10
894.1611230292206
 20
1467.34148922166
 10
894.1532416800248
 20
1467.350742636657
 10
894.1455285648727
 20
1467.360646954243
 10
894.1413060702526
 20
1467.366479977506
 10
894.1370825972175
 20
1467.372646851577
 10
894.1361357972077
 20
1467.374079065473
 10
894.1351898333168
 20
1467.375529298928
 10
894.1342448797907
 20
1467.376997797642
 10
894.1333516791255
 20
1467.378404628814
 10
894.1324948734278
 20
1467.379771770901
 10
894.1316047350614
 20
1467.381210928794
 10
894.13088552896
 20
1467.382388142742
 10
894.1304079323643
 20
1467.383177178453
 10
894.1294625329559
 20
1467.384756637495
 10
894.1281488359493
 20
1467.386991831965
 10
894.127245958202
 20
1467.388556130203
 10
894.1263815128936
 20
1467.390076118379
 10
894.1255552187028
 20
1467.391550060182
 10
894.1247658086282
 20
1467.392978141262
 10
894.1239381007047
 20
1467.394497150791
 10
894.1231454138392
 20
1467.395973330448
 10
894.1222734533145
 20
1467.397622150057
 10
894.1214324236691
 20
1467.399238330371
 10
894.1205982261433
 20
1467.400867415086
 10
894.1181997313371
 20
1467.405705659227
 10
894.1152486492265
 20
1467.412008374025
 10
894.1138081927734
 20
1467.415244308534
 10
894.1117007137336
 20
1467.420191972257
 10
894.1098133176964
 20
1467.424866224716
 10
894.1078524678088
 20
1467.429998033473
 10
894.10602998783
 20
1467.435055747851
  0
ARC
  5
E74
330
23
100
AcDbEntity
  8
SANINDUSA
100
AcDbCircle
 10
897.5790990137813
 20
1467.577403635545
 30
0.0
 40
0.2357100958277949
100
AcDbArc
 50
323.8173927070658
 51
3.073981361772955
  0
ENDSEC
  0
SECTION
  2
OBJECTS
  0
DICTIONARY
  5
C
330
0
100
AcDbDictionary
281
     1
  3
ACAD_2007HEADERVARS_RT
350
F4A
  3
ACAD_COLOR
350
1C
  3
ACAD_GROUP
350
D
  3
ACAD_LAYOUT
350
1A
  3
ACAD_MATERIAL
350
1B
  3
ACAD_MLEADERSTYLE
350
EBF
  3
ACAD_MLINESTYLE
350
17
  3
ACAD_PLOTSETTINGS
350
19
  3
ACAD_PLOTSTYLENAME
350
E
  3
ACAD_SCALELIST
350
EAD
  3
ACAD_TABLESTYLE
350
1D
  3
ACAD_VISUALSTYLE
350
E99
  3
ACDB_RECOMPOSE_DATA
350
F48
  3
AcDbVariableDictionary
350
E71
  3
DWGPROPS
350
F49
  0
DICTIONARY
  5
EC5
330
10
100
AcDbDictionary
280
     1
281
     1
  3
ADSK_XREC_LAYER_RECONCILED
360
EC6
  0
DICTIONARY
  5
EC7
330
2BA
100
AcDbDictionary
280
     1
281
     1
  3
ADSK_XREC_LAYER_RECONCILED
360
EC8
  0
DICTIONARY
  5
EC9
330
2BB
100
AcDbDictionary
280
     1
281
     1
  3
ADSK_XREC_LAYER_RECONCILED
360
ECA
  0
DICTIONARY
  5
ECB
330
2BC
100
AcDbDictionary
280
     1
281
     1
  3
ADSK_XREC_LAYER_RECONCILED
360
ECC
  0
DICTIONARY
  5
ECD
330
2BD
100
AcDbDictionary
280
     1
281
     1
  3
ADSK_XREC_LAYER_RECONCILED
360
ECE
  0
DICTIONARY
  5
ECF
330
2BE
100
AcDbDictionary
280
     1
281
     1
  3
ADSK_XREC_LAYER_RECONCILED
360
ED0
  0
DICTIONARY
  5
ED1
330
2BF
100
AcDbDictionary
280
     1
281
     1
  3
ADSK_XREC_LAYER_RECONCILED
360
ED2
  0
DICTIONARY
  5
ED3
330
2C0
100
AcDbDictionary
280
     1
281
     1
  3
ADSK_XREC_LAYER_RECONCILED
360
ED4
  0
DICTIONARY
  5
ED5
330
2C2
100
AcDbDictionary
280
     1
281
     1
  3
ADSK_XREC_LAYER_RECONCILED
360
ED6
  0
DICTIONARY
  5
F4A
102
{ACAD_REACTORS
330
C
102
}
330
C
100
AcDbDictionary
281
     1
  3
DIMJOGANG
350
F4B
  0
DICTIONARY
  5
1C
102
{ACAD_REACTORS
330
C
102
}
330
C
100
AcDbDictionary
281
     1
  0
DICTIONARY
  5
D
102
{ACAD_REACTORS
330
C
102
}
330
C
100
AcDbDictionary
281
     1
  0
DICTIONARY
  5
1A
102
{ACAD_REACTORS
330
C
102
}
330
C
100
AcDbDictionary
281
     1
  3
Layout1
350
22
  3
Layout2
350
2A
  3
Model
350
26
  0
DICTIONARY
  5
1B
102
{ACAD_REACTORS
330
C
102
}
330
C
100
AcDbDictionary
281
     1
  3
ByBlock
350
E89
  3
ByLayer
350
E81
  3
Global
350
E91
  0
DICTIONARY
  5
EBF
102
{ACAD_REACTORS
330
C
102
}
330
C
100
AcDbDictionary
281
     1
  3
Standard
350
EC0
  0
DICTIONARY
  5
17
102
{ACAD_REACTORS
330
C
102
}
330
C
100
AcDbDictionary
281
     1
  3
Standard
350
18
  0
DICTIONARY
  5
19
102
{ACAD_REACTORS
330
C
102
}
330
C
100
AcDbDictionary
281
     1
  0
ACDBDICTIONARYWDFLT
  5
E
102
{ACAD_REACTORS
330
C
102
}
330
C
100
AcDbDictionary
281
     1
  3
Normal
350
F
100
AcDbDictionaryWithDefault
340
F
  0
DICTIONARY
  5
EAD
102
{ACAD_REACTORS
330
C
102
}
330
C
100
AcDbDictionary
281
     1
  3
A0
350
EAE
  3
A1
350
EAF
  3
A2
350
EB0
  3
A3
350
EB1
  3
A4
350
EB2
  3
A5
350
EB3
  3
A6
350
EB4
  3
A7
350
EB5
  3
A8
350
EB6
  3
A9
350
EB7
  3
B0
350
EB8
  3
B1
350
EB9
  3
B2
350
EBA
  3
B3
350
EBB
  3
B4
350
EBC
  3
B5
350
EBD
  3
B6
350
EBE
  0
DICTIONARY
  5
1D
102
{ACAD_REACTORS
330
C
102
}
330
C
100
AcDbDictionary
281
     1
  3
Standard
350
1E
  0
DICTIONARY
  5
E99
102
{ACAD_REACTORS
330
C
102
}
330
C
100
AcDbDictionary
281
     1
  3
2dWireframe
350
E9F
  3
3D Hidden
350
EA1
  3
3dWireframe
350
EA0
  3
Basic
350
E9E
  3
Brighten
350
EA5
  3
ColorChange
350
EA9
  3
Conceptual
350
EA2
  3
Dim
350
EA4
  3
EdgeColorOff
350
EAC
  3
Facepattern
350
EA8
  3
Flat
350
E9A
  3
FlatWithEdges
350
E9B
  3
Gouraud
350
E9C
  3
GouraudWithEdges
350
E9D
  3
JitterOff
350
EAA
  3
Linepattern
350
EA7
  3
OverhangOff
350
EAB
  3
Realistic
350
EA3
  3
Thicken
350
EA6
  0
XRECORD
  5
F48
102
{ACAD_REACTORS
330
C
102
}
330
C
100
AcDbXrecord
280
     1
 90
        1
330
1E
  0
DICTIONARY
  5
E71
102
{ACAD_REACTORS
330
C
102
}
330
C
100
AcDbDictionary
281
     1
  3
CANNOSCALE
350
F42
  3
CMLEADERSTYLE
350
F41
  3
CTABLESTYLE
350
E72
  3
DIMASSOC
350
E7E
  3
HIDETEXT
350
E7D
  3
INDEXCTL
350
F44
  3
PROJECTNAME
350
E7F
  3
SORTENTS
350
F43
  3
XCLIPFRAME
350
F45
  0
XRECORD
  5
F49
102
{ACAD_REACTORS
330
C
102
}
330
C
100
AcDbXrecord
280
     1
  1
DWGPROPS COOKIE
  2

  3

  4

  6

  7

  8
Julio
  9

300
=
301
=
302
=
303
=
304
=
305
=
306
=
307
=
308
=
309
=
 40
0.0047229513888889
 41
2453805.538244352
 42
2456146.512536701
  1

 90
        0
  0
XRECORD
  5
EC6
102
{ACAD_REACTORS
330
EC5
102
}
330
EC5
100
AcDbXrecord
280
     1
290
     1
  0
XRECORD
  5
EC8
102
{ACAD_REACTORS
330
EC7
102
}
330
EC7
100
AcDbXrecord
280
     1
290
     1
  0
XRECORD
  5
ECA
102
{ACAD_REACTORS
330
EC9
102
}
330
EC9
100
AcDbXrecord
280
     1
290
     1
  0
XRECORD
  5
ECC
102
{ACAD_REACTORS
330
ECB
102
}
330
ECB
100
AcDbXrecord
280
     1
290
     1
  0
XRECORD
  5
ECE
102
{ACAD_REACTORS
330
ECD
102
}
330
ECD
100
AcDbXrecord
280
     1
290
     1
  0
XRECORD
  5
ED0
102
{ACAD_REACTORS
330
ECF
102
}
330
ECF
100
AcDbXrecord
280
     1
290
     1
  0
XRECORD
  5
ED2
102
{ACAD_REACTORS
330
ED1
102
}
330
ED1
100
AcDbXrecord
280
     1
290
     1
  0
XRECORD
  5
ED4
102
{ACAD_REACTORS
330
ED3
102
}
330
ED3
100
AcDbXrecord
280
     1
290
     1
  0
XRECORD
  5
ED6
102
{ACAD_REACTORS
330
ED5
102
}
330
ED5
100
AcDbXrecord
280
     1
290
     1
  0
XRECORD
  5
F4B
102
{ACAD_REACTORS
330
F4A
102
}
330
F4A
100
AcDbXrecord
280
     1
 40
1.570796326794896
  0
LAYOUT
  5
22
102
{ACAD_XDICTIONARY
360
F4D
102
}
102
{ACAD_REACTORS
330
1A
102
}
330
1A
100
AcDbPlotSettings
  1

  2
HP DesignJet 500PS42+HPGL2 Card
  4

  6

 40
0.0
 41
0.0
 42
0.0
 43
0.0
 44
0.0
 45
0.0
 46
0.0
 47
0.0
 48
0.0
 49
0.0
140
0.0
141
0.0
142
1.0
143
1.0
 70
   688
 72
     0
 73
     0
 74
     5
  7
C:\Documents and Settings\Julio\Application Data\Autodesk\AutoCAD 2006\R16.2\enu\Plot Styles\sanindusa.ctb
 75
    16
147
1.0
148
0.0
149
0.0
100
AcDbLayout
  1
Layout1
 70
     1
 71
     1
 10
0.0
 20
0.0
 11
420.0
 21
297.0
 12
0.0
 22
0.0
 32
0.0
 14
1.000000000000000E+20
 24
1.000000000000000E+20
 34
1.000000000000000E+20
 15
-1.000000000000000E+20
 25
-1.000000000000000E+20
 35
-1.000000000000000E+20
146
0.0
 13
0.0
 23
0.0
 33
0.0
 16
1.0
 26
0.0
 36
0.0
 17
0.0
 27
1.0
 37
0.0
 76
     0
330
1F
  0
LAYOUT
  5
2A
102
{ACAD_XDICTIONARY
360
F51
102
}
102
{ACAD_REACTORS
330
1A
102
}
330
1A
100
AcDbPlotSettings
  1

  2
HP DesignJet 500PS42+HPGL2 Card
  4

  6

 40
0.0
 41
0.0
 42
0.0
 43
0.0
 44
0.0
 45
0.0
 46
0.0
 47
0.0
 48
0.0
 49
0.0
140
0.0
141
0.0
142
1.0
143
1.0
 70
   688
 72
     0
 73
     0
 74
     5
  7
C:\Documents and Settings\Julio\Application Data\Autodesk\AutoCAD 2006\R16.2\enu\Plot Styles\sanindusa.ctb
 75
    16
147
1.0
148
0.0
149
0.0
100
AcDbLayout
  1
Layout2
 70
     1
 71
     2
 10
0.0
 20
0.0
 11
12.0
 21
9.0
 12
0.0
 22
0.0
 32
0.0
 14
0.0
 24
0.0
 34
0.0
 15
0.0
 25
0.0
 35
0.0
146
0.0
 13
0.0
 23
0.0
 33
0.0
 16
1.0
 26
0.0
 36
0.0
 17
0.0
 27
1.0
 37
0.0
 76
     0
330
27
  0
LAYOUT
  5
26
102
{ACAD_XDICTIONARY
360
F4F
102
}
102
{ACAD_REACTORS
330
1A
102
}
330
1A
100
AcDbPlotSettings
  1

  2
HP DesignJet 500PS42+HPGL2 Card
  4

  6

 40
0.0
 41
0.0
 42
0.0
 43
0.0
 44
0.0
 45
0.0
 46
0.0
 47
0.0
 48
0.0
 49
0.0
140
0.0
141
0.0
142
1.0
143
1.0
 70
  1712
 72
     0
 73
     0
 74
     0
  7
C:\Documents and Settings\Julio\Application Data\Autodesk\AutoCAD 2006\R16.2\enu\Plot Styles\sanindusa.ctb
 75
     0
147
1.0
148
0.0
149
0.0
100
AcDbLayout
  1
Model
 70
     1
 71
     0
 10
0.0
 20
0.0
 11
12.0
 21
9.0
 12
0.0
 22
0.0
 32
0.0
 14
0.0
 24
0.0
 34
0.0
 15
0.0
 25
0.0
 35
0.0
146
0.0
 13
0.0
 23
0.0
 33
0.0
 16
1.0
 26
0.0
 36
0.0
 17
0.0
 27
1.0
 37
0.0
 76
     0
330
23
331
E75
  0
MATERIAL
  5
E89
102
{ACAD_XDICTIONARY
360
E8A
102
}
102
{ACAD_REACTORS
330
1B
102
}
330
1B
100
AcDbMaterial
  1
ByBlock
 72
     0
 43
0.0008202099737533
 43
0.0
 43
0.0
 43
0.0
 43
0.0
 43
0.0008202099737533
 43
0.0
 43
0.0
 43
0.0
 43
0.0
 43
1.0
 43
0.0
 43
0.0
 43
0.0
 43
0.0
 43
1.0
 77
     0
 47
0.0008202099737533
 47
0.0
 47
0.0
 47
0.0
 47
0.0
 47
0.0008202099737533
 47
0.0
 47
0.0
 47
0.0
 47
0.0
 47
1.0
 47
0.0
 47
0.0
 47
0.0
 47
0.0
 47
1.0
171
     0
 49
0.0008202099737533
 49
0.0
 49
0.0
 49
0.0
 49
0.0
 49
0.0008202099737533
 49
0.0
 49
0.0
 49
0.0
 49
0.0
 49
1.0
 49
0.0
 49
0.0
 49
0.0
 49
0.0
 49
1.0
175
     0
142
0.0008202099737533
142
0.0
142
0.0
142
0.0
142
0.0
142
0.0008202099737533
142
0.0
142
0.0
142
0.0
142
0.0
142
1.0
142
0.0
142
0.0
142
0.0
142
0.0
142
1.0
179
     0
144
0.0008202099737533
144
0.0
144
0.0
144
0.0
144
0.0
144
0.0008202099737533
144
0.0
144
0.0
144
0.0
144
0.0
144
1.0
144
0.0
144
0.0
144
0.0
144
0.0
144
1.0
147
0.0008202099737533
147
0.0
147
0.0
147
0.0
147
0.0
147
0.0008202099737533
147
0.0
147
0.0
147
0.0
147
0.0
147
1.0
147
0.0
147
0.0
147
0.0
147
0.0
147
1.0
  0
MATERIAL
  5
E81
102
{ACAD_XDICTIONARY
360
E82
102
}
102
{ACAD_REACTORS
330
1B
102
}
330
1B
100
AcDbMaterial
  1
ByLayer
 72
     0
 43
0.0008202099737533
 43
0.0
 43
0.0
 43
0.0
 43
0.0
 43
0.0008202099737533
 43
0.0
 43
0.0
 43
0.0
 43
0.0
 43
1.0
 43
0.0
 43
0.0
 43
0.0
 43
0.0
 43
1.0
 77
     0
 47
0.0008202099737533
 47
0.0
 47
0.0
 47
0.0
 47
0.0
 47
0.0008202099737533
 47
0.0
 47
0.0
 47
0.0
 47
0.0
 47
1.0
 47
0.0
 47
0.0
 47
0.0
 47
0.0
 47
1.0
171
     0
 49
0.0008202099737533
 49
0.0
 49
0.0
 49
0.0
 49
0.0
 49
0.0008202099737533
 49
0.0
 49
0.0
 49
0.0
 49
0.0
 49
1.0
 49
0.0
 49
0.0
 49
0.0
 49
0.0
 49
1.0
175
     0
142
0.0008202099737533
142
0.0
142
0.0
142
0.0
142
0.0
142
0.0008202099737533
142
0.0
142
0.0
142
0.0
142
0.0
142
1.0
142
0.0
142
0.0
142
0.0
142
0.0
142
1.0
179
     0
144
0.0008202099737533
144
0.0
144
0.0
144
0.0
144
0.0
144
0.0008202099737533
144
0.0
144
0.0
144
0.0
144
0.0
144
1.0
144
0.0
144
0.0
144
0.0
144
0.0
144
1.0
147
0.0008202099737533
147
0.0
147
0.0
147
0.0
147
0.0
147
0.0008202099737533
147
0.0
147
0.0
147
0.0
147
0.0
147
1.0
147
0.0
147
0.0
147
0.0
147
0.0
147
1.0
  0
MATERIAL
  5
E91
102
{ACAD_XDICTIONARY
360
E92
102
}
102
{ACAD_REACTORS
330
1B
102
}
330
1B
100
AcDbMaterial
  1
Global
 72
     0
 43
0.0008202099737533
 43
0.0
 43
0.0
 43
0.0
 43
0.0
 43
0.0008202099737533
 43
0.0
 43
0.0
 43
0.0
 43
0.0
 43
1.0
 43
0.0
 43
0.0
 43
0.0
 43
0.0
 43
1.0
 77
     0
 47
0.0008202099737533
 47
0.0
 47
0.0
 47
0.0
 47
0.0
 47
0.0008202099737533
 47
0.0
 47
0.0
 47
0.0
 47
0.0
 47
1.0
 47
0.0
 47
0.0
 47
0.0
 47
0.0
 47
1.0
171
     0
 49
0.0008202099737533
 49
0.0
 49
0.0
 49
0.0
 49
0.0
 49
0.0008202099737533
 49
0.0
 49
0.0
 49
0.0
 49
0.0
 49
1.0
 49
0.0
 49
0.0
 49
0.0
 49
0.0
 49
1.0
175
     0
142
0.0008202099737533
142
0.0
142
0.0
142
0.0
142
0.0
142
0.0008202099737533
142
0.0
142
0.0
142
0.0
142
0.0
142
1.0
142
0.0
142
0.0
142
0.0
142
0.0
142
1.0
179
     0
144
0.0008202099737533
144
0.0
144
0.0
144
0.0
144
0.0
144
0.0008202099737533
144
0.0
144
0.0
144
0.0
144
0.0
144
1.0
144
0.0
144
0.0
144
0.0
144
0.0
144
1.0
147
0.0008202099737533
147
0.0
147
0.0
147
0.0
147
0.0
147
0.0008202099737533
147
0.0
147
0.0
147
0.0
147
0.0
147
1.0
147
0.0
147
0.0
147
0.0
147
0.0
147
1.0
  0
MLEADERSTYLE
  5
EC0
102
{ACAD_REACTORS
330
EBF
102
}
330
EBF
100
AcDbMLeaderStyle
170
     2
171
     1
172
     0
 90
        2
 40
0.0
 41
0.0
173
     1
 91
-1056964608
340
14
 92
       -2
290
     1
 42
2.0
291
     1
 43
0.36
  3
Standard
 44
4.0
300

342
11
174
     1
178
     6
175
     1
176
     0
 93
-1056964608
 45
4.0
292
     0
297
     0
 46
4.0
 94
-1056964608
 47
1.0
 49
1.0
140
1.0
293
     1
141
0.0
294
     1
177
     0
142
1.0
295
     0
296
     0
143
0.125
1001
ACAD_MLEADERVER
1070
     2
  0
MLINESTYLE
  5
18
102
{ACAD_REACTORS
330
17
102
}
330
17
100
AcDbMlineStyle
  2
STANDARD
 70
     0
  3

 62
   256
 51
90.0
 52
90.0
 71
     2
 49
0.5
 62
   256
  6
BYLAYER
 49
-0.5
 62
   256
  6
BYLAYER
  0
ACDBPLACEHOLDER
  5
F
102
{ACAD_REACTORS
330
E
102
}
330
E
  0
SCALE
  5
EAE
102
{ACAD_REACTORS
330
EAD
102
}
330
EAD
100
AcDbScale
 70
     0
300
1:1
140
1.0
141
1.0
290
     1
  0
SCALE
  5
EAF
102
{ACAD_REACTORS
330
EAD
102
}
330
EAD
100
AcDbScale
 70
     0
300
1:2
140
1.0
141
2.0
290
     0
  0
SCALE
  5
EB0
102
{ACAD_REACTORS
330
EAD
102
}
330
EAD
100
AcDbScale
 70
     0
300
1:4
140
1.0
141
4.0
290
     0
  0
SCALE
  5
EB1
102
{ACAD_REACTORS
330
EAD
102
}
330
EAD
100
AcDbScale
 70
     0
300
1:5
140
1.0
141
5.0
290
     0
  0
SCALE
  5
EB2
102
{ACAD_REACTORS
330
EAD
102
}
330
EAD
100
AcDbScale
 70
     0
300
1:8
140
1.0
141
8.0
290
     0
  0
SCALE
  5
EB3
102
{ACAD_REACTORS
330
EAD
102
}
330
EAD
100
AcDbScale
 70
     0
300
1:10
140
1.0
141
10.0
290
     0
  0
SCALE
  5
EB4
102
{ACAD_REACTORS
330
EAD
102
}
330
EAD
100
AcDbScale
 70
     0
300
1:16
140
1.0
141
16.0
290
     0
  0
SCALE
  5
EB5
102
{ACAD_REACTORS
330
EAD
102
}
330
EAD
100
AcDbScale
 70
     0
300
1:20
140
1.0
141
20.0
290
     0
  0
SCALE
  5
EB6
102
{ACAD_REACTORS
330
EAD
102
}
330
EAD
100
AcDbScale
 70
     0
300
1:30
140
1.0
141
30.0
290
     0
  0
SCALE
  5
EB7
102
{ACAD_REACTORS
330
EAD
102
}
330
EAD
100
AcDbScale
 70
     0
300
1:40
140
1.0
141
40.0
290
     0
  0
SCALE
  5
EB8
102
{ACAD_REACTORS
330
EAD
102
}
330
EAD
100
AcDbScale
 70
     0
300
1:50
140
1.0
141
50.0
290
     0
  0
SCALE
  5
EB9
102
{ACAD_REACTORS
330
EAD
102
}
330
EAD
100
AcDbScale
 70
     0
300
1:100
140
1.0
141
100.0
290
     0
  0
SCALE
  5
EBA
102
{ACAD_REACTORS
330
EAD
102
}
330
EAD
100
AcDbScale
 70
     0
300
2:1
140
2.0
141
1.0
290
     0
  0
SCALE
  5
EBB
102
{ACAD_REACTORS
330
EAD
102
}
330
EAD
100
AcDbScale
 70
     0
300
4:1
140
4.0
141
1.0
290
     0
  0
SCALE
  5
EBC
102
{ACAD_REACTORS
330
EAD
102
}
330
EAD
100
AcDbScale
 70
     0
300
8:1
140
8.0
141
1.0
290
     0
  0
SCALE
  5
EBD
102
{ACAD_REACTORS
330
EAD
102
}
330
EAD
100
AcDbScale
 70
     0
300
10:1
140
10.0
141
1.0
290
     0
  0
SCALE
  5
EBE
102
{ACAD_REACTORS
330
EAD
102
}
330
EAD
100
AcDbScale
 70
     0
300
100:1
140
100.0
141
1.0
290
     0
  0
TABLESTYLE
  5
1E
102
{ACAD_XDICTIONARY
360
F46
102
}
102
{ACAD_REACTORS
330
1D
102
}
330
1D
100
AcDbTableStyle
  3
Standard
 70
     0
 71
     0
 40
1.5
 41
1.5
280
     0
281
     0
  7
Standard
140
4.5
170
     2
 62
     0
 63
     7
283
     0
274
    -2
284
     1
 64
     0
275
    -2
285
     1
 65
     0
276
    -2
286
     1
 66
     0
277
    -2
287
     1
 67
     0
278
    -2
288
     1
 68
     0
279
    -2
289
     1
 69
     0
  7
Standard
140
6.0
170
     5
 62
     0
 63
     7
283
     0
274
    -2
284
     1
 64
     0
275
    -2
285
     1
 65
     0
276
    -2
286
     1
 66
     0
277
    -2
287
     1
 67
     0
278
    -2
288
     1
 68
     0
279
    -2
289
     1
 69
     0
  7
Standard
140
4.5
170
     5
 62
     0
 63
     7
283
     0
274
    -2
284
     1
 64
     0
275
    -2
285
     1
 65
     0
276
    -2
286
     1
 66
     0
277
    -2
287
     1
 67
     0
278
    -2
288
     1
 68
     0
279
    -2
289
     1
 69
     0
  0
VISUALSTYLE
  5
E9F
102
{ACAD_XDICTIONARY
360
F8C
102
}
102
{ACAD_REACTORS
330
E99
102
}
330
E99
100
AcDbVisualStyle
  2
2dWireframe
 70
     4
 71
     0
 72
     2
 73
     0
 90
        0
 40
-0.6
 41
-30.0
 62
     5
 63
     7
 74
     1
 91
        4
 64
     7
 65
   257
 75
     1
175
     1
 42
1.0
 92
        0
 66
   257
 43
1.0
 76
     1
 77
     6
 78
     2
 67
     7
 79
     5
170
     0
171
     0
290
     0
174
     0
 93
        1
 44
0.0
173
     0
291
     0
 45
0.0
1001
ACAD
1000
AcDbSavedByObjectVersion
1070
     0
  0
VISUALSTYLE
  5
EA1
102
{ACAD_XDICTIONARY
360
F90
102
}
102
{ACAD_REACTORS
330
E99
102
}
330
E99
100
AcDbVisualStyle
  2
3D Hidden
 70
     6
 71
     1
 72
     2
 73
     2
 90
        0
 40
-0.6
 41
-30.0
 62
     5
 63
     7
 74
     2
 91
        2
 64
     7
 65
   257
 75
     2
175
     1
 42
179.0
 92
        0
 66
   257
 43
1.0
 76
     1
 77
     6
 78
     2
 67
     7
 79
     3
170
     0
171
     0
290
     0
174
     0
 93
        1
 44
0.0
173
     0
291
     0
 45
0.0
1001
ACAD
1000
AcDbSavedByObjectVersion
1070
     0
  0
VISUALSTYLE
  5
EA0
102
{ACAD_XDICTIONARY
360
F8E
102
}
102
{ACAD_REACTORS
330
E99
102
}
330
E99
100
AcDbVisualStyle
  2
3dWireframe
 70
     5
 71
     0
 72
     2
 73
     0
 90
        0
 40
-0.6
 41
-30.0
 62
     5
 63
     7
 74
     1
 91
        4
 64
     7
 65
   257
 75
     1
175
     1
 42
1.0
 92
        0
 66
   257
 43
1.0
 76
     1
 77
     6
 78
     2
 67
     7
 79
     5
170
     0
171
     0
290
     0
174
     0
 93
        1
 44
0.0
173
     0
291
     0
 45
0.0
1001
ACAD
1000
AcDbSavedByObjectVersion
1070
     0
  0
VISUALSTYLE
  5
E9E
102
{ACAD_XDICTIONARY
360
F8A
102
}
102
{ACAD_REACTORS
330
E99
102
}
330
E99
100
AcDbVisualStyle
  2
Basic
 70
     7
 71
     1
 72
     0
 73
     1
 90
        0
 40
-0.6
 41
-30.0
 62
     5
 63
     7
 74
     0
 91
        4
 64
     7
 65
   257
 75
     1
175
     1
 42
1.0
 92
        8
 66
     7
 43
1.0
 76
     1
 77
     6
 78
     2
 67
     7
 79
     5
170
     0
171
     0
290
     0
174
     0
 93
        1
 44
0.0
173
     0
291
     1
 45
0.0
1001
ACAD
1000
AcDbSavedByObjectVersion
1070
     0
  0
VISUALSTYLE
  5
EA5
102
{ACAD_XDICTIONARY
360
F98
102
}
102
{ACAD_REACTORS
330
E99
102
}
330
E99
100
AcDbVisualStyle
  2
Brighten
 70
    12
 71
     2
 72
     2
 73
     0
 90
        0
 40
-0.6
 41
-30.0
 62
     5
 63
     7
 74
     1
 91
        4
 64
     7
 65
   257
 75
     1
175
     1
 42
1.0
 92
        8
 66
     7
 43
1.0
 76
     1
 77
     6
 78
     2
 67
     7
 79
     5
170
     0
171
     0
290
     0
174
     0
 93
        1
 44
50.0
173
     0
291
     1
 45
0.0
1001
ACAD
1000
AcDbSavedByObjectVersion
1070
     0
  0
VISUALSTYLE
  5
EA9
102
{ACAD_XDICTIONARY
360
FA0
102
}
102
{ACAD_REACTORS
330
E99
102
}
330
E99
100
AcDbVisualStyle
  2
ColorChange
 70
    16
 71
     2
 72
     2
 73
     3
 90
        0
 40
-0.6
 41
-30.0
 62
     5
 63
     8
 74
     1
 91
        4
 64
     7
 65
   257
 75
     1
175
     1
 42
1.0
 92
        8
 66
     8
 43
1.0
 76
     1
 77
     6
 78
     2
 67
     7
 79
     5
170
     0
171
     0
290
     0
174
     0
 93
        1
 44
0.0
173
     0
291
     1
 45
0.0
1001
ACAD
1000
AcDbSavedByObjectVersion
1070
     0
  0
VISUALSTYLE
  5
EA2
102
{ACAD_XDICTIONARY
360
F92
102
}
102
{ACAD_REACTORS
330
E99
102
}
330
E99
100
AcDbVisualStyle
  2
Conceptual
 70
     9
 71
     3
 72
     2
 73
     0
 90
        0
 40
-0.6
 41
-30.0
 62
     5
 63
     7
 74
     2
 91
        2
 64
     7
 65
   257
 75
     1
175
     1
 42
179.0
 92
        8
 66
     7
 43
1.0
 76
     1
 77
     6
 78
     2
 67
     7
 79
     3
170
     0
171
     0
290
     0
174
     0
 93
        1
 44
0.0
173
     0
291
     0
 45
0.0
1001
ACAD
1000
AcDbSavedByObjectVersion
1070
     0
  0
VISUALSTYLE
  5
EA4
102
{ACAD_XDICTIONARY
360
F96
102
}
102
{ACAD_REACTORS
330
E99
102
}
330
E99
100
AcDbVisualStyle
  2
Dim
 70
    11
 71
     2
 72
     2
 73
     0
 90
        0
 40
-0.6
 41
-30.0
 62
     5
 63
     7
 74
     1
 91
        4
 64
     7
 65
   257
 75
     1
175
     1
 42
1.0
 92
        8
 66
     7
 43
1.0
 76
     1
 77
     6
 78
     2
 67
     7
 79
     5
170
     0
171
     0
290
     0
174
     0
 93
        1
 44
-50.0
173
     0
291
     1
 45
0.0
1001
ACAD
1000
AcDbSavedByObjectVersion
1070
     0
  0
VISUALSTYLE
  5
EAC
102
{ACAD_XDICTIONARY
360
FA6
102
}
102
{ACAD_REACTORS
330
E99
102
}
330
E99
100
AcDbVisualStyle
  2
EdgeColorOff
 70
    22
 71
     2
 72
     2
 73
     0
 90
        0
 40
-0.6
 41
-30.0
 62
     5
 63
     7
 74
     1
 91
        4
 64
     7
 65
   257
 75
     1
175
     1
 42
1.0
 92
        8
 66
     7
 43
1.0
 76
     1
 77
     6
 78
     2
 67
     7
 79
     5
170
     0
171
     0
290
     0
174
     0
 93
        1
 44
0.0
173
     0
291
     1
 45
0.0
1001
ACAD
1000
AcDbSavedByObjectVersion
1070
     0
  0
VISUALSTYLE
  5
EA8
102
{ACAD_XDICTIONARY
360
F9E
102
}
102
{ACAD_REACTORS
330
E99
102
}
330
E99
100
AcDbVisualStyle
  2
Facepattern
 70
    15
 71
     2
 72
     2
 73
     0
 90
        0
 40
-0.6
 41
-30.0
 62
     5
 63
     7
 74
     1
 91
        4
 64
     7
 65
   257
 75
     1
175
     1
 42
1.0
 92
        8
 66
     7
 43
1.0
 76
     1
 77
     6
 78
     2
 67
     7
 79
     5
170
     0
171
     0
290
     0
174
     0
 93
        1
 44
0.0
173
     0
291
     1
 45
0.0
1001
ACAD
1000
AcDbSavedByObjectVersion
1070
     0
  0
VISUALSTYLE
  5
E9A
102
{ACAD_XDICTIONARY
360
F82
102
}
102
{ACAD_REACTORS
330
E99
102
}
330
E99
100
AcDbVisualStyle
  2
Flat
 70
     0
 71
     2
 72
     1
 73
     1
 90
        2
 40
-0.6
 41
30.0
 62
     5
 63
     7
 74
     0
 91
        4
 64
     7
 65
   257
 75
     1
175
     1
 42
1.0
 92
        8
 66
     7
 43
1.0
 76
     1
 77
     6
 78
     2
 67
     7
 79
     5
170
     0
171
     0
290
     0
174
     0
 93
       13
 44
0.0
173
     0
291
     1
 45
0.0
1001
ACAD
1000
AcDbSavedByObjectVersion
1070
     0
  0
VISUALSTYLE
  5
E9B
102
{ACAD_XDICTIONARY
360
F84
102
}
102
{ACAD_REACTORS
330
E99
102
}
330
E99
100
AcDbVisualStyle
  2
FlatWithEdges
 70
     1
 71
     2
 72
     1
 73
     1
 90
        2
 40
-0.6
 41
30.0
 62
     5
 63
     7
 74
     1
 91
        4
 64
     7
 65
   257
 75
     1
175
     1
 42
1.0
 92
        0
 66
   257
 43
1.0
 76
     1
 77
     6
 78
     2
 67
     7
 79
     5
170
     0
171
     0
290
     0
174
     0
 93
       13
 44
0.0
173
     0
291
     1
 45
0.0
1001
ACAD
1000
AcDbSavedByObjectVersion
1070
     0
  0
VISUALSTYLE
  5
E9C
102
{ACAD_XDICTIONARY
360
F86
102
}
102
{ACAD_REACTORS
330
E99
102
}
330
E99
100
AcDbVisualStyle
  2
Gouraud
 70
     2
 71
     2
 72
     2
 73
     1
 90
        2
 40
-0.6
 41
30.0
 62
     5
 63
     7
 74
     0
 91
        4
 64
     7
 65
   257
 75
     1
175
     1
 42
1.0
 92
        0
 66
     7
 43
1.0
 76
     1
 77
     6
 78
     2
 67
     7
 79
     5
170
     0
171
     0
290
     0
174
     0
 93
       13
 44
0.0
173
     0
291
     1
 45
0.0
1001
ACAD
1000
AcDbSavedByObjectVersion
1070
     0
  0
VISUALSTYLE
  5
E9D
102
{ACAD_XDICTIONARY
360
F88
102
}
102
{ACAD_REACTORS
330
E99
102
}
330
E99
100
AcDbVisualStyle
  2
GouraudWithEdges
 70
     3
 71
     2
 72
     2
 73
     1
 90
        2
 40
-0.6
 41
30.0
 62
     5
 63
     7
 74
     1
 91
        4
 64
     7
 65
   257
 75
     1
175
     1
 42
1.0
 92
        0
 66
   257
 43
1.0
 76
     1
 77
     6
 78
     2
 67
     7
 79
     5
170
     0
171
     0
290
     0
174
     0
 93
       13
 44
0.0
173
     0
291
     1
 45
0.0
1001
ACAD
1000
AcDbSavedByObjectVersion
1070
     0
  0
VISUALSTYLE
  5
EAA
102
{ACAD_XDICTIONARY
360
FA2
102
}
102
{ACAD_REACTORS
330
E99
102
}
330
E99
100
AcDbVisualStyle
  2
JitterOff
 70
    20
 71
     2
 72
     2
 73
     0
 90
        0
 40
-0.6
 41
-30.0
 62
     5
 63
     7
 74
     1
 91
        4
 64
     7
 65
   257
 75
     1
175
     1
 42
1.0
 92
       10
 66
     7
 43
1.0
 76
     1
 77
     6
 78
     2
 67
     7
 79
     5
170
     0
171
     0
290
     0
174
     0
 93
        1
 44
0.0
173
     0
291
     1
 45
0.0
1001
ACAD
1000
AcDbSavedByObjectVersion
1070
     0
  0
VISUALSTYLE
  5
EA7
102
{ACAD_XDICTIONARY
360
F9C
102
}
102
{ACAD_REACTORS
330
E99
102
}
330
E99
100
AcDbVisualStyle
  2
Linepattern
 70
    14
 71
     2
 72
     2
 73
     0
 90
        0
 40
-0.6
 41
-30.0
 62
     5
 63
     7
 74
     1
 91
        4
 64
     7
 65
   257
 75
     7
175
     7
 42
1.0
 92
        8
 66
     7
 43
1.0
 76
     1
 77
     6
 78
     2
 67
     7
 79
     5
170
     0
171
     0
290
     0
174
     0
 93
        1
 44
0.0
173
     0
291
     1
 45
0.0
1001
ACAD
1000
AcDbSavedByObjectVersion
1070
     0
  0
VISUALSTYLE
  5
EAB
102
{ACAD_XDICTIONARY
360
FA4
102
}
102
{ACAD_REACTORS
330
E99
102
}
330
E99
100
AcDbVisualStyle
  2
OverhangOff
 70
    21
 71
     2
 72
     2
 73
     0
 90
        0
 40
-0.6
 41
-30.0
 62
     5
 63
     7
 74
     1
 91
        4
 64
     7
 65
   257
 75
     1
175
     1
 42
1.0
 92
        9
 66
     7
 43
1.0
 76
     1
 77
     6
 78
     2
 67
     7
 79
     5
170
     0
171
     0
290
     0
174
     0
 93
        1
 44
0.0
173
     0
291
     1
 45
0.0
1001
ACAD
1000
AcDbSavedByObjectVersion
1070
     0
  0
VISUALSTYLE
  5
EA3
102
{ACAD_XDICTIONARY
360
F94
102
}
102
{ACAD_REACTORS
330
E99
102
}
330
E99
100
AcDbVisualStyle
  2
Realistic
 70
     8
 71
     2
 72
     2
 73
     0
 90
        0
 40
-0.6
 41
-30.0
 62
     5
 63
     7
 74
     1
 91
        0
 64
     7
 65
   257
 75
     1
175
     1
 42
1.0
 92
        8
 66
     8
 43
1.0
 76
     1
 77
     6
 78
     2
 67
     7
 79
     5
170
     0
171
     0
290
     0
174
     0
 93
       13
 44
0.0
173
     0
291
     0
 45
0.0
1001
ACAD
1000
AcDbSavedByObjectVersion
1070
     0
  0
VISUALSTYLE
  5
EA6
102
{ACAD_XDICTIONARY
360
F9A
102
}
102
{ACAD_REACTORS
330
E99
102
}
330
E99
100
AcDbVisualStyle
  2
Thicken
 70
    13
 71
     2
 72
     2
 73
     0
 90
        0
 40
-0.6
 41
-30.0
 62
     5
 63
     7
 74
     1
 91
        4
 64
     7
 65
   257
 75
     1
175
     1
 42
1.0
 92
       12
 66
     7
 43
1.0
 76
     1
 77
     6
 78
     2
 67
     7
 79
     5
170
     0
171
     0
290
     0
174
     0
 93
        1
 44
0.0
173
     0
291
     1
 45
0.0
1001
ACAD
1000
AcDbSavedByObjectVersion
1070
     0
  0
DICTIONARYVAR
  5
F42
102
{ACAD_REACTORS
330
E71
102
}
330
E71
100
DictionaryVariables
280
     0
  1
1:1
  0
DICTIONARYVAR
  5
F41
102
{ACAD_REACTORS
330
E71
102
}
330
E71
100
DictionaryVariables
280
     0
  1
STANDARD
  0
DICTIONARYVAR
  5
E72
102
{ACAD_REACTORS
330
E71
102
}
330
E71
100
DictionaryVariables
280
     0
  1
STANDARD
  0
DICTIONARYVAR
  5
E7E
102
{ACAD_REACTORS
330
E71
102
}
330
E71
100
DictionaryVariables
280
     0
  1
2
  0
DICTIONARYVAR
  5
E7D
102
{ACAD_REACTORS
330
E71
102
}
330
E71
100
DictionaryVariables
280
     0
  1
1
  0
DICTIONARYVAR
  5
F44
102
{ACAD_REACTORS
330
E71
102
}
330
E71
100
DictionaryVariables
280
     0
  1
0
  0
DICTIONARYVAR
  5
E7F
102
{ACAD_REACTORS
330
E71
102
}
330
E71
100
DictionaryVariables
280
     0
  1

  0
DICTIONARYVAR
  5
F43
102
{ACAD_REACTORS
330
E71
102
}
330
E71
100
DictionaryVariables
280
     0
  1
127
  0
DICTIONARYVAR
  5
F45
102
{ACAD_REACTORS
330
E71
102
}
330
E71
100
DictionaryVariables
280
     0
  1
2
  0
DICTIONARY
  5
F4D
330
22
100
AcDbDictionary
280
     1
281
     1
  3
ACAD_XREC_ROUNDTRIP
360
F4E
  0
DICTIONARY
  5
F51
330
2A
100
AcDbDictionary
280
     1
281
     1
  3
ACAD_XREC_ROUNDTRIP
360
F52
  0
DICTIONARY
  5
F4F
330
26
100
AcDbDictionary
280
     1
281
     1
  3
ACAD_XREC_ROUNDTRIP
360
F50
  0
DICTIONARY
  5
E8A
330
E89
100
AcDbDictionary
280
     1
281
     1
  3
ACAD_XREC_ROUNDTRIP
360
F80
  3
BUMPTILE
360
E8C
  3
DIFFUSETILE
360
E8B
  3
OPACITYTILE
360
E8F
  3
REFLECTIONTILE
360
E8E
  3
REFRACTIONTILE
360
E90
  3
SPECULARTILE
360
E8D
  0
DICTIONARY
  5
E82
330
E81
100
AcDbDictionary
280
     1
281
     1
  3
ACAD_XREC_ROUNDTRIP
360
F7F
  3
BUMPTILE
360
E84
  3
DIFFUSETILE
360
E83
  3
OPACITYTILE
360
E87
  3
REFLECTIONTILE
360
E86
  3
REFRACTIONTILE
360
E88
  3
SPECULARTILE
360
E85
  0
DICTIONARY
  5
E92
330
E91
100
AcDbDictionary
280
     1
281
     1
  3
ACAD_XREC_ROUNDTRIP
360
F81
  3
BUMPTILE
360
E94
  3
DIFFUSETILE
360
E93
  3
OPACITYTILE
360
E97
  3
REFLECTIONTILE
360
E96
  3
REFRACTIONTILE
360
E98
  3
SPECULARTILE
360
E95
  0
DICTIONARY
  5
F46
330
1E
100
AcDbDictionary
280
     1
281
     1
  3
ACAD_ROUNDTRIP_2008_TABLESTYLE_CELLSTYLEMAP
360
F47
  3
ACAD_XREC_ROUNDTRIP
360
F4C
  0
DICTIONARY
  5
F8C
330
E9F
100
AcDbDictionary
280
     1
281
     1
  3
ACAD_XREC_ROUNDTRIP
360
F8D
  0
DICTIONARY
  5
F90
330
EA1
100
AcDbDictionary
280
     1
281
     1
  3
ACAD_XREC_ROUNDTRIP
360
F91
  0
DICTIONARY
  5
F8E
330
EA0
100
AcDbDictionary
280
     1
281
     1
  3
ACAD_XREC_ROUNDTRIP
360
F8F
  0
DICTIONARY
  5
F8A
330
E9E
100
AcDbDictionary
280
     1
281
     1
  3
ACAD_XREC_ROUNDTRIP
360
F8B
  0
DICTIONARY
  5
F98
330
EA5
100
AcDbDictionary
280
     1
281
     1
  3
ACAD_XREC_ROUNDTRIP
360
F99
  0
DICTIONARY
  5
FA0
330
EA9
100
AcDbDictionary
280
     1
281
     1
  3
ACAD_XREC_ROUNDTRIP
360
FA1
  0
DICTIONARY
  5
F92
330
EA2
100
AcDbDictionary
280
     1
281
     1
  3
ACAD_XREC_ROUNDTRIP
360
F93
  0
DICTIONARY
  5
F96
330
EA4
100
AcDbDictionary
280
     1
281
     1
  3
ACAD_XREC_ROUNDTRIP
360
F97
  0
DICTIONARY
  5
FA6
330
EAC
100
AcDbDictionary
280
     1
281
     1
  3
ACAD_XREC_ROUNDTRIP
360
FA7
  0
DICTIONARY
  5
F9E
330
EA8
100
AcDbDictionary
280
     1
281
     1
  3
ACAD_XREC_ROUNDTRIP
360
F9F
  0
DICTIONARY
  5
F82
330
E9A
100
AcDbDictionary
280
     1
281
     1
  3
ACAD_XREC_ROUNDTRIP
360
F83
  0
DICTIONARY
  5
F84
330
E9B
100
AcDbDictionary
280
     1
281
     1
  3
ACAD_XREC_ROUNDTRIP
360
F85
  0
DICTIONARY
  5
F86
330
E9C
100
AcDbDictionary
280
     1
281
     1
  3
ACAD_XREC_ROUNDTRIP
360
F87
  0
DICTIONARY
  5
F88
330
E9D
100
AcDbDictionary
280
     1
281
     1
  3
ACAD_XREC_ROUNDTRIP
360
F89
  0
DICTIONARY
  5
FA2
330
EAA
100
AcDbDictionary
280
     1
281
     1
  3
ACAD_XREC_ROUNDTRIP
360
FA3
  0
DICTIONARY
  5
F9C
330
EA7
100
AcDbDictionary
280
     1
281
     1
  3
ACAD_XREC_ROUNDTRIP
360
F9D
  0
DICTIONARY
  5
FA4
330
EAB
100
AcDbDictionary
280
     1
281
     1
  3
ACAD_XREC_ROUNDTRIP
360
FA5
  0
DICTIONARY
  5
F94
330
EA3
100
AcDbDictionary
280
     1
281
     1
  3
ACAD_XREC_ROUNDTRIP
360
F95
  0
DICTIONARY
  5
F9A
330
EA6
100
AcDbDictionary
280
     1
281
     1
  3
ACAD_XREC_ROUNDTRIP
360
F9B
  0
XRECORD
  5
F4E
102
{ACAD_REACTORS
330
F4D
102
}
330
F4D
100
AcDbXrecord
280
     1
102
SHADEPLOT
 70
     0
102
SHADEPLOTRESLEVEL
 70
     2
102
SHADEPLOTCUSTOMDPI
 70
   300
  0
XRECORD
  5
F52
102
{ACAD_REACTORS
330
F51
102
}
330
F51
100
AcDbXrecord
280
     1
102
SHADEPLOT
 70
     0
102
SHADEPLOTRESLEVEL
 70
     2
102
SHADEPLOTCUSTOMDPI
 70
   300
  0
XRECORD
  5
F50
102
{ACAD_REACTORS
330
F4F
102
}
330
F4F
100
AcDbXrecord
280
     1
102
SHADEPLOT
 70
     0
102
SHADEPLOTRESLEVEL
 70
     2
102
SHADEPLOTCUSTOMDPI
 70
   300
  0
XRECORD
  5
F80
102
{ACAD_REACTORS
330
E8A
102
}
330
E8A
100
AcDbXrecord
280
     1
102
MATERIAL
148
0.0
149
0.0
149
0.0
 93
        0
 94
      127
282
     0
 72
     0
 77
     0
171
     0
175
     0
179
     0
273
     0
  0
XRECORD
  5
E8C
102
{ACAD_REACTORS
330
E8A
102
}
330
E8A
100
AcDbXrecord
280
     1
270
     1
271
     1
  0
XRECORD
  5
E8B
102
{ACAD_REACTORS
330
E8A
102
}
330
E8A
100
AcDbXrecord
280
     1
270
     1
271
     1
  0
XRECORD
  5
E8F
102
{ACAD_REACTORS
330
E8A
102
}
330
E8A
100
AcDbXrecord
280
     1
270
     1
271
     1
  0
XRECORD
  5
E8E
102
{ACAD_REACTORS
330
E8A
102
}
330
E8A
100
AcDbXrecord
280
     1
270
     1
271
     1
  0
XRECORD
  5
E90
102
{ACAD_REACTORS
330
E8A
102
}
330
E8A
100
AcDbXrecord
280
     1
270
     1
271
     1
  0
XRECORD
  5
E8D
102
{ACAD_REACTORS
330
E8A
102
}
330
E8A
100
AcDbXrecord
280
     1
270
     1
271
     1
  0
XRECORD
  5
F7F
102
{ACAD_REACTORS
330
E82
102
}
330
E82
100
AcDbXrecord
280
     1
102
MATERIAL
148
0.0
149
0.0
149
0.0
 93
        0
 94
      127
282
     0
 72
     0
 77
     0
171
     0
175
     0
179
     0
273
     0
  0
XRECORD
  5
E84
102
{ACAD_REACTORS
330
E82
102
}
330
E82
100
AcDbXrecord
280
     1
270
     1
271
     1
  0
XRECORD
  5
E83
102
{ACAD_REACTORS
330
E82
102
}
330
E82
100
AcDbXrecord
280
     1
270
     1
271
     1
  0
XRECORD
  5
E87
102
{ACAD_REACTORS
330
E82
102
}
330
E82
100
AcDbXrecord
280
     1
270
     1
271
     1
  0
XRECORD
  5
E86
102
{ACAD_REACTORS
330
E82
102
}
330
E82
100
AcDbXrecord
280
     1
270
     1
271
     1
  0
XRECORD
  5
E88
102
{ACAD_REACTORS
330
E82
102
}
330
E82
100
AcDbXrecord
280
     1
270
     1
271
     1
  0
XRECORD
  5
E85
102
{ACAD_REACTORS
330
E82
102
}
330
E82
100
AcDbXrecord
280
     1
270
     1
271
     1
  0
XRECORD
  5
F81
102
{ACAD_REACTORS
330
E92
102
}
330
E92
100
AcDbXrecord
280
     1
102
MATERIAL
148
0.0
149
0.0
149
0.0
 93
        0
 94
      127
282
     0
 72
     0
 77
     0
171
     0
175
     0
179
     0
273
     0
  0
XRECORD
  5
E94
102
{ACAD_REACTORS
330
E92
102
}
330
E92
100
AcDbXrecord
280
     1
270
     1
271
     1
  0
XRECORD
  5
E93
102
{ACAD_REACTORS
330
E92
102
}
330
E92
100
AcDbXrecord
280
     1
270
     1
271
     1
  0
XRECORD
  5
E97
102
{ACAD_REACTORS
330
E92
102
}
330
E92
100
AcDbXrecord
280
     1
270
     1
271
     1
  0
XRECORD
  5
E96
102
{ACAD_REACTORS
330
E92
102
}
330
E92
100
AcDbXrecord
280
     1
270
     1
271
     1
  0
XRECORD
  5
E98
102
{ACAD_REACTORS
330
E92
102
}
330
E92
100
AcDbXrecord
280
     1
270
     1
271
     1
  0
XRECORD
  5
E95
102
{ACAD_REACTORS
330
E92
102
}
330
E92
100
AcDbXrecord
280
     1
270
     1
271
     1
  0
CELLSTYLEMAP
  5
F47
102
{ACAD_REACTORS
330
F46
102
}
330
F46
100
AcDbCellStyleMap
 90
        3
300
CELLSTYLE
  1
TABLEFORMAT_BEGIN
 90
        5
170
     1
 91
        0
 92
    32768
 62
   257
 93
        1
300
CONTENTFORMAT
  1
CONTENTFORMAT_BEGIN
 90
        0
 91
        0
 92
        4
 93
        0
300

 40
0.0
140
1.0
 94
        5
 62
     0
340
11
144
6.0
309
CONTENTFORMAT_END
171
     1
301
MARGIN
  1
CELLMARGIN_BEGIN
 40
1.5
 40
1.5
 40
1.5
 40
1.5
 40
0.18
 40
0.18
309
CELLMARGIN_END
 94
        6
 95
        1
302
GRIDFORMAT
  1
GRIDFORMAT_BEGIN
 90
        0
 91
        1
 62
     0
 92
       -2
340
0
 93
        0
 40
0.045
309
GRIDFORMAT_END
 95
        2
302
GRIDFORMAT
  1
GRIDFORMAT_BEGIN
 90
        0
 91
        1
 62
     0
 92
       -2
340
0
 93
        0
 40
0.045
309
GRIDFORMAT_END
 95
        4
302
GRIDFORMAT
  1
GRIDFORMAT_BEGIN
 90
        0
 91
        1
 62
     0
 92
       -2
340
0
 93
        0
 40
0.045
309
GRIDFORMAT_END
 95
        8
302
GRIDFORMAT
  1
GRIDFORMAT_BEGIN
 90
        0
 91
        1
 62
     0
 92
       -2
340
0
 93
        0
 40
0.045
309
GRIDFORMAT_END
 95
       16
302
GRIDFORMAT
  1
GRIDFORMAT_BEGIN
 90
        0
 91
        1
 62
     0
 92
       -2
340
0
 93
        0
 40
0.045
309
GRIDFORMAT_END
 95
       32
302
GRIDFORMAT
  1
GRIDFORMAT_BEGIN
 90
        0
 91
        1
 62
     0
 92
       -2
340
0
 93
        0
 40
0.045
309
GRIDFORMAT_END
309
TABLEFORMAT_END
  1
CELLSTYLE_BEGIN
 90
        1
 91
        1
300
_TITLE
309
CELLSTYLE_END
300
CELLSTYLE
  1
TABLEFORMAT_BEGIN
 90
        5
170
     1
 91
        0
 92
        0
 62
   257
 93
        1
300
CONTENTFORMAT
  1
CONTENTFORMAT_BEGIN
 90
        0
 91
        0
 92
        4
 93
        0
300

 40
0.0
140
1.0
 94
        5
 62
     0
340
11
144
4.5
309
CONTENTFORMAT_END
171
     1
301
MARGIN
  1
CELLMARGIN_BEGIN
 40
1.5
 40
1.5
 40
1.5
 40
1.5
 40
0.18
 40
0.18
309
CELLMARGIN_END
 94
        6
 95
        1
302
GRIDFORMAT
  1
GRIDFORMAT_BEGIN
 90
        0
 91
        1
 62
     0
 92
       -2
340
0
 93
        0
 40
0.045
309
GRIDFORMAT_END
 95
        2
302
GRIDFORMAT
  1
GRIDFORMAT_BEGIN
 90
        0
 91
        1
 62
     0
 92
       -2
340
0
 93
        0
 40
0.045
309
GRIDFORMAT_END
 95
        4
302
GRIDFORMAT
  1
GRIDFORMAT_BEGIN
 90
        0
 91
        1
 62
     0
 92
       -2
340
0
 93
        0
 40
0.045
309
GRIDFORMAT_END
 95
        8
302
GRIDFORMAT
  1
GRIDFORMAT_BEGIN
 90
        0
 91
        1
 62
     0
 92
       -2
340
0
 93
        0
 40
0.045
309
GRIDFORMAT_END
 95
       16
302
GRIDFORMAT
  1
GRIDFORMAT_BEGIN
 90
        0
 91
        1
 62
     0
 92
       -2
340
0
 93
        0
 40
0.045
309
GRIDFORMAT_END
 95
       32
302
GRIDFORMAT
  1
GRIDFORMAT_BEGIN
 90
        0
 91
        1
 62
     0
 92
       -2
340
0
 93
        0
 40
0.045
309
GRIDFORMAT_END
309
TABLEFORMAT_END
  1
CELLSTYLE_BEGIN
 90
        2
 91
        1
300
_HEADER
309
CELLSTYLE_END
300
CELLSTYLE
  1
TABLEFORMAT_BEGIN
 90
        5
170
     1
 91
        0
 92
        0
 62
   257
 93
        1
300
CONTENTFORMAT
  1
CONTENTFORMAT_BEGIN
 90
        0
 91
        0
 92
        4
 93
        0
300

 40
0.0
140
1.0
 94
        2
 62
     0
340
11
144
4.5
309
CONTENTFORMAT_END
171
     1
301
MARGIN
  1
CELLMARGIN_BEGIN
 40
1.5
 40
1.5
 40
1.5
 40
1.5
 40
0.18
 40
0.18
309
CELLMARGIN_END
 94
        6
 95
        1
302
GRIDFORMAT
  1
GRIDFORMAT_BEGIN
 90
        0
 91
        1
 62
     0
 92
       -2
340
0
 93
        0
 40
0.045
309
GRIDFORMAT_END
 95
        2
302
GRIDFORMAT
  1
GRIDFORMAT_BEGIN
 90
        0
 91
        1
 62
     0
 92
       -2
340
0
 93
        0
 40
0.045
309
GRIDFORMAT_END
 95
        4
302
GRIDFORMAT
  1
GRIDFORMAT_BEGIN
 90
        0
 91
        1
 62
     0
 92
       -2
340
0
 93
        0
 40
0.045
309
GRIDFORMAT_END
 95
        8
302
GRIDFORMAT
  1
GRIDFORMAT_BEGIN
 90
        0
 91
        1
 62
     0
 92
       -2
340
0
 93
        0
 40
0.045
309
GRIDFORMAT_END
 95
       16
302
GRIDFORMAT
  1
GRIDFORMAT_BEGIN
 90
        0
 91
        1
 62
     0
 92
       -2
340
0
 93
        0
 40
0.045
309
GRIDFORMAT_END
 95
       32
302
GRIDFORMAT
  1
GRIDFORMAT_BEGIN
 90
        0
 91
        1
 62
     0
 92
       -2
340
0
 93
        0
 40
0.045
309
GRIDFORMAT_END
309
TABLEFORMAT_END
  1
CELLSTYLE_BEGIN
 90
        3
 91
        2
300
_DATA
309
CELLSTYLE_END
  0
XRECORD
  5
F4C
102
{ACAD_REACTORS
330
F46
102
}
330
F46
100
AcDbXrecord
280
     1
102
ACAD_ROUNDTRIP_PRE2007_TABLESTYLE
 90
        4
 91
        0
  1

 92
        4
 93
        0
  2

 94
        4
 95
        0
  3

  0
XRECORD
  5
F8D
102
{ACAD_REACTORS
330
F8C
102
}
330
F8C
100
AcDbXrecord
280
     1
102
RTVSPropertyOp0
 70
     1
102
RTVSPropertyOp1
 70
     1
102
RTVSPropertyOp2
 70
     1
102
RTVSPropertyOp3
 70
     1
102
RTVSPropertyOp4
 70
     1
102
RTVSPropertyOp5
 70
     1
102
RTVSPropertyOp6
 70
     1
102
RTVSPropertyOp7
 70
     1
102
RTVSPropertyOp8
 70
     1
102
RTVSPropertyOp9
 70
     1
102
RTVSPropertyOp10
 70
     1
102
RTVSPropertyOp11
 70
     1
102
RTVSPropertyOp12
 70
     1
102
RTVSPropertyOp13
 70
     1
102
RTVSPropertyOp14
 70
     1
102
RTVSPropertyOp15
 70
     1
102
RTVSPropertyOp16
 70
     1
102
RTVSPropertyOp17
 70
     1
102
RTVSPropertyOp18
 70
     1
102
RTVSPropertyOp19
 70
     1
102
RTVSPropertyOp20
 70
     1
102
RTVSPropertyOp21
 70
     1
102
RTVSPropertyOp22
 70
     1
102
RTVSPropertyOp23
 70
     1
102
RTVSPropertyOp24
 70
     1
102
RTVSPropertyOp25
 70
     1
102
RTVSPropertyOp26
 70
     1
102
RTVSPropertyOp27
 70
     1
  0
XRECORD
  5
F91
102
{ACAD_REACTORS
330
F90
102
}
330
F90
100
AcDbXrecord
280
     1
102
RTVSPropertyOp0
 70
     1
102
RTVSPropertyOp1
 70
     1
102
RTVSPropertyOp2
 70
     1
102
RTVSPropertyOp3
 70
     1
102
RTVSPropertyOp4
 70
     1
102
RTVSPropertyOp5
 70
     1
102
RTVSPropertyOp6
 70
     1
102
RTVSPropertyOp7
 70
     1
102
RTVSPropertyOp8
 70
     1
102
RTVSPropertyOp9
 70
     1
102
RTVSPropertyOp10
 70
     1
102
RTVSPropertyOp11
 70
     1
102
RTVSPropertyOp12
 70
     1
102
RTVSPropertyOp13
 70
     1
102
RTVSPropertyOp14
 70
     1
102
RTVSPropertyOp15
 70
     1
102
RTVSPropertyOp16
 70
     1
102
RTVSPropertyOp17
 70
     1
102
RTVSPropertyOp18
 70
     1
102
RTVSPropertyOp19
 70
     1
102
RTVSPropertyOp20
 70
     1
102
RTVSPropertyOp21
 70
     1
102
RTVSPropertyOp22
 70
     1
102
RTVSPropertyOp23
 70
     1
102
RTVSPropertyOp24
 70
     1
102
RTVSPropertyOp25
 70
     1
102
RTVSPropertyOp26
 70
     1
102
RTVSPropertyOp27
 70
     1
  0
XRECORD
  5
F8F
102
{ACAD_REACTORS
330
F8E
102
}
330
F8E
100
AcDbXrecord
280
     1
102
RTVSPropertyOp0
 70
     1
102
RTVSPropertyOp1
 70
     1
102
RTVSPropertyOp2
 70
     1
102
RTVSPropertyOp3
 70
     1
102
RTVSPropertyOp4
 70
     1
102
RTVSPropertyOp5
 70
     1
102
RTVSPropertyOp6
 70
     1
102
RTVSPropertyOp7
 70
     1
102
RTVSPropertyOp8
 70
     1
102
RTVSPropertyOp9
 70
     1
102
RTVSPropertyOp10
 70
     1
102
RTVSPropertyOp11
 70
     1
102
RTVSPropertyOp12
 70
     1
102
RTVSPropertyOp13
 70
     1
102
RTVSPropertyOp14
 70
     1
102
RTVSPropertyOp15
 70
     1
102
RTVSPropertyOp16
 70
     1
102
RTVSPropertyOp17
 70
     1
102
RTVSPropertyOp18
 70
     1
102
RTVSPropertyOp19
 70
     1
102
RTVSPropertyOp20
 70
     1
102
RTVSPropertyOp21
 70
     1
102
RTVSPropertyOp22
 70
     1
102
RTVSPropertyOp23
 70
     1
102
RTVSPropertyOp24
 70
     1
102
RTVSPropertyOp25
 70
     1
102
RTVSPropertyOp26
 70
     1
102
RTVSPropertyOp27
 70
     1
  0
XRECORD
  5
F8B
102
{ACAD_REACTORS
330
F8A
102
}
330
F8A
100
AcDbXrecord
280
     1
102
RTVSPropertyOp0
 70
     1
102
RTVSPropertyOp1
 70
     1
102
RTVSPropertyOp2
 70
     1
102
RTVSPropertyOp3
 70
     1
102
RTVSPropertyOp4
 70
     1
102
RTVSPropertyOp5
 70
     1
102
RTVSPropertyOp6
 70
     1
102
RTVSPropertyOp7
 70
     1
102
RTVSPropertyOp8
 70
     1
102
RTVSPropertyOp9
 70
     1
102
RTVSPropertyOp10
 70
     1
102
RTVSPropertyOp11
 70
     1
102
RTVSPropertyOp12
 70
     1
102
RTVSPropertyOp13
 70
     1
102
RTVSPropertyOp14
 70
     1
102
RTVSPropertyOp15
 70
     1
102
RTVSPropertyOp16
 70
     1
102
RTVSPropertyOp17
 70
     1
102
RTVSPropertyOp18
 70
     1
102
RTVSPropertyOp19
 70
     1
102
RTVSPropertyOp20
 70
     1
102
RTVSPropertyOp21
 70
     1
102
RTVSPropertyOp22
 70
     1
102
RTVSPropertyOp23
 70
     1
102
RTVSPropertyOp24
 70
     1
102
RTVSPropertyOp25
 70
     1
102
RTVSPropertyOp26
 70
     1
102
RTVSPropertyOp27
 70
     1
  0
XRECORD
  5
F99
102
{ACAD_REACTORS
330
F98
102
}
330
F98
100
AcDbXrecord
280
     1
102
RTVSPropertyOp0
 70
     1
102
RTVSPropertyOp1
 70
     1
102
RTVSPropertyOp2
 70
     1
102
RTVSPropertyOp3
 70
     1
102
RTVSPropertyOp4
 70
     1
102
RTVSPropertyOp5
 70
     1
102
RTVSPropertyOp6
 70
     1
102
RTVSPropertyOp7
 70
     1
102
RTVSPropertyOp8
 70
     1
102
RTVSPropertyOp9
 70
     1
102
RTVSPropertyOp10
 70
     1
102
RTVSPropertyOp11
 70
     1
102
RTVSPropertyOp12
 70
     1
102
RTVSPropertyOp13
 70
     1
102
RTVSPropertyOp14
 70
     1
102
RTVSPropertyOp15
 70
     1
102
RTVSPropertyOp16
 70
     1
102
RTVSPropertyOp17
 70
     1
102
RTVSPropertyOp18
 70
     1
102
RTVSPropertyOp19
 70
     1
102
RTVSPropertyOp20
 70
     1
102
RTVSPropertyOp21
 70
     1
102
RTVSPropertyOp22
 70
     1
102
RTVSPropertyOp23
 70
     1
102
RTVSPropertyOp24
 70
     1
102
RTVSPropertyOp25
 70
     1
102
RTVSPropertyOp26
 70
     1
102
RTVSPropertyOp27
 70
     1
  0
XRECORD
  5
FA1
102
{ACAD_REACTORS
330
FA0
102
}
330
FA0
100
AcDbXrecord
280
     1
102
RTVSPropertyOp0
 70
     1
102
RTVSPropertyOp1
 70
     1
102
RTVSPropertyOp2
 70
     1
102
RTVSPropertyOp3
 70
     1
102
RTVSPropertyOp4
 70
     1
102
RTVSPropertyOp5
 70
     1
102
RTVSPropertyOp6
 70
     1
102
RTVSPropertyOp7
 70
     1
102
RTVSPropertyOp8
 70
     1
102
RTVSPropertyOp9
 70
     1
102
RTVSPropertyOp10
 70
     1
102
RTVSPropertyOp11
 70
     1
102
RTVSPropertyOp12
 70
     1
102
RTVSPropertyOp13
 70
     1
102
RTVSPropertyOp14
 70
     1
102
RTVSPropertyOp15
 70
     1
102
RTVSPropertyOp16
 70
     1
102
RTVSPropertyOp17
 70
     1
102
RTVSPropertyOp18
 70
     1
102
RTVSPropertyOp19
 70
     1
102
RTVSPropertyOp20
 70
     1
102
RTVSPropertyOp21
 70
     1
102
RTVSPropertyOp22
 70
     1
102
RTVSPropertyOp23
 70
     1
102
RTVSPropertyOp24
 70
     1
102
RTVSPropertyOp25
 70
     1
102
RTVSPropertyOp26
 70
     1
102
RTVSPropertyOp27
 70
     1
  0
XRECORD
  5
F93
102
{ACAD_REACTORS
330
F92
102
}
330
F92
100
AcDbXrecord
280
     1
102
RTVSPropertyOp0
 70
     1
102
RTVSPropertyOp1
 70
     1
102
RTVSPropertyOp2
 70
     1
102
RTVSPropertyOp3
 70
     1
102
RTVSPropertyOp4
 70
     1
102
RTVSPropertyOp5
 70
     1
102
RTVSPropertyOp6
 70
     1
102
RTVSPropertyOp7
 70
     1
102
RTVSPropertyOp8
 70
     1
102
RTVSPropertyOp9
 70
     1
102
RTVSPropertyOp10
 70
     1
102
RTVSPropertyOp11
 70
     1
102
RTVSPropertyOp12
 70
     1
102
RTVSPropertyOp13
 70
     1
102
RTVSPropertyOp14
 70
     1
102
RTVSPropertyOp15
 70
     1
102
RTVSPropertyOp16
 70
     1
102
RTVSPropertyOp17
 70
     1
102
RTVSPropertyOp18
 70
     1
102
RTVSPropertyOp19
 70
     1
102
RTVSPropertyOp20
 70
     1
102
RTVSPropertyOp21
 70
     1
102
RTVSPropertyOp22
 70
     1
102
RTVSPropertyOp23
 70
     1
102
RTVSPropertyOp24
 70
     1
102
RTVSPropertyOp25
 70
     1
102
RTVSPropertyOp26
 70
     1
102
RTVSPropertyOp27
 70
     1
  0
XRECORD
  5
F97
102
{ACAD_REACTORS
330
F96
102
}
330
F96
100
AcDbXrecord
280
     1
102
RTVSPropertyOp0
 70
     1
102
RTVSPropertyOp1
 70
     1
102
RTVSPropertyOp2
 70
     1
102
RTVSPropertyOp3
 70
     1
102
RTVSPropertyOp4
 70
     1
102
RTVSPropertyOp5
 70
     1
102
RTVSPropertyOp6
 70
     1
102
RTVSPropertyOp7
 70
     1
102
RTVSPropertyOp8
 70
     1
102
RTVSPropertyOp9
 70
     1
102
RTVSPropertyOp10
 70
     1
102
RTVSPropertyOp11
 70
     1
102
RTVSPropertyOp12
 70
     1
102
RTVSPropertyOp13
 70
     1
102
RTVSPropertyOp14
 70
     1
102
RTVSPropertyOp15
 70
     1
102
RTVSPropertyOp16
 70
     1
102
RTVSPropertyOp17
 70
     1
102
RTVSPropertyOp18
 70
     1
102
RTVSPropertyOp19
 70
     1
102
RTVSPropertyOp20
 70
     1
102
RTVSPropertyOp21
 70
     1
102
RTVSPropertyOp22
 70
     1
102
RTVSPropertyOp23
 70
     1
102
RTVSPropertyOp24
 70
     1
102
RTVSPropertyOp25
 70
     1
102
RTVSPropertyOp26
 70
     1
102
RTVSPropertyOp27
 70
     1
  0
XRECORD
  5
FA7
102
{ACAD_REACTORS
330
FA6
102
}
330
FA6
100
AcDbXrecord
280
     1
102
RTVSPropertyOp0
 70
     0
102
RTVSPropertyOp1
 70
     0
102
RTVSPropertyOp2
 70
     0
102
RTVSPropertyOp3
 70
     0
102
RTVSPropertyOp4
 70
     0
102
RTVSPropertyOp5
 70
     0
102
RTVSPropertyOp6
 70
     0
102
RTVSPropertyOp7
 70
     0
102
RTVSPropertyOp8
 70
     0
102
RTVSPropertyOp9
 70
     0
102
RTVSPropertyOp10
 70
     0
102
RTVSPropertyOp11
 70
     0
102
RTVSPropertyOp12
 70
     0
102
RTVSPropertyOp13
 70
     0
102
RTVSPropertyOp14
 70
     2
102
RTVSPropertyOp15
 70
     0
102
RTVSPropertyOp16
 70
     0
102
RTVSPropertyOp17
 70
     0
102
RTVSPropertyOp18
 70
     0
102
RTVSPropertyOp19
 70
     0
102
RTVSPropertyOp20
 70
     0
102
RTVSPropertyOp21
 70
     0
102
RTVSPropertyOp22
 70
     0
102
RTVSPropertyOp23
 70
     0
102
RTVSPropertyOp24
 70
     0
102
RTVSPropertyOp25
 70
     0
102
RTVSPropertyOp26
 70
     0
102
RTVSPropertyOp27
 70
     0
  0
XRECORD
  5
F9F
102
{ACAD_REACTORS
330
F9E
102
}
330
F9E
100
AcDbXrecord
280
     1
102
RTVSPropertyOp0
 70
     1
102
RTVSPropertyOp1
 70
     1
102
RTVSPropertyOp2
 70
     1
102
RTVSPropertyOp3
 70
     1
102
RTVSPropertyOp4
 70
     1
102
RTVSPropertyOp5
 70
     1
102
RTVSPropertyOp6
 70
     1
102
RTVSPropertyOp7
 70
     1
102
RTVSPropertyOp8
 70
     1
102
RTVSPropertyOp9
 70
     1
102
RTVSPropertyOp10
 70
     1
102
RTVSPropertyOp11
 70
     1
102
RTVSPropertyOp12
 70
     1
102
RTVSPropertyOp13
 70
     1
102
RTVSPropertyOp14
 70
     1
102
RTVSPropertyOp15
 70
     1
102
RTVSPropertyOp16
 70
     1
102
RTVSPropertyOp17
 70
     1
102
RTVSPropertyOp18
 70
     1
102
RTVSPropertyOp19
 70
     1
102
RTVSPropertyOp20
 70
     1
102
RTVSPropertyOp21
 70
     1
102
RTVSPropertyOp22
 70
     1
102
RTVSPropertyOp23
 70
     1
102
RTVSPropertyOp24
 70
     1
102
RTVSPropertyOp25
 70
     1
102
RTVSPropertyOp26
 70
     1
102
RTVSPropertyOp27
 70
     1
  0
XRECORD
  5
F83
102
{ACAD_REACTORS
330
F82
102
}
330
F82
100
AcDbXrecord
280
     1
102
RTVSPropertyOp0
 70
     1
102
RTVSPropertyOp1
 70
     1
102
RTVSPropertyOp2
 70
     1
102
RTVSPropertyOp3
 70
     1
102
RTVSPropertyOp4
 70
     1
102
RTVSPropertyOp5
 70
     1
102
RTVSPropertyOp6
 70
     1
102
RTVSPropertyOp7
 70
     1
102
RTVSPropertyOp8
 70
     1
102
RTVSPropertyOp9
 70
     1
102
RTVSPropertyOp10
 70
     1
102
RTVSPropertyOp11
 70
     1
102
RTVSPropertyOp12
 70
     1
102
RTVSPropertyOp13
 70
     1
102
RTVSPropertyOp14
 70
     1
102
RTVSPropertyOp15
 70
     1
102
RTVSPropertyOp16
 70
     1
102
RTVSPropertyOp17
 70
     1
102
RTVSPropertyOp18
 70
     1
102
RTVSPropertyOp19
 70
     1
102
RTVSPropertyOp20
 70
     1
102
RTVSPropertyOp21
 70
     1
102
RTVSPropertyOp22
 70
     1
102
RTVSPropertyOp23
 70
     1
102
RTVSPropertyOp24
 70
     1
102
RTVSPropertyOp25
 70
     1
102
RTVSPropertyOp26
 70
     1
102
RTVSPropertyOp27
 70
     1
  0
XRECORD
  5
F85
102
{ACAD_REACTORS
330
F84
102
}
330
F84
100
AcDbXrecord
280
     1
102
RTVSPropertyOp0
 70
     1
102
RTVSPropertyOp1
 70
     1
102
RTVSPropertyOp2
 70
     1
102
RTVSPropertyOp3
 70
     1
102
RTVSPropertyOp4
 70
     1
102
RTVSPropertyOp5
 70
     1
102
RTVSPropertyOp6
 70
     1
102
RTVSPropertyOp7
 70
     1
102
RTVSPropertyOp8
 70
     1
102
RTVSPropertyOp9
 70
     1
102
RTVSPropertyOp10
 70
     1
102
RTVSPropertyOp11
 70
     1
102
RTVSPropertyOp12
 70
     1
102
RTVSPropertyOp13
 70
     1
102
RTVSPropertyOp14
 70
     1
102
RTVSPropertyOp15
 70
     1
102
RTVSPropertyOp16
 70
     1
102
RTVSPropertyOp17
 70
     1
102
RTVSPropertyOp18
 70
     1
102
RTVSPropertyOp19
 70
     1
102
RTVSPropertyOp20
 70
     1
102
RTVSPropertyOp21
 70
     1
102
RTVSPropertyOp22
 70
     1
102
RTVSPropertyOp23
 70
     1
102
RTVSPropertyOp24
 70
     1
102
RTVSPropertyOp25
 70
     1
102
RTVSPropertyOp26
 70
     1
102
RTVSPropertyOp27
 70
     1
  0
XRECORD
  5
F87
102
{ACAD_REACTORS
330
F86
102
}
330
F86
100
AcDbXrecord
280
     1
102
RTVSPropertyOp0
 70
     1
102
RTVSPropertyOp1
 70
     1
102
RTVSPropertyOp2
 70
     1
102
RTVSPropertyOp3
 70
     1
102
RTVSPropertyOp4
 70
     1
102
RTVSPropertyOp5
 70
     1
102
RTVSPropertyOp6
 70
     1
102
RTVSPropertyOp7
 70
     1
102
RTVSPropertyOp8
 70
     1
102
RTVSPropertyOp9
 70
     1
102
RTVSPropertyOp10
 70
     1
102
RTVSPropertyOp11
 70
     1
102
RTVSPropertyOp12
 70
     1
102
RTVSPropertyOp13
 70
     1
102
RTVSPropertyOp14
 70
     1
102
RTVSPropertyOp15
 70
     1
102
RTVSPropertyOp16
 70
     1
102
RTVSPropertyOp17
 70
     1
102
RTVSPropertyOp18
 70
     1
102
RTVSPropertyOp19
 70
     1
102
RTVSPropertyOp20
 70
     1
102
RTVSPropertyOp21
 70
     1
102
RTVSPropertyOp22
 70
     1
102
RTVSPropertyOp23
 70
     1
102
RTVSPropertyOp24
 70
     1
102
RTVSPropertyOp25
 70
     1
102
RTVSPropertyOp26
 70
     1
102
RTVSPropertyOp27
 70
     1
  0
XRECORD
  5
F89
102
{ACAD_REACTORS
330
F88
102
}
330
F88
100
AcDbXrecord
280
     1
102
RTVSPropertyOp0
 70
     1
102
RTVSPropertyOp1
 70
     1
102
RTVSPropertyOp2
 70
     1
102
RTVSPropertyOp3
 70
     1
102
RTVSPropertyOp4
 70
     1
102
RTVSPropertyOp5
 70
     1
102
RTVSPropertyOp6
 70
     1
102
RTVSPropertyOp7
 70
     1
102
RTVSPropertyOp8
 70
     1
102
RTVSPropertyOp9
 70
     1
102
RTVSPropertyOp10
 70
     1
102
RTVSPropertyOp11
 70
     1
102
RTVSPropertyOp12
 70
     1
102
RTVSPropertyOp13
 70
     1
102
RTVSPropertyOp14
 70
     1
102
RTVSPropertyOp15
 70
     1
102
RTVSPropertyOp16
 70
     1
102
RTVSPropertyOp17
 70
     1
102
RTVSPropertyOp18
 70
     1
102
RTVSPropertyOp19
 70
     1
102
RTVSPropertyOp20
 70
     1
102
RTVSPropertyOp21
 70
     1
102
RTVSPropertyOp22
 70
     1
102
RTVSPropertyOp23
 70
     1
102
RTVSPropertyOp24
 70
     1
102
RTVSPropertyOp25
 70
     1
102
RTVSPropertyOp26
 70
     1
102
RTVSPropertyOp27
 70
     1
  0
XRECORD
  5
FA3
102
{ACAD_REACTORS
330
FA2
102
}
330
FA2
100
AcDbXrecord
280
     1
102
RTVSPropertyOp0
 70
     0
102
RTVSPropertyOp1
 70
     0
102
RTVSPropertyOp2
 70
     0
102
RTVSPropertyOp3
 70
     0
102
RTVSPropertyOp4
 70
     0
102
RTVSPropertyOp5
 70
     0
102
RTVSPropertyOp6
 70
     0
102
RTVSPropertyOp7
 70
     0
102
RTVSPropertyOp8
 70
     0
102
RTVSPropertyOp9
 70
     0
102
RTVSPropertyOp10
 70
     0
102
RTVSPropertyOp11
 70
     0
102
RTVSPropertyOp12
 70
     0
102
RTVSPropertyOp13
 70
     0
102
RTVSPropertyOp14
 70
     2
102
RTVSPropertyOp15
 70
     0
102
RTVSPropertyOp16
 70
     0
102
RTVSPropertyOp17
 70
     0
102
RTVSPropertyOp18
 70
     0
102
RTVSPropertyOp19
 70
     0
102
RTVSPropertyOp20
 70
     0
102
RTVSPropertyOp21
 70
     0
102
RTVSPropertyOp22
 70
     0
102
RTVSPropertyOp23
 70
     0
102
RTVSPropertyOp24
 70
     0
102
RTVSPropertyOp25
 70
     0
102
RTVSPropertyOp26
 70
     0
102
RTVSPropertyOp27
 70
     0
  0
XRECORD
  5
F9D
102
{ACAD_REACTORS
330
F9C
102
}
330
F9C
100
AcDbXrecord
280
     1
102
RTVSPropertyOp0
 70
     1
102
RTVSPropertyOp1
 70
     1
102
RTVSPropertyOp2
 70
     1
102
RTVSPropertyOp3
 70
     1
102
RTVSPropertyOp4
 70
     1
102
RTVSPropertyOp5
 70
     1
102
RTVSPropertyOp6
 70
     1
102
RTVSPropertyOp7
 70
     1
102
RTVSPropertyOp8
 70
     1
102
RTVSPropertyOp9
 70
     1
102
RTVSPropertyOp10
 70
     1
102
RTVSPropertyOp11
 70
     1
102
RTVSPropertyOp12
 70
     1
102
RTVSPropertyOp13
 70
     1
102
RTVSPropertyOp14
 70
     1
102
RTVSPropertyOp15
 70
     1
102
RTVSPropertyOp16
 70
     1
102
RTVSPropertyOp17
 70
     1
102
RTVSPropertyOp18
 70
     1
102
RTVSPropertyOp19
 70
     1
102
RTVSPropertyOp20
 70
     1
102
RTVSPropertyOp21
 70
     1
102
RTVSPropertyOp22
 70
     1
102
RTVSPropertyOp23
 70
     1
102
RTVSPropertyOp24
 70
     1
102
RTVSPropertyOp25
 70
     1
102
RTVSPropertyOp26
 70
     1
102
RTVSPropertyOp27
 70
     1
  0
XRECORD
  5
FA5
102
{ACAD_REACTORS
330
FA4
102
}
330
FA4
100
AcDbXrecord
280
     1
102
RTVSPropertyOp0
 70
     0
102
RTVSPropertyOp1
 70
     0
102
RTVSPropertyOp2
 70
     0
102
RTVSPropertyOp3
 70
     0
102
RTVSPropertyOp4
 70
     0
102
RTVSPropertyOp5
 70
     0
102
RTVSPropertyOp6
 70
     0
102
RTVSPropertyOp7
 70
     0
102
RTVSPropertyOp8
 70
     0
102
RTVSPropertyOp9
 70
     0
102
RTVSPropertyOp10
 70
     0
102
RTVSPropertyOp11
 70
     0
102
RTVSPropertyOp12
 70
     0
102
RTVSPropertyOp13
 70
     0
102
RTVSPropertyOp14
 70
     2
102
RTVSPropertyOp15
 70
     0
102
RTVSPropertyOp16
 70
     0
102
RTVSPropertyOp17
 70
     0
102
RTVSPropertyOp18
 70
     0
102
RTVSPropertyOp19
 70
     0
102
RTVSPropertyOp20
 70
     0
102
RTVSPropertyOp21
 70
     0
102
RTVSPropertyOp22
 70
     0
102
RTVSPropertyOp23
 70
     0
102
RTVSPropertyOp24
 70
     0
102
RTVSPropertyOp25
 70
     0
102
RTVSPropertyOp26
 70
     0
102
RTVSPropertyOp27
 70
     0
  0
XRECORD
  5
F95
102
{ACAD_REACTORS
330
F94
102
}
330
F94
100
AcDbXrecord
280
     1
102
RTVSPropertyOp0
 70
     1
102
RTVSPropertyOp1
 70
     1
102
RTVSPropertyOp2
 70
     1
102
RTVSPropertyOp3
 70
     1
102
RTVSPropertyOp4
 70
     1
102
RTVSPropertyOp5
 70
     1
102
RTVSPropertyOp6
 70
     1
102
RTVSPropertyOp7
 70
     1
102
RTVSPropertyOp8
 70
     1
102
RTVSPropertyOp9
 70
     1
102
RTVSPropertyOp10
 70
     1
102
RTVSPropertyOp11
 70
     1
102
RTVSPropertyOp12
 70
     1
102
RTVSPropertyOp13
 70
     1
102
RTVSPropertyOp14
 70
     1
102
RTVSPropertyOp15
 70
     1
102
RTVSPropertyOp16
 70
     1
102
RTVSPropertyOp17
 70
     1
102
RTVSPropertyOp18
 70
     1
102
RTVSPropertyOp19
 70
     1
102
RTVSPropertyOp20
 70
     1
102
RTVSPropertyOp21
 70
     1
102
RTVSPropertyOp22
 70
     1
102
RTVSPropertyOp23
 70
     1
102
RTVSPropertyOp24
 70
     1
102
RTVSPropertyOp25
 70
     1
102
RTVSPropertyOp26
 70
     1
102
RTVSPropertyOp27
 70
     1
  0
XRECORD
  5
F9B
102
{ACAD_REACTORS
330
F9A
102
}
330
F9A
100
AcDbXrecord
280
     1
102
RTVSPropertyOp0
 70
     1
102
RTVSPropertyOp1
 70
     1
102
RTVSPropertyOp2
 70
     1
102
RTVSPropertyOp3
 70
     1
102
RTVSPropertyOp4
 70
     1
102
RTVSPropertyOp5
 70
     1
102
RTVSPropertyOp6
 70
     1
102
RTVSPropertyOp7
 70
     1
102
RTVSPropertyOp8
 70
     1
102
RTVSPropertyOp9
 70
     1
102
RTVSPropertyOp10
 70
     1
102
RTVSPropertyOp11
 70
     1
102
RTVSPropertyOp12
 70
     1
102
RTVSPropertyOp13
 70
     1
102
RTVSPropertyOp14
 70
     1
102
RTVSPropertyOp15
 70
     1
102
RTVSPropertyOp16
 70
     1
102
RTVSPropertyOp17
 70
     1
102
RTVSPropertyOp18
 70
     1
102
RTVSPropertyOp19
 70
     1
102
RTVSPropertyOp20
 70
     1
102
RTVSPropertyOp21
 70
     1
102
RTVSPropertyOp22
 70
     1
102
RTVSPropertyOp23
 70
     1
102
RTVSPropertyOp24
 70
     1
102
RTVSPropertyOp25
 70
     1
102
RTVSPropertyOp26
 70
     1
102
RTVSPropertyOp27
 70
     1
  0
ENDSEC
  0
EOF
