  0
SECTION
  2
HEADER
  9
$ACADVER
  1
AC1015
  9
$ACADMAINTVER
 70
    20
  9
$DWGCODEPAGE
  3
ANSI_1252
  9
$INSBASE
 10
0.0
 20
0.0
 30
0.0
  9
$EXTMIN
 10
1455.276273480908
 20
1132.910970547753
 30
-0.0000000000000001
  9
$EXTMAX
 10
1458.059409451639
 20
1133.361843568847
 30
0.0000000000000001
  9
$LIMMIN
 10
0.0
 20
0.0
  9
$LIMMAX
 10
420.0
 20
297.0
  9
$ORTHOMODE
 70
     1
  9
$REGENMODE
 70
     1
  9
$FILLMODE
 70
     1
  9
$QTEXTMODE
 70
     0
  9
$MIRRTEXT
 70
     0
  9
$LTSCALE
 40
1.0
  9
$ATTMODE
 70
     1
  9
$TEXTSIZE
 40
2.5
  9
$TRACEWID
 40
1.0
  9
$TEXTSTYLE
  7
Standard
  9
$CLAYER
  8
0
  9
$CELTYPE
  6
ByLayer
  9
$CECOLOR
 62
   256
  9
$CELTSCALE
 40
1.0
  9
$DISPSILH
 70
     0
  9
$DIMSCALE
 40
1.0
  9
$DIMASZ
 40
2.5
  9
$DIMEXO
 40
0.625
  9
$DIMDLI
 40
3.75
  9
$DIMRND
 40
0.0
  9
$DIMDLE
 40
0.0
  9
$DIMEXE
 40
1.25
  9
$DIMTP
 40
0.0
  9
$DIMTM
 40
0.0
  9
$DIMTXT
 40
2.5
  9
$DIMCEN
 40
2.5
  9
$DIMTSZ
 40
0.0
  9
$DIMTOL
 70
     0
  9
$DIMLIM
 70
     0
  9
$DIMTIH
 70
     0
  9
$DIMTOH
 70
     0
  9
$DIMSE1
 70
     0
  9
$DIMSE2
 70
     0
  9
$DIMTAD
 70
     1
  9
$DIMZIN
 70
     8
  9
$DIMBLK
  1

  9
$DIMASO
 70
     1
  9
$DIMSHO
 70
     1
  9
$DIMPOST
  1

  9
$DIMAPOST
  1

  9
$DIMALT
 70
     0
  9
$DIMALTD
 70
     3
  9
$DIMALTF
 40
0.03937007874016
  9
$DIMLFAC
 40
1.0
  9
$DIMTOFL
 70
     1
  9
$DIMTVP
 40
0.0
  9
$DIMTIX
 70
     0
  9
$DIMSOXD
 70
     0
  9
$DIMSAH
 70
     0
  9
$DIMBLK1
  1

  9
$DIMBLK2
  1

  9
$DIMSTYLE
  2
ISO-25
  9
$DIMCLRD
 70
     0
  9
$DIMCLRE
 70
     0
  9
$DIMCLRT
 70
     0
  9
$DIMTFAC
 40
1.0
  9
$DIMGAP
 40
0.625
  9
$DIMJUST
 70
     0
  9
$DIMSD1
 70
     0
  9
$DIMSD2
 70
     0
  9
$DIMTOLJ
 70
     0
  9
$DIMTZIN
 70
     8
  9
$DIMALTZ
 70
     0
  9
$DIMALTTZ
 70
     0
  9
$DIMUPT
 70
     0
  9
$DIMDEC
 70
     2
  9
$DIMTDEC
 70
     2
  9
$DIMALTU
 70
     2
  9
$DIMALTTD
 70
     3
  9
$DIMTXSTY
  7
Standard
  9
$DIMAUNIT
 70
     0
  9
$DIMADEC
 70
     0
  9
$DIMALTRND
 40
0.0
  9
$DIMAZIN
 70
     0
  9
$DIMDSEP
 70
    44
  9
$DIMATFIT
 70
     3
  9
$DIMFRAC
 70
     0
  9
$DIMLDRBLK
  1

  9
$DIMLUNIT
 70
     2
  9
$DIMLWD
 70
    -2
  9
$DIMLWE
 70
    -2
  9
$DIMTMOVE
 70
     0
  9
$LUNITS
 70
     2
  9
$LUPREC
 70
     4
  9
$SKETCHINC
 40
1.0
  9
$FILLETRAD
 40
0.0
  9
$AUNITS
 70
     0
  9
$AUPREC
 70
     0
  9
$MENU
  1
.
  9
$ELEVATION
 40
0.0
  9
$PELEVATION
 40
0.0
  9
$THICKNESS
 40
0.0
  9
$LIMCHECK
 70
     0
  9
$CHAMFERA
 40
0.0
  9
$CHAMFERB
 40
0.0
  9
$CHAMFERC
 40
0.0
  9
$CHAMFERD
 40
0.0
  9
$SKPOLY
 70
     0
  9
$TDCREATE
 40
2454120.440938947
  9
$TDUCREATE
 40
2454120.399272281
  9
$TDUPDATE
 40
2456147.603024803
  9
$TDUUPDATE
 40
2456147.561358137
  9
$TDINDWG
 40
0.0025866204
  9
$TDUSRTIMER
 40
0.0025866204
  9
$USRTIMER
 70
     1
  9
$ANGBASE
 50
0.0
  9
$ANGDIR
 70
     0
  9
$PDMODE
 70
     0
  9
$PDSIZE
 40
0.0
  9
$PLINEWID
 40
0.0
  9
$SPLFRAME
 70
     0
  9
$SPLINETYPE
 70
     6
  9
$SPLINESEGS
 70
     8
  9
$HANDSEED
  5
9B5
  9
$SURFTAB1
 70
     6
  9
$SURFTAB2
 70
     6
  9
$SURFTYPE
 70
     6
  9
$SURFU
 70
     6
  9
$SURFV
 70
     6
  9
$UCSBASE
  2

  9
$UCSNAME
  2

  9
$UCSORG
 10
0.0
 20
0.0
 30
0.0
  9
$UCSXDIR
 10
1.0
 20
0.0
 30
0.0
  9
$UCSYDIR
 10
0.0
 20
1.0
 30
0.0
  9
$UCSORTHOREF
  2

  9
$UCSORTHOVIEW
 70
     0
  9
$UCSORGTOP
 10
0.0
 20
0.0
 30
0.0
  9
$UCSORGBOTTOM
 10
0.0
 20
0.0
 30
0.0
  9
$UCSORGLEFT
 10
0.0
 20
0.0
 30
0.0
  9
$UCSORGRIGHT
 10
0.0
 20
0.0
 30
0.0
  9
$UCSORGFRONT
 10
0.0
 20
0.0
 30
0.0
  9
$UCSORGBACK
 10
0.0
 20
0.0
 30
0.0
  9
$PUCSBASE
  2

  9
$PUCSNAME
  2

  9
$PUCSORG
 10
0.0
 20
0.0
 30
0.0
  9
$PUCSXDIR
 10
1.0
 20
0.0
 30
0.0
  9
$PUCSYDIR
 10
0.0
 20
1.0
 30
0.0
  9
$PUCSORTHOREF
  2

  9
$PUCSORTHOVIEW
 70
     0
  9
$PUCSORGTOP
 10
0.0
 20
0.0
 30
0.0
  9
$PUCSORGBOTTOM
 10
0.0
 20
0.0
 30
0.0
  9
$PUCSORGLEFT
 10
0.0
 20
0.0
 30
0.0
  9
$PUCSORGRIGHT
 10
0.0
 20
0.0
 30
0.0
  9
$PUCSORGFRONT
 10
0.0
 20
0.0
 30
0.0
  9
$PUCSORGBACK
 10
0.0
 20
0.0
 30
0.0
  9
$USERI1
 70
     0
  9
$USERI2
 70
     0
  9
$USERI3
 70
     0
  9
$USERI4
 70
     0
  9
$USERI5
 70
     0
  9
$USERR1
 40
0.0
  9
$USERR2
 40
0.0
  9
$USERR3
 40
0.0
  9
$USERR4
 40
0.0
  9
$USERR5
 40
0.0
  9
$WORLDVIEW
 70
     1
  9
$SHADEDGE
 70
     3
  9
$SHADEDIF
 70
    70
  9
$TILEMODE
 70
     1
  9
$MAXACTVP
 70
    64
  9
$PINSBASE
 10
0.0
 20
0.0
 30
0.0
  9
$PLIMCHECK
 70
     0
  9
$PEXTMIN
 10
1.000000000000000E+20
 20
1.000000000000000E+20
 30
1.000000000000000E+20
  9
$PEXTMAX
 10
-1.000000000000000E+20
 20
-1.000000000000000E+20
 30
-1.000000000000000E+20
  9
$PLIMMIN
 10
0.0
 20
0.0
  9
$PLIMMAX
 10
420.0
 20
297.0
  9
$UNITMODE
 70
     0
  9
$VISRETAIN
 70
     1
  9
$PLINEGEN
 70
     0
  9
$PSLTSCALE
 70
     1
  9
$TREEDEPTH
 70
  3020
  9
$CMLSTYLE
  2
Standard
  9
$CMLJUST
 70
     0
  9
$CMLSCALE
 40
20.0
  9
$PROXYGRAPHICS
 70
     1
  9
$MEASUREMENT
 70
     1
  9
$CELWEIGHT
370
    -1
  9
$ENDCAPS
280
     0
  9
$JOINSTYLE
280
     0
  9
$LWDISPLAY
290
     0
  9
$INSUNITS
 70
     4
  9
$HYPERLINKBASE
  1

  9
$STYLESHEET
  1

  9
$XEDIT
290
     1
  9
$CEPSNTYPE
380
     0
  9
$PSTYLEMODE
290
     1
  9
$FINGERPRINTGUID
  2
{4B6D3227-2D56-476D-B62F-AEEEF002EEFA}
  9
$VERSIONGUID
  2
{2B7DD11E-DE33-4FE9-8AC4-09F02112E5D4}
  9
$EXTNAMES
290
     1
  9
$PSVPSCALE
 40
0.0
  9
$OLESTARTUP
290
     0
  0
ENDSEC
  0
SECTION
  2
CLASSES
  0
CLASS
  1
ACDBDICTIONARYWDFLT
  2
AcDbDictionaryWithDefault
  3
ObjectDBX Classes
 90
        0
280
     0
281
     0
  0
CLASS
  1
TABLESTYLE
  2
AcDbTableStyle
  3
ObjectDBX Classes
 90
     4095
280
     0
281
     0
  0
CLASS
  1
DIMASSOC
  2
AcDbDimAssoc
  3
"AcDbDimAssoc|Product Desc:     AcDim ARX App For Dimension|Company:          Autodesk, Inc.|WEB Address:      www.autodesk.com"
 90
    32768
280
     0
281
     0
  0
CLASS
  1
SORTENTSTABLE
  2
AcDbSortentsTable
  3
ObjectDBX Classes
 90
    32768
280
     0
281
     0
  0
CLASS
  1
DICTIONARYVAR
  2
AcDbDictionaryVar
  3
ObjectDBX Classes
 90
        0
280
     0
281
     0
  0
CLASS
  1
ACDBPLACEHOLDER
  2
AcDbPlaceHolder
  3
ObjectDBX Classes
 90
        0
280
     0
281
     0
  0
CLASS
  1
LAYOUT
  2
AcDbLayout
  3
ObjectDBX Classes
 90
        0
280
     0
281
     0
  0
CLASS
  1
MATERIAL
  2
AcDbMaterial
  3
ObjectDBX Classes
 90
     1153
280
     0
281
     0
  0
CLASS
  1
VISUALSTYLE
  2
AcDbVisualStyle
  3
ObjectDBX Classes
 90
     4095
280
     0
281
     0
  0
CLASS
  1
SCALE
  2
AcDbScale
  3
ObjectDBX Classes
 90
     1153
280
     0
281
     0
  0
CLASS
  1
MLEADERSTYLE
  2
AcDbMLeaderStyle
  3
ACDB_MLEADERSTYLE_CLASS
 90
     4095
280
     0
281
     0
  0
CLASS
  1
CELLSTYLEMAP
  2
AcDbCellStyleMap
  3
ObjectDBX Classes
 90
     1152
280
     0
281
     0
  0
ENDSEC
  0
SECTION
  2
TABLES
  0
TABLE
  2
VPORT
  5
8
330
0
100
AcDbSymbolTable
 70
     1
  0
VPORT
  5
901
330
8
100
AcDbSymbolTableRecord
100
AcDbViewportTableRecord
  2
*Active
 70
     0
 10
0.0
 20
0.0
 11
1.0
 21
1.0
 12
1456.714451811536
 22
1133.1364070583
 13
0.0
 23
0.0
 14
10.0
 24
10.0
 15
10.0
 25
10.0
 16
0.0
 26
0.0
 36
1.0
 17
0.0
 27
0.0
 37
0.0
 40
1.754476680006025
 41
1.645464025026068
 42
50.0
 43
0.0
 44
0.0
 50
0.0
 51
0.0
 71
     0
 72
  1000
 73
     1
 74
     3
 75
     0
 76
     0
 77
     0
 78
     0
281
     0
 65
     1
110
0.0
120
0.0
130
0.0
111
1.0
121
0.0
131
0.0
112
0.0
122
1.0
132
0.0
 79
     0
146
0.0
  0
ENDTAB
  0
TABLE
  2
LTYPE
  5
5
330
0
100
AcDbSymbolTable
 70
     3
  0
LTYPE
  5
14
330
5
100
AcDbSymbolTableRecord
100
AcDbLinetypeTableRecord
  2
ByBlock
 70
     0
  3

 72
    65
 73
     0
 40
0.0
  0
LTYPE
  5
15
330
5
100
AcDbSymbolTableRecord
100
AcDbLinetypeTableRecord
  2
ByLayer
 70
     0
  3

 72
    65
 73
     0
 40
0.0
  0
LTYPE
  5
16
330
5
100
AcDbSymbolTableRecord
100
AcDbLinetypeTableRecord
  2
Continuous
 70
     0
  3
Solid line
 72
    65
 73
     0
 40
0.0
  0
LTYPE
  5
240
330
5
100
AcDbSymbolTableRecord
100
AcDbLinetypeTableRecord
  2
DASHDOT
 70
     0
  3
Dash dot __ . __ . __ . __ . __ . __ . __ . __
 72
    65
 73
     4
 40
25.4
 49
12.7
 74
     0
 49
-6.349999999999999
 74
     0
 49
0.0
 74
     0
 49
-6.349999999999999
 74
     0
  0
LTYPE
  5
241
330
5
100
AcDbSymbolTableRecord
100
AcDbLinetypeTableRecord
  2
HIDDEN
 70
     0
  3
Hidden __ __ __ __ __ __ __ __ __ __ __ __ __ _
 72
    65
 73
     2
 40
9.524999999999998
 49
6.349999999999999
 74
     0
 49
-3.174999999999999
 74
     0
  0
ENDTAB
  0
TABLE
  2
LAYER
  5
2
330
0
100
AcDbSymbolTable
 70
     9
  0
LAYER
  5
10
102
{ACAD_XDICTIONARY
360
951
102
}
330
2
100
AcDbSymbolTableRecord
100
AcDbLayerTableRecord
  2
0
 70
     0
 62
     7
  6
Continuous
370
    -3
390
F
  0
LAYER
  5
242
102
{ACAD_XDICTIONARY
360
953
102
}
330
2
100
AcDbSymbolTableRecord
100
AcDbLayerTableRecord
  2
4
 70
     0
 62
     4
  6
Continuous
370
    -3
390
F
  0
LAYER
  5
243
102
{ACAD_XDICTIONARY
360
955
102
}
330
2
100
AcDbSymbolTableRecord
100
AcDbLayerTableRecord
  2
cen
 70
     0
 62
     7
  6
DASHDOT
370
    -3
390
F
  0
LAYER
  5
244
102
{ACAD_XDICTIONARY
360
957
102
}
330
2
100
AcDbSymbolTableRecord
100
AcDbLayerTableRecord
  2
hid
 70
     0
 62
     7
  6
HIDDEN
370
    -3
390
F
  0
LAYER
  5
245
102
{ACAD_XDICTIONARY
360
959
102
}
330
2
100
AcDbSymbolTableRecord
100
AcDbLayerTableRecord
  2
hatch
 70
     0
 62
     9
  6
Continuous
370
    -3
390
F
  0
LAYER
  5
246
102
{ACAD_XDICTIONARY
360
95B
102
}
330
2
100
AcDbSymbolTableRecord
100
AcDbLayerTableRecord
  2
9
 70
     0
 62
     9
  6
Continuous
370
    -3
390
F
  0
LAYER
  5
247
102
{ACAD_XDICTIONARY
360
95D
102
}
330
2
100
AcDbSymbolTableRecord
100
AcDbLayerTableRecord
  2
cotas
 70
     0
 62
     1
  6
Continuous
370
    -3
390
F
  0
LAYER
  5
248
330
2
100
AcDbSymbolTableRecord
100
AcDbLayerTableRecord
  2
Defpoints
 70
     0
 62
     7
  6
Continuous
290
     0
370
    -3
390
F
  0
LAYER
  5
249
102
{ACAD_XDICTIONARY
360
95F
102
}
330
2
100
AcDbSymbolTableRecord
100
AcDbLayerTableRecord
  2
SANINDUSA
 70
     0
 62
     3
  6
Continuous
370
    -3
390
F
  0
ENDTAB
  0
TABLE
  2
STYLE
  5
3
330
0
100
AcDbSymbolTable
 70
     2
  0
STYLE
  5
11
330
3
100
AcDbSymbolTableRecord
100
AcDbTextStyleTableRecord
  2
Standard
 70
     0
 40
0.0
 41
1.0
 50
0.0
 71
     0
 42
2.5
  3
txt
  4

  0
STYLE
  5
24A
330
3
100
AcDbSymbolTableRecord
100
AcDbTextStyleTableRecord
  2
SANINDUSA
 70
     0
 40
0.0
 41
1.0
 50
0.0
 71
     0
 42
2.5
  3
verdana.TTF
  4

1001
ACAD
1000
Verdana
1071
       34
  0
ENDTAB
  0
TABLE
  2
VIEW
  5
6
330
0
100
AcDbSymbolTable
 70
     0
  0
ENDTAB
  0
TABLE
  2
UCS
  5
7
330
0
100
AcDbSymbolTable
 70
     0
  0
ENDTAB
  0
TABLE
  2
APPID
  5
9
330
0
100
AcDbSymbolTable
 70
     7
  0
APPID
  5
12
330
9
100
AcDbSymbolTableRecord
100
AcDbRegAppTableRecord
  2
ACAD
 70
     0
  0
APPID
  5
24C
330
9
100
AcDbSymbolTableRecord
100
AcDbRegAppTableRecord
  2
ACAD_PSEXT
 70
     0
  0
APPID
  5
24D
330
9
100
AcDbSymbolTableRecord
100
AcDbRegAppTableRecord
  2
ACAD_DSTYLE_DIMJOGGED_JOGANGLE_SYMBOL
 70
     0
  0
APPID
  5
24E
330
9
100
AcDbSymbolTableRecord
100
AcDbRegAppTableRecord
  2
ACAD_DSTYLE_DIMEXT_LENGTH
 70
     0
  0
APPID
  5
24F
330
9
100
AcDbSymbolTableRecord
100
AcDbRegAppTableRecord
  2
ACAD_DSTYLE_DIMEXT_ENABLED
 70
     0
  0
APPID
  5
250
330
9
100
AcDbSymbolTableRecord
100
AcDbRegAppTableRecord
  2
ACAD_DSTYLE_DIMARC_LENGTH_SYMBOL
 70
     0
  0
APPID
  5
9B4
330
9
100
AcDbSymbolTableRecord
100
AcDbRegAppTableRecord
  2
ACAD_MLEADERVER
 70
     0
  0
ENDTAB
  0
TABLE
  2
DIMSTYLE
  5
A
330
0
100
AcDbSymbolTable
 70
     2
100
AcDbDimStyleTable
 71
     1
340
2B
  0
DIMSTYLE
105
2B
330
A
100
AcDbSymbolTableRecord
100
AcDbDimStyleTableRecord
  2
ISO-25
 70
     0
 41
2.5
 42
0.625
 43
3.75
 44
1.25
 73
     0
 74
     0
 77
     1
 78
     8
140
2.5
141
2.5
143
0.03937007874016
147
0.625
171
     3
172
     1
271
     2
272
     2
274
     3
278
    44
283
     0
284
     8
340
11
  0
DIMSTYLE
105
24B
330
A
100
AcDbSymbolTableRecord
100
AcDbDimStyleTableRecord
  2
SANINDUSA
 70
     0
 40
5.0
 41
2.0
 42
1.0
 43
1.0
 44
1.0
 73
     0
 74
     0
 77
     1
 78
     8
140
2.0
141
0.0
143
0.03937007874016
147
1.0
171
     3
172
     1
176
   256
177
   256
178
   256
179
     1
271
     1
272
     1
274
     3
278
    44
283
     0
284
     8
340
24A
371
    -1
372
    -1
1001
ACAD_DSTYLE_DIMJOGGED_JOGANGLE_SYMBOL
1070
   384
1040
1.570796326794896
  0
ENDTAB
  0
TABLE
  2
BLOCK_RECORD
  5
1
330
0
100
AcDbSymbolTable
 70
    93
  0
BLOCK_RECORD
  5
23
330
1
100
AcDbSymbolTableRecord
100
AcDbBlockTableRecord
  2
*Model_Space
340
26
  0
BLOCK_RECORD
  5
1F
330
1
100
AcDbSymbolTableRecord
100
AcDbBlockTableRecord
  2
*Paper_Space
340
22
  0
BLOCK_RECORD
  5
27
330
1
100
AcDbSymbolTableRecord
100
AcDbBlockTableRecord
  2
*Paper_Space0
340
2A
  0
ENDTAB
  0
ENDSEC
  0
SECTION
  2
BLOCKS
  0
BLOCK
  5
24
330
23
100
AcDbEntity
  8
0
100
AcDbBlockBegin
  2
*Model_Space
 70
     0
 10
0.0
 20
0.0
 30
0.0
  3
*Model_Space
  1

  0
ENDBLK
  5
25
330
23
100
AcDbEntity
  8
0
100
AcDbBlockEnd
  0
BLOCK
  5
20
330
1F
100
AcDbEntity
 67
     1
  8
0
100
AcDbBlockBegin
  2
*Paper_Space
 70
     0
 10
0.0
 20
0.0
 30
0.0
  3
*Paper_Space
  1

  0
ENDBLK
  5
21
330
1F
100
AcDbEntity
 67
     1
  8
0
100
AcDbBlockEnd
  0
BLOCK
  5
28
330
27
100
AcDbEntity
 67
     1
  8
0
100
AcDbBlockBegin
  2
*Paper_Space0
 70
     0
 10
0.0
 20
0.0
 30
0.0
  3
*Paper_Space0
  1

  0
ENDBLK
  5
29
330
27
100
AcDbEntity
 67
     1
  8
0
100
AcDbBlockEnd
  0
ENDSEC
  0
SECTION
  2
ENTITIES
  0
LWPOLYLINE
  5
418
330
23
100
AcDbEntity
  8
SANINDUSA
100
AcDbPolyline
 90
        7
 70
   128
 43
0.0
 10
1456.424565560747
 20
1133.082903865425
 10
1456.439218107212
 20
1133.083145287102
 10
1456.468831166577
 20
1133.083822772179
 10
1456.498423119113
 20
1133.084684278166
 10
1456.527994129979
 20
1133.085679798077
 10
1456.557544464128
 20
1133.086759438775
 10
1456.581258854802
 20
1133.087654200539
  0
LWPOLYLINE
  5
419
330
23
100
AcDbEntity
  8
SANINDUSA
100
AcDbPolyline
 90
        7
 70
   128
 43
0.0
 10
1456.178598238126
 20
1133.087654219098
 10
1456.202313120693
 20
1133.086759438775
 10
1456.231863454843
 20
1133.085679798077
 10
1456.261434465709
 20
1133.084684278166
 10
1456.291026418244
 20
1133.083822772179
 10
1456.320639477609
 20
1133.083145287102
 10
1456.335288122622
 20
1133.082888571217
  0
ARC
  5
41A
330
23
100
AcDbEntity
  8
SANINDUSA
100
AcDbCircle
 10
1456.178788165223
 20
1133.092650021403
 30
0.0
 40
0.0049999997062007
100
AcDbArc
 50
181.9997116197964
 51
267.8169274957481
  0
ARC
  5
41B
330
23
100
AcDbEntity
  8
SANINDUSA
100
AcDbCircle
 10
1456.581069419598
 20
1133.092650021403
 30
0.0
 40
0.0049999997065441
100
AcDbArc
 50
272.1558708762955
 51
358.0002883806582
  0
ARC
  5
41C
330
23
100
AcDbEntity
  8
SANINDUSA
100
AcDbCircle
 10
1456.424952180118
 20
1133.072915802077
 30
0.0
 40
0.009995543205964
100
AcDbArc
 50
92.21670647536093
 51
174.1735617003587
  0
ARC
  5
41D
330
23
100
AcDbEntity
  8
SANINDUSA
100
AcDbCircle
 10
1456.334933506763
 20
1133.072928406127
 30
0.0
 40
0.0099664758572053
100
AcDbArc
 50
5.690455097640461
 51
87.96093605371
  0
ARC
  5
41E
330
23
100
AcDbEntity
  8
SANINDUSA
100
AcDbCircle
 10
1456.414013824891
 20
1133.074035718538
 30
0.0
 40
0.0009999998124206
100
AcDbArc
 50
269.9988465275205
 51
353.9604279005971
  0
ARC
  5
41F
330
23
100
AcDbEntity
  8
SANINDUSA
100
AcDbCircle
 10
1456.345843751457
 20
1133.074035718692
 30
0.0
 40
0.0009999999666233
100
AcDbArc
 50
186.8399791848501
 51
270.0002005591626
  0
LINE
  5
422
330
23
100
AcDbEntity
  8
SANINDUSA
100
AcDbLine
 10
1456.705097302672
 20
1133.213710216209
 30
0.0
 11
1456.705801811648
 21
1133.193535718726
 31
0.0
  0
LINE
  5
423
330
23
100
AcDbEntity
  8
SANINDUSA
100
AcDbLine
 10
1456.705801811648
 20
1133.193535718726
 30
0.0
 11
1456.695807903378
 21
1133.193535718726
 31
0.0
  0
LINE
  5
424
330
23
100
AcDbEntity
  8
SANINDUSA
100
AcDbLine
 10
1456.054055773173
 20
1133.193535718726
 30
0.0
 11
1456.05476028215
 21
1133.213710216209
 31
0.0
  0
LINE
  5
427
330
23
100
AcDbEntity
  8
SANINDUSA
100
AcDbLine
 10
1456.064049681444
 20
1133.193535718726
 30
0.0
 11
1456.054055773173
 21
1133.193535718726
 31
0.0
  0
LINE
  5
429
330
23
100
AcDbEntity
  8
SANINDUSA
100
AcDbLine
 10
1456.064049681444
 20
1133.193535718726
 30
0.0
 11
1456.695807903378
 21
1133.193535718726
 31
0.0
  0
ARC
  5
42A
330
23
100
AcDbEntity
  8
SANINDUSA
100
AcDbCircle
 10
1456.059757236285
 20
1133.213535718726
 30
0.0
 40
0.005
100
AcDbArc
 50
90.0
 51
177.9999999962464
  0
LINE
  5
42B
330
23
100
AcDbEntity
  8
SANINDUSA
100
AcDbLine
 10
1456.059757236285
 20
1133.218535718725
 30
0.0
 11
1456.06475419042
 21
1133.218535718725
 31
0.0
  0
LINE
  5
42D
330
23
100
AcDbEntity
  8
SANINDUSA
100
AcDbLine
 10
1456.695103394402
 20
1133.218535718725
 30
0.0
 11
1456.700100348537
 21
1133.218535718725
 31
0.0
  0
ARC
  5
42E
330
23
100
AcDbEntity
  8
SANINDUSA
100
AcDbCircle
 10
1456.700100348537
 20
1133.213535718726
 30
0.0
 40
0.0050000000000004
100
AcDbArc
 50
2.000000003753602
 51
90.0
  0
LINE
  5
430
330
23
100
AcDbEntity
  8
SANINDUSA
100
AcDbLine
 10
1456.06475419042
 20
1133.218535718725
 30
0.0
 11
1456.695103394402
 21
1133.218535718725
 31
0.0
  0
LINE
  5
432
330
23
100
AcDbEntity
  8
SANINDUSA
100
AcDbLine
 10
1456.103656455553
 20
1133.188099940012
 30
0.0
 11
1456.103180886538
 21
1133.193535718726
 31
0.0
  0
LINE
  5
434
330
23
100
AcDbEntity
  8
SANINDUSA
100
AcDbLine
 10
1456.656676698283
 20
1133.193535718726
 30
0.0
 11
1456.656201129268
 21
1133.188099940012
 31
0.0
  0
LINE
  5
437
330
23
100
AcDbEntity
  8
SANINDUSA
100
AcDbLine
 10
1456.646239182288
 20
1133.183535718725
 30
0.0
 11
1456.113618402534
 21
1133.183535718725
 31
0.0
  0
LINE
  5
439
330
23
100
AcDbEntity
  8
SANINDUSA
100
AcDbLine
 10
1456.113618402534
 20
1133.183535718725
 30
0.0
 11
1456.108637429044
 21
1133.183535718725
 31
0.0
  0
ARC
  5
43A
330
23
100
AcDbEntity
  8
SANINDUSA
100
AcDbCircle
 10
1456.108637429044
 20
1133.188535718725
 30
0.0
 40
0.0050000000000001
100
AcDbArc
 50
184.9999999962911
 51
270.0
  0
ARC
  5
43B
330
23
100
AcDbEntity
  8
SANINDUSA
100
AcDbCircle
 10
1456.651220155778
 20
1133.188535718725
 30
0.0
 40
0.0050000000000001
100
AcDbArc
 50
270.0
 51
355.0000000037089
  0
LINE
  5
43C
330
23
100
AcDbEntity
  8
SANINDUSA
100
AcDbLine
 10
1456.651220155778
 20
1133.183535718725
 30
0.0
 11
1456.646239182288
 21
1133.183535718725
 31
0.0
  0
LWPOLYLINE
  5
43E
330
23
100
AcDbEntity
  8
SANINDUSA
100
AcDbPolyline
 90
       10
 70
   128
 43
0.0
 10
1456.384707750504
 20
1133.086576659264
 10
1456.385297255789
 20
1133.086562202883
 10
1456.392326392203
 20
1133.08626232933
 10
1456.399221610909
 20
1133.085747439495
 10
1456.405460740714
 20
1133.085109860345
 10
1456.411215498035
 20
1133.084403251656
 10
1456.416075177531
 20
1133.083755169871
 10
1456.420089362029
 20
1133.083242807648
 10
1456.42252221473
 20
1133.083010843195
 10
1456.422522234622
 20
1133.083010841921
  0
LWPOLYLINE
  5
43F
330
23
100
AcDbEntity
  8
SANINDUSA
100
AcDbPolyline
 90
       11
 70
   128
 43
0.0
 10
1456.337335350199
 20
1133.083010841921
 10
1456.337335370091
 20
1133.083010843195
 10
1456.337699227391
 20
1133.083036615288
 10
1456.340787740859
 20
1133.083365114146
 10
1456.345047258128
 20
1133.083925122814
 10
1456.350193717575
 20
1133.084602777778
 10
1456.356275957584
 20
1133.085317610243
 10
1456.363007579098
 20
1133.085948223991
 10
1456.370390453238
 20
1133.086412468226
 10
1456.377432168173
 20
1133.086616828167
 10
1456.384707750504
 20
1133.086576659264
  0
LINE
  5
440
330
23
100
AcDbEntity
  8
SANINDUSA
100
AcDbLine
 10
1456.17379117627
 20
1133.092476529379
 30
0.0
 11
1456.17077982957
 21
1133.178710216209
 31
0.0
  0
ARC
  5
443
330
23
100
AcDbEntity
  8
SANINDUSA
100
AcDbCircle
 10
1456.165782875435
 20
1133.178535718726
 30
0.0
 40
0.0050000000000001
100
AcDbArc
 50
2.000000003753602
 51
90.0
  0
ARC
  5
446
330
23
100
AcDbEntity
  8
SANINDUSA
100
AcDbCircle
 10
1456.594074709387
 20
1133.178535718726
 30
0.0
 40
0.0050000000000001
100
AcDbArc
 50
90.0
 51
177.9999999962464
  0
LINE
  5
447
330
23
100
AcDbEntity
  8
SANINDUSA
100
AcDbLine
 10
1456.589077755251
 20
1133.178710216209
 30
0.0
 11
1456.586068023649
 21
1133.092522779731
 31
0.0
  0
LINE
  5
449
330
23
100
AcDbEntity
  8
SANINDUSA
100
AcDbLine
 10
1456.414013824891
 20
1133.073035718725
 30
0.0
 11
1456.345843751457
 21
1133.073035718725
 31
0.0
  0
LWPOLYLINE
  5
44E
330
23
100
AcDbEntity
  8
SANINDUSA
100
AcDbPolyline
 90
        5
 70
   128
 43
0.0
 10
1456.335288122622
 20
1133.082888571217
 10
1456.335639365095
 20
1133.082905409152
 10
1456.33733533099
 20
1133.083010840629
 10
1456.337335350199
 20
1133.083010841921
 10
1456.337335350199
 20
1133.083010841921
  0
ARC
  5
44F
330
23
100
AcDbEntity
  8
SANINDUSA
100
AcDbCircle
 10
1456.425360301577
 20
1133.117651942453
 30
0.0
 40
0.0347571642990663
100
AcDbArc
 50
265.3163469172273
 51
268.6897877006672
  0
LWPOLYLINE
  5
452
330
23
100
AcDbEntity
  8
SANINDUSA
100
AcDbPolyline
 90
       39
 70
   128
 43
0.0
 10
1455.794993372575
 20
1132.984085565312
 10
1455.794721839623
 20
1132.984932542775
 10
1455.794452392787
 20
1132.986320731625
 10
1455.794122672065
 20
1132.988797455496
 10
1455.793800061431
 20
1132.99211132652
 10
1455.793482516532
 20
1132.996325696536
 10
1455.793177245829
 20
1133.00138787867
 10
1455.792898505677
 20
1133.007009475883
 10
1455.792635668283
 20
1133.01335963502
 10
1455.792387897117
 20
1133.020522490117
 10
1455.79216062539
 20
1133.02837643706
 10
1455.791963907004
 20
1133.036518074468
 10
1455.791790570284
 20
1133.045206949949
 10
1455.791640144508
 20
1133.054534297839
 10
1455.791516831802
 20
1133.064320096786
 10
1455.791425716172
 20
1133.074036981449
 10
1455.791362041261
 20
1133.084050381009
 10
1455.791326634813
 20
1133.094445552901
 10
1455.791329552886
 20
1133.105007251903
 10
1455.791364000204
 20
1133.112455410431
 10
1455.791424200018
 20
1133.119912810015
 10
1455.791525300889
 20
1133.128477151651
 10
1455.791659962477
 20
1133.136946775777
 10
1455.791833303948
 20
1133.145443340927
 10
1455.792025449306
 20
1133.153749849892
 10
1455.79224980964
 20
1133.163214364439
 10
1455.792470606201
 20
1133.172337009231
 10
1455.792689206186
 20
1133.181179462655
 10
1455.792899782337
 20
1133.189501869187
 10
1455.793077619636
 20
1133.196359428628
 10
1455.793247926041
 20
1133.20274854472
 10
1455.793406931019
 20
1133.208508861184
 10
1455.793567459406
 20
1133.213694979398
 10
1455.793756615521
 20
1133.218202176737
 10
1455.793976668579
 20
1133.222029283069
 10
1455.794230177522
 20
1133.225174694981
 10
1455.79451338113
 20
1133.227549967199
 10
1455.794746617576
 20
1133.228813728307
 10
1455.794995151975
 20
1133.229603472279
  0
ARC
  5
453
330
23
100
AcDbEntity
  8
SANINDUSA
100
AcDbCircle
 10
1455.794994204839
 20
1133.224619603055
 30
0.0
 40
0.0049838693144548
100
AcDbArc
 50
359.6668117581097
 51
89.989111493829
  0
ARC
  5
455
330
23
100
AcDbEntity
  8
SANINDUSA
100
AcDbCircle
 10
1455.795002532757
 20
1132.98906115878
 30
0.0
 40
0.0049756019004518
100
AcDbArc
 50
269.8945172720771
 51
0.4370790899515863
  0
LINE
  5
456
330
23
100
AcDbEntity
  8
SANINDUSA
100
AcDbLine
 10
1455.799977989884
 20
1132.989099114638
 30
0.0
 11
1455.799977989884
 21
1133.224590620862
 31
0.0
  0
ARC
  5
458
330
23
100
AcDbEntity
  8
SANINDUSA
100
AcDbCircle
 10
1455.409290700512
 20
1133.224627649527
 30
0.0
 40
0.0049758278859895
100
AcDbArc
 50
89.91769426932185
 51
180.4263824756252
  0
LWPOLYLINE
  5
459
330
23
100
AcDbEntity
  8
SANINDUSA
100
AcDbPolyline
 90
       36
 70
   128
 43
0.0
 10
1455.409297848316
 20
1133.229603472279
 10
1455.409516208663
 20
1133.228938161434
 10
1455.409723605549
 20
1133.227904846618
 10
1455.410016113397
 20
1133.225639139057
 10
1455.410279924116
 20
1133.222553267301
 10
1455.410519131311
 20
1133.218548053425
 10
1455.410724327484
 20
1133.213728750548
 10
1455.410895349238
 20
1133.208267291628
 10
1455.411063474239
 20
1133.202067512595
 10
1455.411253108226
 20
1133.194919524319
 10
1455.411455305209
 20
1133.187069161135
 10
1455.411653140374
 20
1133.179200098969
 10
1455.411859122972
 20
1133.170832551227
 10
1455.41207835006
 20
1133.161744774893
 10
1455.412302441605
 20
1133.15225952864
 10
1455.412551398964
 20
1133.140736399917
 10
1455.412756391095
 20
1133.128876022415
 10
1455.412896629508
 20
1133.116852120342
 10
1455.412959304174
 20
1133.106309704135
 10
1455.412968766184
 20
1133.095776618923
 10
1455.412935089383
 20
1133.085023061355
 10
1455.412870431976
 20
1133.074440815692
 10
1455.41277744863
 20
1133.064438292639
 10
1455.412655871912
 20
1133.054745301618
 10
1455.412501489373
 20
1133.045155524691
 10
1455.412318605339
 20
1133.036044162867
 10
1455.412120532233
 20
1133.027931069883
 10
1455.411899971863
 20
1133.020360593806
 10
1455.41165108888
 20
1133.013198776936
 10
1455.411381400103
 20
1133.006721549287
 10
1455.411100336672
 20
1133.001106482597
 10
1455.41080368017
 20
1132.996224681636
 10
1455.410484017815
 20
1132.992008100323
 10
1455.410152098487
 20
1132.988637236705
 10
1455.409730877465
 20
1132.985690009998
 10
1455.409299627715
 20
1132.984085565312
  0
ARC
  5
45A
330
23
100
AcDbEntity
  8
SANINDUSA
100
AcDbCircle
 10
1455.409298833281
 20
1132.989069476251
 30
0.0
 40
0.0049839110024138
100
AcDbArc
 50
179.6592706943907
 51
270.0091329262688
  0
LINE
  5
45B
330
23
100
AcDbEntity
  8
SANINDUSA
100
AcDbLine
 10
1455.404315010406
 20
1133.224590620862
 30
0.0
 11
1455.404315010406
 21
1132.989099114638
 31
0.0
  0
LINE
  5
45E
330
23
100
AcDbEntity
  8
SANINDUSA
100
AcDbLine
 10
1455.286977991741
 20
1133.36184356699
 30
0.0
 11
1455.91731500855
 21
1133.36184356699
 31
0.0
  0
ARC
  5
461
330
23
100
AcDbEntity
  8
SANINDUSA
100
AcDbCircle
 10
1455.91731500855
 20
1133.35184356699
 30
0.0
 40
0.0100000018565896
100
AcDbArc
 50
0.0
 51
90.0
  0
ARC
  5
465
330
23
100
AcDbEntity
  8
SANINDUSA
100
AcDbCircle
 10
1455.286977991741
 20
1133.35184356699
 30
0.0
 40
0.0100000018565896
100
AcDbArc
 50
90.0
 51
180.0
  0
LINE
  5
474
330
23
100
AcDbEntity
  8
SANINDUSA
100
AcDbLine
 10
1455.276977989884
 20
1132.921668964999
 30
0.0
 11
1455.276977989884
 21
1133.35184356699
 31
0.0
  0
LINE
  5
476
330
23
100
AcDbEntity
  8
SANINDUSA
100
AcDbLine
 10
1455.927315010406
 20
1133.35184356699
 30
0.0
 11
1455.927315010406
 21
1132.921668964999
 31
0.0
  0
CIRCLE
  5
478
330
23
100
AcDbEntity
  8
SANINDUSA
100
AcDbCircle
 10
1455.602146500145
 20
1133.28184356699
 30
0.0
 40
0.0175
  0
LWPOLYLINE
  5
47B
330
23
100
AcDbEntity
  8
SANINDUSA
100
AcDbPolyline
 90
        7
 70
   128
 43
0.0
 10
1455.794995151975
 20
1133.229603472279
 10
1455.784995155997
 20
1133.229606648682
 10
1455.744995171902
 20
1133.229619407494
 10
1455.66499519298
 20
1133.229640963286
 10
1455.602146500145
 20
1133.229647723116
 10
1455.480802139949
 20
1133.229626003906
 10
1455.409297848316
 20
1133.229603472279
  0
LWPOLYLINE
  5
482
330
23
100
AcDbEntity
  8
SANINDUSA
100
AcDbPolyline
 90
        6
 70
   128
 43
0.0
 10
1455.409299627715
 20
1132.984085565312
 10
1455.419299627703
 20
1132.984086004092
 10
1455.459299627668
 20
1132.984087580347
 10
1455.619299627679
 20
1132.984090216919
 10
1455.734452576721
 20
1132.984087942543
 10
1455.794993372575
 20
1132.984085565312
  0
ARC
  5
483
330
23
100
AcDbEntity
  8
SANINDUSA
100
AcDbCircle
 10
1455.286977991741
 20
1132.921675058586
 30
0.0
 40
0.0100000037131789
100
AcDbArc
 50
180.0349136720928
 51
269.9650863279072
  0
ARC
  5
485
330
23
100
AcDbEntity
  8
SANINDUSA
100
AcDbCircle
 10
1455.91731500855
 20
1132.921675058586
 30
0.0
 40
0.0100000037131792
100
AcDbArc
 50
270.0349136720928
 51
359.9650863279072
  0
LINE
  5
487
330
23
100
AcDbEntity
  8
SANINDUSA
100
AcDbLine
 10
1455.917321102136
 20
1132.911675056729
 30
0.0
 11
1455.286971898154
 21
1132.911675056729
 31
0.0
  0
LWPOLYLINE
  5
488
330
23
100
AcDbEntity
  8
SANINDUSA
100
AcDbPolyline
 90
       41
 70
   128
 43
0.0
 10
1455.602146500145
 20
1133.083357146983
 10
1455.596663196748
 20
1133.083883746476
 10
1455.591179893352
 20
1133.085498522469
 10
1455.586863565377
 20
1133.087609668139
 10
1455.582813808724
 20
1133.090373549628
 10
1455.578693878712
 20
1133.094153708094
 10
1455.575075437269
 20
1133.098577442209
 10
1455.571679409731
 20
1133.104224653798
 10
1455.569090227193
 20
1133.110466987174
 10
1455.567546570469
 20
1133.117452395938
 10
1455.56726975206
 20
1133.121159342752
 10
1455.567353138441
 20
1133.124875516552
 10
1455.568320146344
 20
1133.131106590559
 10
1455.570383168599
 20
1133.137258522691
 10
1455.57335897762
 20
1133.142761023453
 10
1455.577374544208
 20
1133.14781008313
 10
1455.58188116897
 20
1133.151779917445
 10
1455.587177476952
 20
1133.1549967862
 10
1455.592545071465
 20
1133.157085027686
 10
1455.598362477022
 20
1133.158258466274
 10
1455.604007490827
 20
1133.158418841894
 10
1455.609762087018
 20
1133.157605327289
 10
1455.615126445418
 20
1133.155893555921
 10
1455.620272945379
 20
1133.153238072289
 10
1455.624805901147
 20
1133.149843260399
 10
1455.62882956157
 20
1133.145639500384
 10
1455.632108321246
 20
1133.140848809401
 10
1455.63464044398
 20
1133.135452067808
 10
1455.636299675913
 20
1133.129624730917
 10
1455.637014999643
 20
1133.123441696662
 10
1455.636710398926
 20
1133.117170232673
 10
1455.63532773183
 20
1133.110861621821
 10
1455.632998380201
 20
1133.105005172374
 10
1455.629801506243
 20
1133.099421949086
 10
1455.625356426167
 20
1133.093898539726
 10
1455.622697524406
 20
1133.091378132648
 10
1455.619805795135
 20
1133.089130211452
 10
1455.6152826426
 20
1133.086460621601
 10
1455.610243544819
 20
1133.084512757863
 10
1455.606279333405
 20
1133.083655612664
 10
1455.602146500145
 20
1133.083357146983
  0
ELLIPSE
  5
489
330
23
100
AcDbEntity
  8
SANINDUSA
100
AcDbEllipse
 10
1455.286279576351
 20
1132.920976643196
 30
0.0
 11
0.007079685445992
 21
0.0070796854459919
 31
0.0
210
0.0
220
0.0
230
1.0
 40
0.9987827659587045
 41
2.356803477777946
 42
3.92638182940165
  0
ELLIPSE
  5
48C
330
23
100
AcDbEntity
  8
SANINDUSA
100
AcDbEllipse
 10
1455.918013423939
 20
1132.920976643196
 30
0.0
 11
0.0070796854459917
 21
-0.0070796854459919
 31
0.0
210
0.0
220
0.0
230
1.0
 40
0.998782765958737
 41
5.49839613136776
 42
7.067974482991455
  0
LINE
  5
490
330
23
100
AcDbEntity
  8
SANINDUSA
100
AcDbLine
 10
1455.91731500855
 20
1133.36184356699
 30
0.0
 11
1455.917599023434
 21
1133.36184356699
 31
0.0
  0
LWPOLYLINE
  5
491
330
23
100
AcDbEntity
  8
SANINDUSA
100
AcDbPolyline
 90
        3
 70
   128
 43
0.0
 10
1455.918313368487
 20
1133.361823366034
 10
1455.917782594433
 20
1133.361842105421
 10
1455.917599023434
 20
1133.36184356699
  0
ELLIPSE
  5
492
330
23
100
AcDbEntity
  8
SANINDUSA
100
AcDbEllipse
 10
1455.917340001292
 20
1133.35184356699
 30
0.0
 11
0.015321284805498
 21
0.0000000000000009
 31
0.0
210
0.0
220
0.0
230
1.0
 40
0.6526867770522431
 41
1.443757117397789
 42
1.507223123278014
  0
ELLIPSE
  5
493
330
23
100
AcDbEntity
  8
SANINDUSA
100
AcDbEllipse
 10
1455.918013423939
 20
1133.35184356699
 30
0.0
 11
0.0100060954429884
 21
0.0
 31
0.0
210
0.0
220
0.0
230
1.0
 40
0.9993908270190777
 41
0.0
 42
1.443757117397837
  0
LINE
  5
494
330
23
100
AcDbEntity
  8
SANINDUSA
100
AcDbLine
 10
1455.286693976856
 20
1133.36184356699
 30
0.0
 11
1455.286977991741
 21
1133.36184356699
 31
0.0
  0
ELLIPSE
  5
496
330
23
100
AcDbEntity
  8
SANINDUSA
100
AcDbEllipse
 10
1455.286279576351
 20
1133.35184356699
 30
0.0
 11
0.0100060954429881
 21
0.0
 31
0.0
210
0.0
220
0.0
230
1.0
 40
0.9993908270191061
 41
1.697835536191973
 42
3.141592653589793
  0
ELLIPSE
  5
497
330
23
100
AcDbEntity
  8
SANINDUSA
100
AcDbEllipse
 10
1455.286952998999
 20
1133.35184356699
 30
0.0
 11
0.0153212848054976
 21
-0.000000000000001
 31
0.0
210
0.0
220
0.0
230
1.0
 40
0.6526867770522613
 41
1.634369530311768
 42
1.697835536192013
  0
LWPOLYLINE
  5
498
330
23
100
AcDbEntity
  8
SANINDUSA
100
AcDbPolyline
 90
        3
 70
   128
 43
0.0
 10
1455.286693976856
 20
1133.36184356699
 10
1455.286469631464
 20
1133.36184139025
 10
1455.285979631803
 20
1133.361823366034
  0
LINE
  5
499
330
23
100
AcDbEntity
  8
SANINDUSA
100
AcDbLine
 10
1455.928019519382
 20
1132.920964456023
 30
0.0
 11
1455.928019519382
 21
1133.35184356699
 31
0.0
  0
LINE
  5
49A
330
23
100
AcDbEntity
  8
SANINDUSA
100
AcDbLine
 10
1455.276273480908
 20
1133.35184356699
 30
0.0
 11
1455.276273480908
 21
1132.920964456023
 31
0.0
  0
LINE
  5
49B
330
23
100
AcDbEntity
  8
SANINDUSA
100
AcDbLine
 10
1455.286267389178
 20
1132.910970547753
 30
0.0
 11
1455.918025611112
 21
1132.910970547753
 31
0.0
  0
CIRCLE
  5
49C
330
23
100
AcDbEntity
  8
SANINDUSA
100
AcDbCircle
 10
-1455.602146500145
 20
1133.12184356699
 30
0.0000000000039563
 40
0.0235
210
0.0
220
0.0000000000000035
230
-1.0
  0
LWPOLYLINE
  5
4A0
330
23
100
AcDbEntity
  8
SANINDUSA
100
AcDbPolyline
 90
       22
 70
   128
 43
0.0
 10
1457.811910155866
 20
1133.096275799782
 10
1457.811961157498
 20
1133.096272594203
 10
1457.812774672102
 20
1133.096221361289
 10
1457.814486443471
 20
1133.09611395705
 10
1457.817141927102
 20
1133.09595015212
 10
1457.820536738993
 20
1133.095748661639
 10
1457.824740499008
 20
1133.09551612749
 10
1457.82953118999
 20
1133.095280331451
 10
1457.834927931584
 20
1133.095060736954
 10
1457.840755268474
 20
1133.094886751172
 10
1457.846938302729
 20
1133.094779607205
 10
1457.853209766718
 20
1133.094756398452
 10
1457.859518377571
 20
1133.094819813196
 10
1457.865374827018
 20
1133.094990606837
 10
1457.870958050305
 20
1133.095385726064
 10
1457.876481459666
 20
1133.096015334993
 10
1457.878990681466
 20
1133.096380934519
 10
1457.88124978794
 20
1133.096753191884
 10
1457.88391937779
 20
1133.097246287975
 10
1457.885867241528
 20
1133.097642809088
 10
1457.886724386727
 20
1133.097827182419
 10
1457.887022852408
 20
1133.097892797833
  0
LINE
  5
4A1
330
23
100
AcDbEntity
  8
SANINDUSA
100
AcDbLine
 10
1457.887022852408
 20
1133.097892797833
 30
0.0
 11
1457.872036432401
 21
1133.084865301673
 31
0.0
  0
LINE
  5
4A2
330
23
100
AcDbEntity
  8
SANINDUSA
100
AcDbLine
 10
1457.825036432401
 20
1133.084865301673
 30
0.0
 11
1457.872036432401
 21
1133.084865301673
 31
0.0
  0
LINE
  5
4A3
330
23
100
AcDbEntity
  8
SANINDUSA
100
AcDbLine
 10
1457.825036432401
 20
1133.084865301673
 30
0.0
 11
1457.811910155866
 21
1133.096275799782
 31
0.0
  0
ARC
  5
4A4
330
23
100
AcDbEntity
  8
SANINDUSA
100
AcDbCircle
 10
1457.803314078845
 20
1133.075140622069
 30
0.0
 40
0.0099999999999999
100
AcDbArc
 50
4.999999996291116
 51
81.28751158061023
  0
ARC
  5
4A5
330
23
100
AcDbEntity
  8
SANINDUSA
100
AcDbCircle
 10
1457.893914238873
 20
1133.076917457027
 30
0.0
 40
0.0099999999999999
100
AcDbArc
 50
103.7248617375807
 51
175.0000000037089
  0
LINE
  5
4A6
330
23
100
AcDbEntity
  8
SANINDUSA
100
AcDbLine
 10
1457.813456568877
 20
1133.073948562983
 30
0.0
 11
1457.813276025826
 21
1133.076012179496
 31
0.0
  0
LWPOLYLINE
  5
4A7
330
23
100
AcDbEntity
  8
SANINDUSA
100
AcDbPolyline
 90
       19
 70
   128
 43
0.0
 10
1457.804828841573
 20
1133.085025231008
 10
1457.795831477363
 20
1133.086925755309
 10
1457.78933305666
 20
1133.088979074533
 10
1457.782984581088
 20
1133.091586365751
 10
1457.776812386002
 20
1133.094753071771
 10
1457.770846326325
 20
1133.098487678556
 10
1457.765414061482
 20
1133.102561834984
 10
1457.760302516449
 20
1133.107102550475
 10
1457.75548900869
 20
1133.112164264318
 10
1457.751092592016
 20
1133.117657858624
 10
1457.747303446621
 20
1133.123311489986
 10
1457.743975577751
 20
1133.129302860232
 10
1457.741105372749
 20
1133.135691767153
 10
1457.738777211277
 20
1133.142352663362
 10
1457.736942244855
 20
1133.149596174555
 10
1457.73545551366
 20
1133.156944832757
 10
1457.73289289416
 20
1133.171766200083
 10
1457.730880412205
 20
1133.186796260247
 10
1457.729441252608
 20
1133.201914264906
  0
ARC
  5
4A8
330
23
100
AcDbEntity
  8
SANINDUSA
100
AcDbCircle
 10
1457.858198085804
 20
1133.223038916667
 30
0.0
 40
0.1404231518475763
100
AcDbArc
 50
283.7361190795647
 51
342.1794923617057
  0
LINE
  5
4A9
330
23
100
AcDbEntity
  8
SANINDUSA
100
AcDbLine
 10
1457.883952291892
 20
1133.077789014454
 30
0.0
 11
1457.883616295925
 21
1133.073948562983
 31
0.0
  0
LINE
  5
4AA
330
23
100
AcDbEntity
  8
SANINDUSA
100
AcDbLine
 10
1457.872036432401
 20
1133.074035718726
 30
0.0
 11
1457.872036432401
 21
1133.084865301673
 31
0.0
  0
LINE
  5
4AC
330
23
100
AcDbEntity
  8
SANINDUSA
100
AcDbLine
 10
1457.825036432401
 20
1133.084865301673
 30
0.0
 11
1457.825036432401
 21
1133.074035718726
 31
0.0
  0
ARC
  5
4AD
330
23
100
AcDbEntity
  8
SANINDUSA
100
AcDbCircle
 10
1457.724455602922
 20
1133.201535718725
 30
0.0
 40
0.0050000000000001
100
AcDbArc
 50
4.341974398452473
 51
90.0
  0
LINE
  5
4AE
330
23
100
AcDbEntity
  8
SANINDUSA
100
AcDbLine
 10
1457.724455602922
 20
1133.206535718725
 30
0.0
 11
1457.707036432401
 21
1133.206535718725
 31
0.0
  0
ARC
  5
4AF
330
23
100
AcDbEntity
  8
SANINDUSA
100
AcDbCircle
 10
1457.707036432401
 20
1133.207535718725
 30
0.0
 40
0.001
100
AcDbArc
 50
180.0
 51
270.0
  0
LINE
  5
4B0
330
23
100
AcDbEntity
  8
SANINDUSA
100
AcDbLine
 10
1457.706036432401
 20
1133.207535718725
 30
0.0
 11
1457.706036432401
 21
1133.217535718725
 31
0.0
  0
ARC
  5
4B1
330
23
100
AcDbEntity
  8
SANINDUSA
100
AcDbCircle
 10
1457.707036432401
 20
1133.217535718725
 30
0.0
 40
0.0009999999999999
100
AcDbArc
 50
90.0
 51
180.0
  0
LINE
  5
4B2
330
23
100
AcDbEntity
  8
SANINDUSA
100
AcDbLine
 10
1457.735737862546
 20
1133.218535718725
 30
0.0
 11
1457.707036432401
 21
1133.218535718725
 31
0.0
  0
ARC
  5
4B3
330
23
100
AcDbEntity
  8
SANINDUSA
100
AcDbCircle
 10
1457.735737862546
 20
1133.213535718726
 30
0.0
 40
0.0050000000000002
100
AcDbArc
 50
2.708657406288437
 51
90.0
  0
LWPOLYLINE
  5
4B4
330
23
100
AcDbEntity
  8
SANINDUSA
100
AcDbPolyline
 90
       20
 70
   128
 43
0.0
 10
1457.811910155866
 20
1133.096275799782
 10
1457.805175559292
 20
1133.097128213496
 10
1457.798499525111
 20
1133.098637142133
 10
1457.792967404961
 20
1133.100427899948
 10
1457.787603262246
 20
1133.10267229061
 10
1457.782297728368
 20
1133.10544049253
 10
1457.777247610796
 20
1133.108651138692
 10
1457.772620661533
 20
1133.112172267578
 10
1457.768300276575
 20
1133.116063398519
 10
1457.76420790433
 20
1133.120426721269
 10
1457.760501735844
 20
1133.125122480523
 10
1457.757288222044
 20
1133.129989174596
 10
1457.754491157573
 20
1133.135106542723
 10
1457.752069843039
 20
1133.140599694743
 10
1457.750128121596
 20
1133.146280171564
 10
1457.747433046612
 20
1133.157238951171
 10
1457.745476910432
 20
1133.168375361293
 10
1457.743884214924
 20
1133.179570774732
 10
1457.741927001668
 20
1133.19663626335
 10
1457.740732276275
 20
1133.213772005639
  0
ARC
  5
4B5
330
23
100
AcDbEntity
  8
SANINDUSA
100
AcDbCircle
 10
1457.824036432401
 20
1133.074035718726
 30
0.0
 40
0.0009999999999999
100
AcDbArc
 50
270.0
 51
0.0
  0
LINE
  5
4B6
330
23
100
AcDbEntity
  8
SANINDUSA
100
AcDbLine
 10
1457.824036432401
 20
1133.073035718725
 30
0.0
 11
1457.814452763575
 21
1133.073035718725
 31
0.0
  0
ARC
  5
4B7
330
23
100
AcDbEntity
  8
SANINDUSA
100
AcDbCircle
 10
1457.814452763575
 20
1133.074035718726
 30
0.0
 40
0.0010000000000002
100
AcDbArc
 50
184.9999999962911
 51
270.0
  0
ARC
  5
4B8
330
23
100
AcDbEntity
  8
SANINDUSA
100
AcDbCircle
 10
1457.873036432401
 20
1133.074035718726
 30
0.0
 40
0.001
100
AcDbArc
 50
180.0
 51
270.0
  0
LINE
  5
4B9
330
23
100
AcDbEntity
  8
SANINDUSA
100
AcDbLine
 10
1457.873036432401
 20
1133.073035718725
 30
0.0
 11
1457.824036432401
 21
1133.073035718725
 31
0.0
  0
LINE
  5
4BA
330
23
100
AcDbEntity
  8
SANINDUSA
100
AcDbLine
 10
1458.048409451639
 20
1133.193535718726
 30
0.0
 11
1458.04758392797
 21
1133.202971497439
 31
0.0
  0
ARC
  5
4BB
330
23
100
AcDbEntity
  8
SANINDUSA
100
AcDbCircle
 10
1458.042602954479
 20
1133.202535718725
 30
0.0
 40
0.0050000000000001
100
AcDbArc
 50
4.999999996291116
 51
90.0
  0
LINE
  5
4BC
330
23
100
AcDbEntity
  8
SANINDUSA
100
AcDbLine
 10
1458.042602954479
 20
1133.207535718725
 30
0.0
 11
1458.026090835433
 21
1133.207535718725
 31
0.0
  0
ARC
  5
4BD
330
23
100
AcDbEntity
  8
SANINDUSA
100
AcDbCircle
 10
1458.026090835433
 20
1133.202535718725
 30
0.0
 40
0.0050000000000001
100
AcDbArc
 50
90.0
 51
175.0000000037089
  0
ARC
  5
4C0
330
23
100
AcDbEntity
  8
SANINDUSA
100
AcDbCircle
 10
1458.026090835433
 20
1133.202535718725
 30
0.0
 40
0.0160000000000001
100
AcDbArc
 50
166.3910393704176
 51
175.0000000037089
  0
ARC
  5
4C1
330
23
100
AcDbEntity
  8
SANINDUSA
100
AcDbCircle
 10
1458.009568123791
 20
1133.206535718725
 30
0.0
 40
0.001
100
AcDbArc
 50
346.3910393704176
 51
90.0
  0
LINE
  5
4C2
330
23
100
AcDbEntity
  8
SANINDUSA
100
AcDbLine
 10
1458.021109861943
 20
1133.202971497439
 30
0.0
 11
1458.019808769259
 21
1133.188099940012
 31
0.0
  0
LINE
  5
4C3
330
23
100
AcDbEntity
  8
SANINDUSA
100
AcDbLine
 10
1458.010151720264
 20
1133.203930210609
 30
0.0
 11
1458.009409672248
 21
1133.195448562983
 31
0.0
  0
ARC
  5
4C4
330
23
100
AcDbEntity
  8
SANINDUSA
100
AcDbCircle
 10
1458.00841347755
 20
1133.195535718725
 30
0.0
 40
0.001
100
AcDbArc
 50
270.0
 51
355.0000000037089
  0
ARC
  5
4C5
330
23
100
AcDbEntity
  8
SANINDUSA
100
AcDbCircle
 10
1458.014827795768
 20
1133.188535718725
 30
0.0
 40
0.0050000000000001
100
AcDbArc
 50
270.0
 51
355.0000000037089
  0
LINE
  5
4C6
330
23
100
AcDbEntity
  8
SANINDUSA
100
AcDbLine
 10
1458.014827795768
 20
1133.183535718725
 30
0.0
 11
1457.996644315054
 21
1133.183535718725
 31
0.0
  0
LINE
  5
4C7
330
23
100
AcDbEntity
  8
SANINDUSA
100
AcDbLine
 10
1458.00841347755
 20
1133.194535718726
 30
0.0
 11
1457.996644315054
 21
1133.194535718726
 31
0.0
  0
ARC
  5
4C8
330
23
100
AcDbEntity
  8
SANINDUSA
100
AcDbCircle
 10
1457.996644315054
 20
1133.178535718726
 30
0.0
 40
0.0049999999999999
100
AcDbArc
 50
90.0
 51
162.1979433721084
  0
ARC
  5
4C9
330
23
100
AcDbEntity
  8
SANINDUSA
100
AcDbCircle
 10
1457.996644315054
 20
1133.178535718726
 30
0.0
 40
0.0159999999999999
100
AcDbArc
 50
90.0
 51
92.53013247575944
  0
ARC
  5
4CA
330
23
100
AcDbEntity
  8
SANINDUSA
100
AcDbCircle
 10
1457.995893853594
 20
1133.195519146165
 30
0.0
 40
0.001
100
AcDbArc
 50
168.7010043912839
 51
272.5301324757595
  0
ARC
  5
4CB
330
23
100
AcDbEntity
  8
SANINDUSA
100
AcDbCircle
 10
1457.882620101227
 20
1133.074035718726
 30
0.0
 40
0.0010000000000002
100
AcDbArc
 50
270.0
 51
355.0000000037089
  0
LINE
  5
4CC
330
23
100
AcDbEntity
  8
SANINDUSA
100
AcDbLine
 10
1457.882620101227
 20
1133.073035718725
 30
0.0
 11
1457.873036432401
 21
1133.073035718725
 31
0.0
  0
ARC
  5
4CD
330
23
100
AcDbEntity
  8
SANINDUSA
100
AcDbCircle
 10
1457.858201850616
 20
1133.22303021324
 30
0.0
 40
0.1284134840239961
100
AcDbArc
 50
282.969895144841
 51
355.919026844374
  0
ARC
  5
4CE
330
23
100
AcDbEntity
  8
SANINDUSA
100
AcDbCircle
 10
1457.858201850616
 20
1133.22303021324
 30
0.0
 40
0.139413484023996
100
AcDbArc
 50
348.701004391284
 51
353.2538381743884
  0
ARC
  5
4CF
330
23
100
AcDbEntity
  8
SANINDUSA
100
AcDbCircle
 10
1457.99764315779
 20
1133.206535718725
 30
0.0
 40
0.001
100
AcDbArc
 50
90.0
 51
173.2538381743884
  0
ARC
  5
4D0
330
23
100
AcDbEntity
  8
SANINDUSA
100
AcDbCircle
 10
1457.991277063534
 20
1133.213535718726
 30
0.0
 40
0.0050000000000001
100
AcDbArc
 50
90.0
 51
175.9194564490823
  0
LINE
  5
4D1
330
23
100
AcDbEntity
  8
SANINDUSA
100
AcDbLine
 10
1458.053707988527
 20
1133.218535718725
 30
0.0
 11
1457.991277063534
 21
1133.218535718725
 31
0.0
  0
LINE
  5
4D2
330
23
100
AcDbEntity
  8
SANINDUSA
100
AcDbLine
 10
1458.009568123791
 20
1133.207535718725
 30
0.0
 11
1457.99764315779
 21
1133.207535718725
 31
0.0
  0
ARC
  5
4D3
330
23
100
AcDbEntity
  8
SANINDUSA
100
AcDbCircle
 10
1458.053707988527
 20
1133.213535718726
 30
0.0
 40
0.0050000000000001
100
AcDbArc
 50
2.000000003753602
 51
90.0
  0
LINE
  5
4D4
330
23
100
AcDbEntity
  8
SANINDUSA
100
AcDbLine
 10
1458.058704942662
 20
1133.213710216209
 30
0.0
 11
1458.059409451639
 21
1133.193535718726
 31
0.0
  0
LINE
  5
4D5
330
23
100
AcDbEntity
  8
SANINDUSA
100
AcDbLine
 10
1458.059409451639
 20
1133.193535718726
 30
0.0
 11
1458.048409451639
 21
1133.193535718726
 31
0.0
  0
ARC
  5
4D9
330
23
100
AcDbEntity
  8
SANINDUSA
100
AcDbCircle
 10
1457.653441750567
 20
1133.201535718725
 30
0.0
 40
0.0050000000000001
100
AcDbArc
 50
90.0
 51
175.0000000037089
  0
ARC
  5
4DA
330
23
100
AcDbEntity
  8
SANINDUSA
100
AcDbCircle
 10
1457.653441750567
 20
1133.201535718725
 30
0.0
 40
0.0160000000000001
100
AcDbArc
 50
162.8953648282062
 51
175.0000000037089
  0
ARC
  5
4DB
330
23
100
AcDbEntity
  8
SANINDUSA
100
AcDbCircle
 10
1457.637193673758
 20
1133.206535718725
 30
0.0
 40
0.001
100
AcDbArc
 50
342.8953648282063
 51
90.0
  0
LINE
  5
4DC
330
23
100
AcDbEntity
  8
SANINDUSA
100
AcDbLine
 10
1457.648460777077
 20
1133.201971497439
 30
0.0
 11
1457.638935750022
 21
1133.093099940012
 31
0.0
  0
LINE
  5
4DD
330
23
100
AcDbEntity
  8
SANINDUSA
100
AcDbLine
 10
1457.637502635398
 20
1133.202930210609
 30
0.0
 11
1457.628536653011
 21
1133.100448562983
 31
0.0
  0
ARC
  5
4DE
330
23
100
AcDbEntity
  8
SANINDUSA
100
AcDbCircle
 10
1457.627540458313
 20
1133.100535718726
 30
0.0
 40
0.001
100
AcDbArc
 50
270.0
 51
355.0000000037089
  0
ARC
  5
4DF
330
23
100
AcDbEntity
  8
SANINDUSA
100
AcDbCircle
 10
1457.613536432401
 20
1133.213535718726
 30
0.0
 40
0.005
100
AcDbArc
 50
90.0
 51
180.0
  0
LINE
  5
4E0
330
23
100
AcDbEntity
  8
SANINDUSA
100
AcDbLine
 10
1457.670036432401
 20
1133.218535718725
 30
0.0
 11
1457.613536432401
 21
1133.218535718725
 31
0.0
  0
LINE
  5
4E1
330
23
100
AcDbEntity
  8
SANINDUSA
100
AcDbLine
 10
1457.637193673758
 20
1133.207535718725
 30
0.0
 11
1457.620536432401
 21
1133.207535718725
 31
0.0
  0
ARC
  5
4E2
330
23
100
AcDbEntity
  8
SANINDUSA
100
AcDbCircle
 10
1457.670036432401
 20
1133.217535718725
 30
0.0
 40
0.0009999999999999
100
AcDbArc
 50
0.0
 51
90.0
  0
LINE
  5
4E3
330
23
100
AcDbEntity
  8
SANINDUSA
100
AcDbLine
 10
1457.671036432401
 20
1133.217535718725
 30
0.0
 11
1457.671036432401
 21
1133.207535718725
 31
0.0
  0
ARC
  5
4E4
330
23
100
AcDbEntity
  8
SANINDUSA
100
AcDbCircle
 10
1457.670036432401
 20
1133.207535718725
 30
0.0
 40
0.0010000000000002
100
AcDbArc
 50
270.0
 51
0.0
  0
LINE
  5
4E5
330
23
100
AcDbEntity
  8
SANINDUSA
100
AcDbLine
 10
1457.670036432401
 20
1133.206535718725
 30
0.0
 11
1457.653441750567
 21
1133.206535718725
 31
0.0
  0
LINE
  5
4E6
330
23
100
AcDbEntity
  8
SANINDUSA
100
AcDbLine
 10
1457.608536432401
 20
1133.090535718725
 30
0.0
 11
1457.608536432401
 21
1133.213535718726
 31
0.0
  0
LINE
  5
4E7
330
23
100
AcDbEntity
  8
SANINDUSA
100
AcDbLine
 10
1457.619536432401
 20
1133.100535718726
 30
0.0
 11
1457.619536432401
 21
1133.206535718725
 31
0.0
  0
ARC
  5
4E8
330
23
100
AcDbEntity
  8
SANINDUSA
100
AcDbCircle
 10
1457.620536432401
 20
1133.100535718726
 30
0.0
 40
0.001
100
AcDbArc
 50
180.0
 51
270.0
  0
ARC
  5
4E9
330
23
100
AcDbEntity
  8
SANINDUSA
100
AcDbCircle
 10
1457.620536432401
 20
1133.206535718725
 30
0.0
 40
0.001
100
AcDbArc
 50
90.0
 51
180.0
  0
ARC
  5
4EA
330
23
100
AcDbEntity
  8
SANINDUSA
100
AcDbCircle
 10
1457.610536432401
 20
1133.090535718725
 30
0.0
 40
0.002
100
AcDbArc
 50
180.0
 51
270.0
  0
LINE
  5
4EB
330
23
100
AcDbEntity
  8
SANINDUSA
100
AcDbLine
 10
1457.633954776531
 20
1133.088535718726
 30
0.0
 11
1457.610536432401
 21
1133.088535718726
 31
0.0
  0
LINE
  5
4EC
330
23
100
AcDbEntity
  8
SANINDUSA
100
AcDbLine
 10
1457.627540458313
 20
1133.099535718725
 30
0.0
 11
1457.620536432401
 21
1133.099535718725
 31
0.0
  0
ARC
  5
4ED
330
23
100
AcDbEntity
  8
SANINDUSA
100
AcDbCircle
 10
1457.633954776531
 20
1133.093535718725
 30
0.0
 40
0.0050000000000001
100
AcDbArc
 50
270.0
 51
355.0000000037089
  0
LINE
  5
4EF
330
23
100
AcDbEntity
  8
SANINDUSA
100
AcDbLine
 10
1457.707036432401
 20
1133.206535718725
 30
0.0
 11
1457.670036432401
 21
1133.206535718725
 31
0.0
  0
LINE
  5
4F2
330
23
100
AcDbEntity
  8
SANINDUSA
100
AcDbLine
 10
1457.670036432401
 20
1133.218535718725
 30
0.0
 11
1457.707036432401
 21
1133.218535718725
 31
0.0
  0
LINE
  5
4FA
330
23
100
AcDbEntity
  8
SANINDUSA
100
AcDbLine
 10
1457.643962441803
 20
1133.088535718726
 30
0.0
 11
1457.633954776531
 21
1133.088535718726
 31
0.0
  0
LINE
  5
4FB
330
23
100
AcDbEntity
  8
SANINDUSA
100
AcDbLine
 10
1457.790736205535
 20
1133.088535718726
 30
0.0
 11
1457.643962441803
 21
1133.088535718726
 31
0.0
  0
LINE
  5
501
330
23
100
AcDbEntity
  8
SANINDUSA
100
AcDbLine
 10
1457.991281855961
 20
1133.218535718725
 30
0.0
 11
1457.981280884753
 21
1133.218535718725
 31
0.0
  0
LINE
  5
503
330
23
100
AcDbEntity
  8
SANINDUSA
100
AcDbLine
 10
1457.745789378529
 20
1133.218535718725
 30
0.0
 11
1457.735788782876
 21
1133.218535718725
 31
0.0
  0
LINE
  5
504
330
23
100
AcDbEntity
  8
SANINDUSA
100
AcDbLine
 10
1457.745789378529
 20
1133.218535718725
 30
0.0
 11
1457.981280884753
 21
1133.218535718725
 31
0.0
  0
LINE
  5
507
330
23
100
AcDbEntity
  8
SANINDUSA
100
AcDbLine
 10
1458.048409451639
 20
1133.193535718726
 30
0.0
 11
1458.043428478148
 21
1133.193535718726
 31
0.0
  0
LINE
  5
509
330
23
100
AcDbEntity
  8
SANINDUSA
100
AcDbLine
 10
1458.043428478148
 20
1133.193535718726
 30
0.0
 11
1458.020284338274
 21
1133.193535718726
 31
0.0
  0
ARC
  5
511
330
23
100
AcDbEntity
  8
SANINDUSA
100
AcDbCircle
 10
1457.195943275935
 20
1133.223089217174
 30
0.0
 40
0.1404969313079768
100
AcDbArc
 50
283.5985409911396
 51
342.1676421112078
  0
ARC
  5
512
330
23
100
AcDbEntity
  8
SANINDUSA
100
AcDbCircle
 10
1457.152155585373
 20
1133.152671200749
 30
0.0
 40
0.0683141480963605
100
AcDbArc
 50
249.856258216986
 51
261.9959268158641
  0
ARC
  5
513
330
23
100
AcDbEntity
  8
SANINDUSA
100
AcDbCircle
 10
1457.334451036331
 20
1133.178535718726
 30
0.0
 40
0.0050000000176851
100
AcDbArc
 50
90.00087577718151
 51
162.1642577985823
  0
ARC
  5
514
330
23
100
AcDbEntity
  8
SANINDUSA
100
AcDbCircle
 10
1457.141132368614
 20
1133.075149820054
 30
0.0
 40
0.0099876827765797
100
AcDbArc
 50
4.938114815109403
 51
81.29900971011354
  0
ARC
  5
515
330
23
100
AcDbEntity
  8
SANINDUSA
100
AcDbCircle
 10
1457.231721626929
 20
1133.076913962291
 30
0.0
 40
0.0100009889440253
100
AcDbArc
 50
105.9310972437716
 51
175.1233932913099
  0
LINE
  5
516
330
23
100
AcDbEntity
  8
SANINDUSA
100
AcDbLine
 10
1457.151082979648
 20
1133.076009556811
 30
0.0
 11
1457.151263293243
 21
1133.073948562983
 31
0.0
  0
ARC
  5
517
330
23
100
AcDbEntity
  8
SANINDUSA
100
AcDbCircle
 10
1457.152259487941
 20
1133.074035718726
 30
0.0
 40
0.0010000000000001
100
AcDbArc
 50
184.9999999962911
 51
270.0
  0
LINE
  5
518
330
23
100
AcDbEntity
  8
SANINDUSA
100
AcDbLine
 10
1457.221423020291
 20
1133.073948562983
 30
0.0
 11
1457.221756840685
 21
1133.077764147543
 31
0.0
  0
ARC
  5
519
330
23
100
AcDbEntity
  8
SANINDUSA
100
AcDbCircle
 10
1457.220426825593
 20
1133.074035718726
 30
0.0
 40
0.0010000000000002
100
AcDbArc
 50
270.0
 51
355.0000000037089
  0
LINE
  5
51A
330
23
100
AcDbEntity
  8
SANINDUSA
100
AcDbLine
 10
1456.946343156767
 20
1133.205402596563
 30
0.0
 11
1456.946343156767
 21
1133.213535718726
 31
0.0
  0
ELLIPSE
  5
51D
330
23
100
AcDbEntity
  8
SANINDUSA
100
AcDbEllipse
 10
1456.956343156767
 20
1133.212820020231
 30
0.0
 11
0.0
 21
0.1522071088314796
 31
0.0
210
0.0
220
0.0
230
1.0
 40
0.0656999536800333
 41
1.63436953031173
 42
1.697835536191965
  0
LINE
  5
51F
330
23
100
AcDbEntity
  8
SANINDUSA
100
AcDbLine
 10
1456.956343156767
 20
1133.193535718726
 30
0.0
 11
1456.946423743102
 21
1133.193535718726
 31
0.0
  0
LINE
  5
522
330
23
100
AcDbEntity
  8
SANINDUSA
100
AcDbLine
 10
1456.956343156767
 20
1133.193535718726
 30
0.0
 11
1457.387222267734
 21
1133.193535718726
 31
0.0
  0
LINE
  5
524
330
23
100
AcDbEntity
  8
SANINDUSA
100
AcDbLine
 10
1457.396511667028
 20
1133.213710216209
 30
0.0
 11
1457.397216176005
 21
1133.193535718726
 31
0.0
  0
LINE
  5
525
330
23
100
AcDbEntity
  8
SANINDUSA
100
AcDbLine
 10
1457.397216176005
 20
1133.193535718726
 30
0.0
 11
1457.387222267734
 21
1133.193535718726
 31
0.0
  0
LINE
  5
526
330
23
100
AcDbEntity
  8
SANINDUSA
100
AcDbLine
 10
1456.951343156767
 20
1133.218535718725
 30
0.0
 11
1456.956343156767
 21
1133.218535718725
 31
0.0
  0
ARC
  5
528
330
23
100
AcDbEntity
  8
SANINDUSA
100
AcDbCircle
 10
1456.951343156767
 20
1133.213535718726
 30
0.0
 40
0.005
100
AcDbArc
 50
90.0
 51
180.0
  0
LINE
  5
529
330
23
100
AcDbEntity
  8
SANINDUSA
100
AcDbLine
 10
1456.956343156767
 20
1133.218535718725
 30
0.0
 11
1457.386517758758
 21
1133.218535718725
 31
0.0
  0
LINE
  5
52B
330
23
100
AcDbEntity
  8
SANINDUSA
100
AcDbLine
 10
1457.386517758758
 20
1133.218535718725
 30
0.0
 11
1457.391514712893
 21
1133.218535718725
 31
0.0
  0
ARC
  5
52C
330
23
100
AcDbEntity
  8
SANINDUSA
100
AcDbCircle
 10
1457.391514712893
 20
1133.213535718726
 30
0.0
 40
0.005
100
AcDbArc
 50
2.000000003753602
 51
90.0
  0
LINE
  5
52E
330
23
100
AcDbEntity
  8
SANINDUSA
100
AcDbLine
 10
1456.946423743102
 20
1133.193535718726
 30
0.0
 11
1456.946445872775
 21
1133.193535718726
 31
0.0
  0
LINE
  5
52F
330
23
100
AcDbEntity
  8
SANINDUSA
100
AcDbLine
 10
1456.946343156767
 20
1133.203145808925
 30
0.0
 11
1456.946343156767
 21
1133.209535718725
 31
0.0
  0
LINE
  5
531
330
23
100
AcDbEntity
  8
SANINDUSA
100
AcDbLine
 10
1457.35809106264
 20
1133.193535718726
 30
0.0
 11
1457.357615493625
 21
1133.188099940012
 31
0.0
  0
LINE
  5
534
330
23
100
AcDbEntity
  8
SANINDUSA
100
AcDbLine
 10
1456.946343156767
 20
1133.188274251497
 30
0.0
 11
1456.946343156767
 21
1133.203145808925
 31
0.0
  0
ARC
  5
536
330
23
100
AcDbEntity
  8
SANINDUSA
100
AcDbCircle
 10
1456.948343156767
 20
1133.185535718726
 30
0.0
 40
0.0020000000000002
100
AcDbArc
 50
180.0
 51
270.0
  0
LINE
  5
537
330
23
100
AcDbEntity
  8
SANINDUSA
100
AcDbLine
 10
1456.946343156767
 20
1133.185535718726
 30
0.0
 11
1456.946343156767
 21
1133.188274251497
 31
0.0
  0
LINE
  5
539
330
23
100
AcDbEntity
  8
SANINDUSA
100
AcDbLine
 10
1457.347653546644
 20
1133.183535718725
 30
0.0
 11
1456.948343156767
 21
1133.183535718725
 31
0.0
  0
ARC
  5
53A
330
23
100
AcDbEntity
  8
SANINDUSA
100
AcDbCircle
 10
1457.352634520134
 20
1133.188535718725
 30
0.0
 40
0.0050000000000001
100
AcDbArc
 50
270.0
 51
355.0000000037089
  0
LINE
  5
53B
330
23
100
AcDbEntity
  8
SANINDUSA
100
AcDbLine
 10
1457.352634520134
 20
1133.183535718725
 30
0.0
 11
1457.347653546644
 21
1133.183535718725
 31
0.0
  0
ARC
  5
53E
330
23
100
AcDbEntity
  8
SANINDUSA
100
AcDbCircle
 10
1457.201502752563
 20
1133.222569210785
 30
0.0
 40
0.1349002920887636
100
AcDbArc
 50
266.4759883046288
 51
341.6545023055054
  0
ARC
  5
544
330
23
100
AcDbEntity
  8
SANINDUSA
100
AcDbCircle
 10
1457.334292597343
 20
1133.178535720928
 30
0.0
 40
0.0049999977978307
100
AcDbArc
 50
90.00000802497201
 51
161.6497467876842
  0
LINE
  5
548
330
23
100
AcDbEntity
  8
SANINDUSA
100
AcDbLine
 10
1456.946343156767
 20
1133.178780015202
 30
0.0
 11
1456.946343156767
 21
1133.185535718726
 31
0.0
  0
ARC
  5
54A
330
23
100
AcDbEntity
  8
SANINDUSA
100
AcDbCircle
 10
1457.190562687721
 20
1133.636246156634
 30
0.0
 40
0.5533203071770006
100
AcDbArc
 50
265.5699922444722
 51
271.0042575178139
  0
ARC
  5
54B
330
23
100
AcDbEntity
  8
SANINDUSA
100
AcDbCircle
 10
1457.196974930163
 20
1133.228706775178
 30
0.0
 40
0.1457329763161073
100
AcDbArc
 50
271.2918774940226
 51
282.6849969718509
  0
LINE
  5
54D
330
23
100
AcDbEntity
  8
SANINDUSA
100
AcDbLine
 10
1456.946343156767
 20
1133.093431020235
 30
0.0
 11
1456.946343156767
 21
1133.178780015202
 31
0.0
  0
LWPOLYLINE
  5
54E
330
23
100
AcDbEntity
  8
SANINDUSA
100
AcDbPolyline
 90
        3
 70
   128
 43
0.0
 10
1457.193210858493
 20
1133.087923998102
 10
1457.183221388405
 20
1133.088396104163
 10
1457.17428583174
 20
1133.088535718726
  0
ARC
  5
551
330
23
100
AcDbEntity
  8
SANINDUSA
100
AcDbCircle
 10
1456.948343156767
 20
1133.090535718725
 30
0.0
 40
0.0020000000000002
100
AcDbArc
 50
180.0
 51
270.0
  0
LINE
  5
552
330
23
100
AcDbEntity
  8
SANINDUSA
100
AcDbLine
 10
1456.946343156767
 20
1133.090535718725
 30
0.0
 11
1456.946343156767
 21
1133.093431020235
 31
0.0
  0
LINE
  5
553
330
23
100
AcDbEntity
  8
SANINDUSA
100
AcDbLine
 10
1457.17428583174
 20
1133.088535718726
 30
0.0
 11
1456.948343156767
 21
1133.088535718726
 31
0.0
  0
LINE
  5
556
330
23
100
AcDbEntity
  8
SANINDUSA
100
AcDbLine
 10
1457.220426825593
 20
1133.073035718725
 30
0.0
 11
1457.152259487941
 21
1133.073035718725
 31
0.0
  0
ARC
  5
55A
330
23
100
AcDbEntity
  8
SANINDUSA
100
AcDbCircle
 10
1457.155290653813
 20
1133.202239854241
 30
0.0
 40
0.117897627857931
100
AcDbArc
 50
263.8417932275077
 51
266.3687175875499
  0
ENDSEC
  0
SECTION
  2
OBJECTS
  0
DICTIONARY
  5
C
330
0
100
AcDbDictionary
281
     1
  3
ACAD_2007HEADERVARS_RT
350
96A
  3
ACAD_COLOR
350
1C
  3
ACAD_GROUP
350
D
  3
ACAD_LAYOUT
350
1A
  3
ACAD_MATERIAL
350
1B
  3
ACAD_MLEADERSTYLE
350
94B
  3
ACAD_MLINESTYLE
350
17
  3
ACAD_PLOTSETTINGS
350
19
  3
ACAD_PLOTSTYLENAME
350
E
  3
ACAD_SCALELIST
350
939
  3
ACAD_TABLESTYLE
350
1D
  3
ACAD_VISUALSTYLE
350
925
  3
ACDB_RECOMPOSE_DATA
350
968
  3
AcDbVariableDictionary
350
8F4
  3
DWGPROPS
350
969
  0
DICTIONARY
  5
951
330
10
100
AcDbDictionary
280
     1
281
     1
  3
ADSK_XREC_LAYER_RECONCILED
360
952
  0
DICTIONARY
  5
953
330
242
100
AcDbDictionary
280
     1
281
     1
  3
ADSK_XREC_LAYER_RECONCILED
360
954
  0
DICTIONARY
  5
955
330
243
100
AcDbDictionary
280
     1
281
     1
  3
ADSK_XREC_LAYER_RECONCILED
360
956
  0
DICTIONARY
  5
957
330
244
100
AcDbDictionary
280
     1
281
     1
  3
ADSK_XREC_LAYER_RECONCILED
360
958
  0
DICTIONARY
  5
959
330
245
100
AcDbDictionary
280
     1
281
     1
  3
ADSK_XREC_LAYER_RECONCILED
360
95A
  0
DICTIONARY
  5
95B
330
246
100
AcDbDictionary
280
     1
281
     1
  3
ADSK_XREC_LAYER_RECONCILED
360
95C
  0
DICTIONARY
  5
95D
330
247
100
AcDbDictionary
280
     1
281
     1
  3
ADSK_XREC_LAYER_RECONCILED
360
95E
  0
DICTIONARY
  5
95F
330
249
100
AcDbDictionary
280
     1
281
     1
  3
ADSK_XREC_LAYER_RECONCILED
360
960
  0
DICTIONARY
  5
96A
102
{ACAD_REACTORS
330
C
102
}
330
C
100
AcDbDictionary
281
     1
  3
DIMJOGANG
350
96B
  0
DICTIONARY
  5
1C
102
{ACAD_REACTORS
330
C
102
}
330
C
100
AcDbDictionary
281
     1
  0
DICTIONARY
  5
D
102
{ACAD_REACTORS
330
C
102
}
330
C
100
AcDbDictionary
281
     1
  0
DICTIONARY
  5
1A
102
{ACAD_REACTORS
330
C
102
}
330
C
100
AcDbDictionary
281
     1
  3
Layout1
350
22
  3
Layout2
350
2A
  3
Model
350
26
  0
DICTIONARY
  5
1B
102
{ACAD_REACTORS
330
C
102
}
330
C
100
AcDbDictionary
281
     1
  3
ByBlock
350
915
  3
ByLayer
350
90D
  3
Global
350
91D
  0
DICTIONARY
  5
94B
102
{ACAD_REACTORS
330
C
102
}
330
C
100
AcDbDictionary
281
     1
  3
Standard
350
94C
  0
DICTIONARY
  5
17
102
{ACAD_REACTORS
330
C
102
}
330
C
100
AcDbDictionary
281
     1
  3
Standard
350
18
  0
DICTIONARY
  5
19
102
{ACAD_REACTORS
330
C
102
}
330
C
100
AcDbDictionary
281
     1
  0
ACDBDICTIONARYWDFLT
  5
E
102
{ACAD_REACTORS
330
C
102
}
330
C
100
AcDbDictionary
281
     1
  3
Normal
350
F
100
AcDbDictionaryWithDefault
340
F
  0
DICTIONARY
  5
939
102
{ACAD_REACTORS
330
C
102
}
330
C
100
AcDbDictionary
281
     1
  3
A0
350
93A
  3
A1
350
93B
  3
A2
350
93C
  3
A3
350
93D
  3
A4
350
93E
  3
A5
350
93F
  3
A6
350
940
  3
A7
350
941
  3
A8
350
942
  3
A9
350
943
  3
B0
350
944
  3
B1
350
945
  3
B2
350
946
  3
B3
350
947
  3
B4
350
948
  3
B5
350
949
  3
B6
350
94A
  0
DICTIONARY
  5
1D
102
{ACAD_REACTORS
330
C
102
}
330
C
100
AcDbDictionary
281
     1
  3
Standard
350
1E
  0
DICTIONARY
  5
925
102
{ACAD_REACTORS
330
C
102
}
330
C
100
AcDbDictionary
281
     1
  3
2dWireframe
350
92B
  3
3D Hidden
350
92D
  3
3dWireframe
350
92C
  3
Basic
350
92A
  3
Brighten
350
931
  3
ColorChange
350
935
  3
Conceptual
350
92E
  3
Dim
350
930
  3
EdgeColorOff
350
938
  3
Facepattern
350
934
  3
Flat
350
926
  3
FlatWithEdges
350
927
  3
Gouraud
350
928
  3
GouraudWithEdges
350
929
  3
JitterOff
350
936
  3
Linepattern
350
933
  3
OverhangOff
350
937
  3
Realistic
350
92F
  3
Thicken
350
932
  0
XRECORD
  5
968
102
{ACAD_REACTORS
330
C
102
}
330
C
100
AcDbXrecord
280
     1
 90
        1
330
1E
  0
DICTIONARY
  5
8F4
102
{ACAD_REACTORS
330
C
102
}
330
C
100
AcDbDictionary
281
     1
  3
CANNOSCALE
350
962
  3
CMLEADERSTYLE
350
961
  3
CTABLESTYLE
350
8F5
  3
DIMASSOC
350
90A
  3
HIDETEXT
350
909
  3
INDEXCTL
350
964
  3
PROJECTNAME
350
90B
  3
SORTENTS
350
963
  3
XCLIPFRAME
350
965
  0
XRECORD
  5
969
102
{ACAD_REACTORS
330
C
102
}
330
C
100
AcDbXrecord
280
     1
  1
DWGPROPS COOKIE
  2

  3

  4

  6

  7

  8
Julio
  9

300
=
301
=
302
=
303
=
304
=
305
=
306
=
307
=
308
=
309
=
 40
0.0025862615740741
 41
2454120.440938947
 42
2456147.603024803
  1

 90
        0
  0
XRECORD
  5
952
102
{ACAD_REACTORS
330
951
102
}
330
951
100
AcDbXrecord
280
     1
290
     1
  0
XRECORD
  5
954
102
{ACAD_REACTORS
330
953
102
}
330
953
100
AcDbXrecord
280
     1
290
     1
  0
XRECORD
  5
956
102
{ACAD_REACTORS
330
955
102
}
330
955
100
AcDbXrecord
280
     1
290
     1
  0
XRECORD
  5
958
102
{ACAD_REACTORS
330
957
102
}
330
957
100
AcDbXrecord
280
     1
290
     1
  0
XRECORD
  5
95A
102
{ACAD_REACTORS
330
959
102
}
330
959
100
AcDbXrecord
280
     1
290
     1
  0
XRECORD
  5
95C
102
{ACAD_REACTORS
330
95B
102
}
330
95B
100
AcDbXrecord
280
     1
290
     1
  0
XRECORD
  5
95E
102
{ACAD_REACTORS
330
95D
102
}
330
95D
100
AcDbXrecord
280
     1
290
     1
  0
XRECORD
  5
960
102
{ACAD_REACTORS
330
95F
102
}
330
95F
100
AcDbXrecord
280
     1
290
     1
  0
XRECORD
  5
96B
102
{ACAD_REACTORS
330
96A
102
}
330
96A
100
AcDbXrecord
280
     1
 40
1.570796326794896
  0
LAYOUT
  5
22
102
{ACAD_XDICTIONARY
360
96D
102
}
102
{ACAD_REACTORS
330
1A
102
}
330
1A
100
AcDbPlotSettings
  1

  2
C:\Documents and Settings\Julio\Application Data\Autodesk\AutoCAD 2006\R16.2\enu\plotters\Default Windows System Printer.pc3
  4

  6

 40
0.0
 41
0.0
 42
0.0
 43
0.0
 44
0.0
 45
0.0
 46
0.0
 47
0.0
 48
0.0
 49
0.0
140
0.0
141
0.0
142
1.0
143
1.0
 70
   688
 72
     0
 73
     0
 74
     5
  7

 75
    16
147
1.0
148
0.0
149
0.0
100
AcDbLayout
  1
Layout1
 70
     1
 71
     1
 10
0.0
 20
0.0
 11
420.0
 21
297.0
 12
0.0
 22
0.0
 32
0.0
 14
1.000000000000000E+20
 24
1.000000000000000E+20
 34
1.000000000000000E+20
 15
-1.000000000000000E+20
 25
-1.000000000000000E+20
 35
-1.000000000000000E+20
146
0.0
 13
0.0
 23
0.0
 33
0.0
 16
1.0
 26
0.0
 36
0.0
 17
0.0
 27
1.0
 37
0.0
 76
     0
330
1F
  0
LAYOUT
  5
2A
102
{ACAD_XDICTIONARY
360
971
102
}
102
{ACAD_REACTORS
330
1A
102
}
330
1A
100
AcDbPlotSettings
  1

  2
C:\Documents and Settings\Julio\Application Data\Autodesk\AutoCAD 2006\R16.2\enu\plotters\Default Windows System Printer.pc3
  4

  6

 40
0.0
 41
0.0
 42
0.0
 43
0.0
 44
0.0
 45
0.0
 46
0.0
 47
0.0
 48
0.0
 49
0.0
140
0.0
141
0.0
142
1.0
143
1.0
 70
   688
 72
     0
 73
     0
 74
     5
  7

 75
    16
147
1.0
148
0.0
149
0.0
100
AcDbLayout
  1
Layout2
 70
     1
 71
     2
 10
0.0
 20
0.0
 11
12.0
 21
9.0
 12
0.0
 22
0.0
 32
0.0
 14
0.0
 24
0.0
 34
0.0
 15
0.0
 25
0.0
 35
0.0
146
0.0
 13
0.0
 23
0.0
 33
0.0
 16
1.0
 26
0.0
 36
0.0
 17
0.0
 27
1.0
 37
0.0
 76
     0
330
27
  0
LAYOUT
  5
26
102
{ACAD_XDICTIONARY
360
96F
102
}
102
{ACAD_REACTORS
330
1A
102
}
330
1A
100
AcDbPlotSettings
  1

  2
C:\Documents and Settings\Julio\Application Data\Autodesk\AutoCAD 2006\R16.2\enu\plotters\Default Windows System Printer.pc3
  4

  6

 40
0.0
 41
0.0
 42
0.0
 43
0.0
 44
0.0
 45
0.0
 46
0.0
 47
0.0
 48
0.0
 49
0.0
140
0.0
141
0.0
142
1.0
143
1.0
 70
  1712
 72
     0
 73
     0
 74
     0
  7

 75
     0
147
1.0
148
0.0
149
0.0
100
AcDbLayout
  1
Model
 70
     1
 71
     0
 10
0.0
 20
0.0
 11
12.0
 21
9.0
 12
0.0
 22
0.0
 32
0.0
 14
0.0
 24
0.0
 34
0.0
 15
0.0
 25
0.0
 35
0.0
146
0.0
 13
0.0
 23
0.0
 33
0.0
 16
1.0
 26
0.0
 36
0.0
 17
0.0
 27
1.0
 37
0.0
 76
     0
330
23
331
901
  0
MATERIAL
  5
915
102
{ACAD_XDICTIONARY
360
916
102
}
102
{ACAD_REACTORS
330
1B
102
}
330
1B
100
AcDbMaterial
  1
ByBlock
 72
     0
 43
0.0008202099737533
 43
0.0
 43
0.0
 43
0.0
 43
0.0
 43
0.0008202099737533
 43
0.0
 43
0.0
 43
0.0
 43
0.0
 43
1.0
 43
0.0
 43
0.0
 43
0.0
 43
0.0
 43
1.0
 77
     0
 47
0.0008202099737533
 47
0.0
 47
0.0
 47
0.0
 47
0.0
 47
0.0008202099737533
 47
0.0
 47
0.0
 47
0.0
 47
0.0
 47
1.0
 47
0.0
 47
0.0
 47
0.0
 47
0.0
 47
1.0
171
     0
 49
0.0008202099737533
 49
0.0
 49
0.0
 49
0.0
 49
0.0
 49
0.0008202099737533
 49
0.0
 49
0.0
 49
0.0
 49
0.0
 49
1.0
 49
0.0
 49
0.0
 49
0.0
 49
0.0
 49
1.0
175
     0
142
0.0008202099737533
142
0.0
142
0.0
142
0.0
142
0.0
142
0.0008202099737533
142
0.0
142
0.0
142
0.0
142
0.0
142
1.0
142
0.0
142
0.0
142
0.0
142
0.0
142
1.0
179
     0
144
0.0008202099737533
144
0.0
144
0.0
144
0.0
144
0.0
144
0.0008202099737533
144
0.0
144
0.0
144
0.0
144
0.0
144
1.0
144
0.0
144
0.0
144
0.0
144
0.0
144
1.0
147
0.0008202099737533
147
0.0
147
0.0
147
0.0
147
0.0
147
0.0008202099737533
147
0.0
147
0.0
147
0.0
147
0.0
147
1.0
147
0.0
147
0.0
147
0.0
147
0.0
147
1.0
  0
MATERIAL
  5
90D
102
{ACAD_XDICTIONARY
360
90E
102
}
102
{ACAD_REACTORS
330
1B
102
}
330
1B
100
AcDbMaterial
  1
ByLayer
 72
     0
 43
0.0008202099737533
 43
0.0
 43
0.0
 43
0.0
 43
0.0
 43
0.0008202099737533
 43
0.0
 43
0.0
 43
0.0
 43
0.0
 43
1.0
 43
0.0
 43
0.0
 43
0.0
 43
0.0
 43
1.0
 77
     0
 47
0.0008202099737533
 47
0.0
 47
0.0
 47
0.0
 47
0.0
 47
0.0008202099737533
 47
0.0
 47
0.0
 47
0.0
 47
0.0
 47
1.0
 47
0.0
 47
0.0
 47
0.0
 47
0.0
 47
1.0
171
     0
 49
0.0008202099737533
 49
0.0
 49
0.0
 49
0.0
 49
0.0
 49
0.0008202099737533
 49
0.0
 49
0.0
 49
0.0
 49
0.0
 49
1.0
 49
0.0
 49
0.0
 49
0.0
 49
0.0
 49
1.0
175
     0
142
0.0008202099737533
142
0.0
142
0.0
142
0.0
142
0.0
142
0.0008202099737533
142
0.0
142
0.0
142
0.0
142
0.0
142
1.0
142
0.0
142
0.0
142
0.0
142
0.0
142
1.0
179
     0
144
0.0008202099737533
144
0.0
144
0.0
144
0.0
144
0.0
144
0.0008202099737533
144
0.0
144
0.0
144
0.0
144
0.0
144
1.0
144
0.0
144
0.0
144
0.0
144
0.0
144
1.0
147
0.0008202099737533
147
0.0
147
0.0
147
0.0
147
0.0
147
0.0008202099737533
147
0.0
147
0.0
147
0.0
147
0.0
147
1.0
147
0.0
147
0.0
147
0.0
147
0.0
147
1.0
  0
MATERIAL
  5
91D
102
{ACAD_XDICTIONARY
360
91E
102
}
102
{ACAD_REACTORS
330
1B
102
}
330
1B
100
AcDbMaterial
  1
Global
 72
     0
 43
0.0008202099737533
 43
0.0
 43
0.0
 43
0.0
 43
0.0
 43
0.0008202099737533
 43
0.0
 43
0.0
 43
0.0
 43
0.0
 43
1.0
 43
0.0
 43
0.0
 43
0.0
 43
0.0
 43
1.0
 77
     0
 47
0.0008202099737533
 47
0.0
 47
0.0
 47
0.0
 47
0.0
 47
0.0008202099737533
 47
0.0
 47
0.0
 47
0.0
 47
0.0
 47
1.0
 47
0.0
 47
0.0
 47
0.0
 47
0.0
 47
1.0
171
     0
 49
0.0008202099737533
 49
0.0
 49
0.0
 49
0.0
 49
0.0
 49
0.0008202099737533
 49
0.0
 49
0.0
 49
0.0
 49
0.0
 49
1.0
 49
0.0
 49
0.0
 49
0.0
 49
0.0
 49
1.0
175
     0
142
0.0008202099737533
142
0.0
142
0.0
142
0.0
142
0.0
142
0.0008202099737533
142
0.0
142
0.0
142
0.0
142
0.0
142
1.0
142
0.0
142
0.0
142
0.0
142
0.0
142
1.0
179
     0
144
0.0008202099737533
144
0.0
144
0.0
144
0.0
144
0.0
144
0.0008202099737533
144
0.0
144
0.0
144
0.0
144
0.0
144
1.0
144
0.0
144
0.0
144
0.0
144
0.0
144
1.0
147
0.0008202099737533
147
0.0
147
0.0
147
0.0
147
0.0
147
0.0008202099737533
147
0.0
147
0.0
147
0.0
147
0.0
147
1.0
147
0.0
147
0.0
147
0.0
147
0.0
147
1.0
  0
MLEADERSTYLE
  5
94C
102
{ACAD_REACTORS
330
94B
102
}
330
94B
100
AcDbMLeaderStyle
170
     2
171
     1
172
     0
 90
        2
 40
0.0
 41
0.0
173
     1
 91
-1056964608
340
14
 92
       -2
290
     1
 42
2.0
291
     1
 43
0.36
  3
Standard
 44
4.0
300

342
11
174
     1
178
     6
175
     1
176
     0
 93
-1056964608
 45
4.0
292
     0
297
     0
 46
4.0
 94
-1056964608
 47
1.0
 49
1.0
140
1.0
293
     1
141
0.0
294
     1
177
     0
142
1.0
295
     0
296
     0
143
0.125
1001
ACAD_MLEADERVER
1070
     2
  0
MLINESTYLE
  5
18
102
{ACAD_REACTORS
330
17
102
}
330
17
100
AcDbMlineStyle
  2
STANDARD
 70
     0
  3

 62
   256
 51
90.0
 52
90.0
 71
     2
 49
0.5
 62
   256
  6
BYLAYER
 49
-0.5
 62
   256
  6
BYLAYER
  0
ACDBPLACEHOLDER
  5
F
102
{ACAD_REACTORS
330
E
102
}
330
E
  0
SCALE
  5
93A
102
{ACAD_REACTORS
330
939
102
}
330
939
100
AcDbScale
 70
     0
300
1:1
140
1.0
141
1.0
290
     1
  0
SCALE
  5
93B
102
{ACAD_REACTORS
330
939
102
}
330
939
100
AcDbScale
 70
     0
300
1:2
140
1.0
141
2.0
290
     0
  0
SCALE
  5
93C
102
{ACAD_REACTORS
330
939
102
}
330
939
100
AcDbScale
 70
     0
300
1:4
140
1.0
141
4.0
290
     0
  0
SCALE
  5
93D
102
{ACAD_REACTORS
330
939
102
}
330
939
100
AcDbScale
 70
     0
300
1:5
140
1.0
141
5.0
290
     0
  0
SCALE
  5
93E
102
{ACAD_REACTORS
330
939
102
}
330
939
100
AcDbScale
 70
     0
300
1:8
140
1.0
141
8.0
290
     0
  0
SCALE
  5
93F
102
{ACAD_REACTORS
330
939
102
}
330
939
100
AcDbScale
 70
     0
300
1:10
140
1.0
141
10.0
290
     0
  0
SCALE
  5
940
102
{ACAD_REACTORS
330
939
102
}
330
939
100
AcDbScale
 70
     0
300
1:16
140
1.0
141
16.0
290
     0
  0
SCALE
  5
941
102
{ACAD_REACTORS
330
939
102
}
330
939
100
AcDbScale
 70
     0
300
1:20
140
1.0
141
20.0
290
     0
  0
SCALE
  5
942
102
{ACAD_REACTORS
330
939
102
}
330
939
100
AcDbScale
 70
     0
300
1:30
140
1.0
141
30.0
290
     0
  0
SCALE
  5
943
102
{ACAD_REACTORS
330
939
102
}
330
939
100
AcDbScale
 70
     0
300
1:40
140
1.0
141
40.0
290
     0
  0
SCALE
  5
944
102
{ACAD_REACTORS
330
939
102
}
330
939
100
AcDbScale
 70
     0
300
1:50
140
1.0
141
50.0
290
     0
  0
SCALE
  5
945
102
{ACAD_REACTORS
330
939
102
}
330
939
100
AcDbScale
 70
     0
300
1:100
140
1.0
141
100.0
290
     0
  0
SCALE
  5
946
102
{ACAD_REACTORS
330
939
102
}
330
939
100
AcDbScale
 70
     0
300
2:1
140
2.0
141
1.0
290
     0
  0
SCALE
  5
947
102
{ACAD_REACTORS
330
939
102
}
330
939
100
AcDbScale
 70
     0
300
4:1
140
4.0
141
1.0
290
     0
  0
SCALE
  5
948
102
{ACAD_REACTORS
330
939
102
}
330
939
100
AcDbScale
 70
     0
300
8:1
140
8.0
141
1.0
290
     0
  0
SCALE
  5
949
102
{ACAD_REACTORS
330
939
102
}
330
939
100
AcDbScale
 70
     0
300
10:1
140
10.0
141
1.0
290
     0
  0
SCALE
  5
94A
102
{ACAD_REACTORS
330
939
102
}
330
939
100
AcDbScale
 70
     0
300
100:1
140
100.0
141
1.0
290
     0
  0
TABLESTYLE
  5
1E
102
{ACAD_XDICTIONARY
360
966
102
}
102
{ACAD_REACTORS
330
1D
102
}
330
1D
100
AcDbTableStyle
  3
Standard
 70
     0
 71
     0
 40
1.5
 41
1.5
280
     0
281
     0
  7
Standard
140
4.5
170
     2
 62
     0
 63
     7
283
     0
274
    -2
284
     1
 64
     0
275
    -2
285
     1
 65
     0
276
    -2
286
     1
 66
     0
277
    -2
287
     1
 67
     0
278
    -2
288
     1
 68
     0
279
    -2
289
     1
 69
     0
  7
Standard
140
6.0
170
     5
 62
     0
 63
     7
283
     0
274
    -2
284
     1
 64
     0
275
    -2
285
     1
 65
     0
276
    -2
286
     1
 66
     0
277
    -2
287
     1
 67
     0
278
    -2
288
     1
 68
     0
279
    -2
289
     1
 69
     0
  7
Standard
140
4.5
170
     5
 62
     0
 63
     7
283
     0
274
    -2
284
     1
 64
     0
275
    -2
285
     1
 65
     0
276
    -2
286
     1
 66
     0
277
    -2
287
     1
 67
     0
278
    -2
288
     1
 68
     0
279
    -2
289
     1
 69
     0
  0
VISUALSTYLE
  5
92B
102
{ACAD_XDICTIONARY
360
998
102
}
102
{ACAD_REACTORS
330
925
102
}
330
925
100
AcDbVisualStyle
  2
2dWireframe
 70
     4
 71
     0
 72
     2
 73
     0
 90
        0
 40
-0.6
 41
-30.0
 62
     5
 63
     7
 74
     1
 91
        4
 64
     7
 65
   257
 75
     1
175
     1
 42
1.0
 92
        0
 66
   257
 43
1.0
 76
     1
 77
     6
 78
     2
 67
     7
 79
     5
170
     0
171
     0
290
     0
174
     0
 93
        1
 44
0.0
173
     0
291
     0
 45
0.0
1001
ACAD
1000
AcDbSavedByObjectVersion
1070
     0
  0
VISUALSTYLE
  5
92D
102
{ACAD_XDICTIONARY
360
99C
102
}
102
{ACAD_REACTORS
330
925
102
}
330
925
100
AcDbVisualStyle
  2
3D Hidden
 70
     6
 71
     1
 72
     2
 73
     2
 90
        0
 40
-0.6
 41
-30.0
 62
     5
 63
     7
 74
     2
 91
        2
 64
     7
 65
   257
 75
     2
175
     1
 42
179.0
 92
        0
 66
   257
 43
1.0
 76
     1
 77
     6
 78
     2
 67
     7
 79
     3
170
     0
171
     0
290
     0
174
     0
 93
        1
 44
0.0
173
     0
291
     0
 45
0.0
1001
ACAD
1000
AcDbSavedByObjectVersion
1070
     0
  0
VISUALSTYLE
  5
92C
102
{ACAD_XDICTIONARY
360
99A
102
}
102
{ACAD_REACTORS
330
925
102
}
330
925
100
AcDbVisualStyle
  2
3dWireframe
 70
     5
 71
     0
 72
     2
 73
     0
 90
        0
 40
-0.6
 41
-30.0
 62
     5
 63
     7
 74
     1
 91
        4
 64
     7
 65
   257
 75
     1
175
     1
 42
1.0
 92
        0
 66
   257
 43
1.0
 76
     1
 77
     6
 78
     2
 67
     7
 79
     5
170
     0
171
     0
290
     0
174
     0
 93
        1
 44
0.0
173
     0
291
     0
 45
0.0
1001
ACAD
1000
AcDbSavedByObjectVersion
1070
     0
  0
VISUALSTYLE
  5
92A
102
{ACAD_XDICTIONARY
360
996
102
}
102
{ACAD_REACTORS
330
925
102
}
330
925
100
AcDbVisualStyle
  2
Basic
 70
     7
 71
     1
 72
     0
 73
     1
 90
        0
 40
-0.6
 41
-30.0
 62
     5
 63
     7
 74
     0
 91
        4
 64
     7
 65
   257
 75
     1
175
     1
 42
1.0
 92
        8
 66
     7
 43
1.0
 76
     1
 77
     6
 78
     2
 67
     7
 79
     5
170
     0
171
     0
290
     0
174
     0
 93
        1
 44
0.0
173
     0
291
     1
 45
0.0
1001
ACAD
1000
AcDbSavedByObjectVersion
1070
     0
  0
VISUALSTYLE
  5
931
102
{ACAD_XDICTIONARY
360
9A4
102
}
102
{ACAD_REACTORS
330
925
102
}
330
925
100
AcDbVisualStyle
  2
Brighten
 70
    12
 71
     2
 72
     2
 73
     0
 90
        0
 40
-0.6
 41
-30.0
 62
     5
 63
     7
 74
     1
 91
        4
 64
     7
 65
   257
 75
     1
175
     1
 42
1.0
 92
        8
 66
     7
 43
1.0
 76
     1
 77
     6
 78
     2
 67
     7
 79
     5
170
     0
171
     0
290
     0
174
     0
 93
        1
 44
50.0
173
     0
291
     1
 45
0.0
1001
ACAD
1000
AcDbSavedByObjectVersion
1070
     0
  0
VISUALSTYLE
  5
935
102
{ACAD_XDICTIONARY
360
9AC
102
}
102
{ACAD_REACTORS
330
925
102
}
330
925
100
AcDbVisualStyle
  2
ColorChange
 70
    16
 71
     2
 72
     2
 73
     3
 90
        0
 40
-0.6
 41
-30.0
 62
     5
 63
     8
 74
     1
 91
        4
 64
     7
 65
   257
 75
     1
175
     1
 42
1.0
 92
        8
 66
     8
 43
1.0
 76
     1
 77
     6
 78
     2
 67
     7
 79
     5
170
     0
171
     0
290
     0
174
     0
 93
        1
 44
0.0
173
     0
291
     1
 45
0.0
1001
ACAD
1000
AcDbSavedByObjectVersion
1070
     0
  0
VISUALSTYLE
  5
92E
102
{ACAD_XDICTIONARY
360
99E
102
}
102
{ACAD_REACTORS
330
925
102
}
330
925
100
AcDbVisualStyle
  2
Conceptual
 70
     9
 71
     3
 72
     2
 73
     0
 90
        0
 40
-0.6
 41
-30.0
 62
     5
 63
     7
 74
     2
 91
        2
 64
     7
 65
   257
 75
     1
175
     1
 42
179.0
 92
        8
 66
     7
 43
1.0
 76
     1
 77
     6
 78
     2
 67
     7
 79
     3
170
     0
171
     0
290
     0
174
     0
 93
        1
 44
0.0
173
     0
291
     0
 45
0.0
1001
ACAD
1000
AcDbSavedByObjectVersion
1070
     0
  0
VISUALSTYLE
  5
930
102
{ACAD_XDICTIONARY
360
9A2
102
}
102
{ACAD_REACTORS
330
925
102
}
330
925
100
AcDbVisualStyle
  2
Dim
 70
    11
 71
     2
 72
     2
 73
     0
 90
        0
 40
-0.6
 41
-30.0
 62
     5
 63
     7
 74
     1
 91
        4
 64
     7
 65
   257
 75
     1
175
     1
 42
1.0
 92
        8
 66
     7
 43
1.0
 76
     1
 77
     6
 78
     2
 67
     7
 79
     5
170
     0
171
     0
290
     0
174
     0
 93
        1
 44
-50.0
173
     0
291
     1
 45
0.0
1001
ACAD
1000
AcDbSavedByObjectVersion
1070
     0
  0
VISUALSTYLE
  5
938
102
{ACAD_XDICTIONARY
360
9B2
102
}
102
{ACAD_REACTORS
330
925
102
}
330
925
100
AcDbVisualStyle
  2
EdgeColorOff
 70
    22
 71
     2
 72
     2
 73
     0
 90
        0
 40
-0.6
 41
-30.0
 62
     5
 63
     7
 74
     1
 91
        4
 64
     7
 65
   257
 75
     1
175
     1
 42
1.0
 92
        8
 66
     7
 43
1.0
 76
     1
 77
     6
 78
     2
 67
     7
 79
     5
170
     0
171
     0
290
     0
174
     0
 93
        1
 44
0.0
173
     0
291
     1
 45
0.0
1001
ACAD
1000
AcDbSavedByObjectVersion
1070
     0
  0
VISUALSTYLE
  5
934
102
{ACAD_XDICTIONARY
360
9AA
102
}
102
{ACAD_REACTORS
330
925
102
}
330
925
100
AcDbVisualStyle
  2
Facepattern
 70
    15
 71
     2
 72
     2
 73
     0
 90
        0
 40
-0.6
 41
-30.0
 62
     5
 63
     7
 74
     1
 91
        4
 64
     7
 65
   257
 75
     1
175
     1
 42
1.0
 92
        8
 66
     7
 43
1.0
 76
     1
 77
     6
 78
     2
 67
     7
 79
     5
170
     0
171
     0
290
     0
174
     0
 93
        1
 44
0.0
173
     0
291
     1
 45
0.0
1001
ACAD
1000
AcDbSavedByObjectVersion
1070
     0
  0
VISUALSTYLE
  5
926
102
{ACAD_XDICTIONARY
360
98E
102
}
102
{ACAD_REACTORS
330
925
102
}
330
925
100
AcDbVisualStyle
  2
Flat
 70
     0
 71
     2
 72
     1
 73
     1
 90
        2
 40
-0.6
 41
30.0
 62
     5
 63
     7
 74
     0
 91
        4
 64
     7
 65
   257
 75
     1
175
     1
 42
1.0
 92
        8
 66
     7
 43
1.0
 76
     1
 77
     6
 78
     2
 67
     7
 79
     5
170
     0
171
     0
290
     0
174
     0
 93
       13
 44
0.0
173
     0
291
     1
 45
0.0
1001
ACAD
1000
AcDbSavedByObjectVersion
1070
     0
  0
VISUALSTYLE
  5
927
102
{ACAD_XDICTIONARY
360
990
102
}
102
{ACAD_REACTORS
330
925
102
}
330
925
100
AcDbVisualStyle
  2
FlatWithEdges
 70
     1
 71
     2
 72
     1
 73
     1
 90
        2
 40
-0.6
 41
30.0
 62
     5
 63
     7
 74
     1
 91
        4
 64
     7
 65
   257
 75
     1
175
     1
 42
1.0
 92
        0
 66
   257
 43
1.0
 76
     1
 77
     6
 78
     2
 67
     7
 79
     5
170
     0
171
     0
290
     0
174
     0
 93
       13
 44
0.0
173
     0
291
     1
 45
0.0
1001
ACAD
1000
AcDbSavedByObjectVersion
1070
     0
  0
VISUALSTYLE
  5
928
102
{ACAD_XDICTIONARY
360
992
102
}
102
{ACAD_REACTORS
330
925
102
}
330
925
100
AcDbVisualStyle
  2
Gouraud
 70
     2
 71
     2
 72
     2
 73
     1
 90
        2
 40
-0.6
 41
30.0
 62
     5
 63
     7
 74
     0
 91
        4
 64
     7
 65
   257
 75
     1
175
     1
 42
1.0
 92
        0
 66
     7
 43
1.0
 76
     1
 77
     6
 78
     2
 67
     7
 79
     5
170
     0
171
     0
290
     0
174
     0
 93
       13
 44
0.0
173
     0
291
     1
 45
0.0
1001
ACAD
1000
AcDbSavedByObjectVersion
1070
     0
  0
VISUALSTYLE
  5
929
102
{ACAD_XDICTIONARY
360
994
102
}
102
{ACAD_REACTORS
330
925
102
}
330
925
100
AcDbVisualStyle
  2
GouraudWithEdges
 70
     3
 71
     2
 72
     2
 73
     1
 90
        2
 40
-0.6
 41
30.0
 62
     5
 63
     7
 74
     1
 91
        4
 64
     7
 65
   257
 75
     1
175
     1
 42
1.0
 92
        0
 66
   257
 43
1.0
 76
     1
 77
     6
 78
     2
 67
     7
 79
     5
170
     0
171
     0
290
     0
174
     0
 93
       13
 44
0.0
173
     0
291
     1
 45
0.0
1001
ACAD
1000
AcDbSavedByObjectVersion
1070
     0
  0
VISUALSTYLE
  5
936
102
{ACAD_XDICTIONARY
360
9AE
102
}
102
{ACAD_REACTORS
330
925
102
}
330
925
100
AcDbVisualStyle
  2
JitterOff
 70
    20
 71
     2
 72
     2
 73
     0
 90
        0
 40
-0.6
 41
-30.0
 62
     5
 63
     7
 74
     1
 91
        4
 64
     7
 65
   257
 75
     1
175
     1
 42
1.0
 92
       10
 66
     7
 43
1.0
 76
     1
 77
     6
 78
     2
 67
     7
 79
     5
170
     0
171
     0
290
     0
174
     0
 93
        1
 44
0.0
173
     0
291
     1
 45
0.0
1001
ACAD
1000
AcDbSavedByObjectVersion
1070
     0
  0
VISUALSTYLE
  5
933
102
{ACAD_XDICTIONARY
360
9A8
102
}
102
{ACAD_REACTORS
330
925
102
}
330
925
100
AcDbVisualStyle
  2
Linepattern
 70
    14
 71
     2
 72
     2
 73
     0
 90
        0
 40
-0.6
 41
-30.0
 62
     5
 63
     7
 74
     1
 91
        4
 64
     7
 65
   257
 75
     7
175
     7
 42
1.0
 92
        8
 66
     7
 43
1.0
 76
     1
 77
     6
 78
     2
 67
     7
 79
     5
170
     0
171
     0
290
     0
174
     0
 93
        1
 44
0.0
173
     0
291
     1
 45
0.0
1001
ACAD
1000
AcDbSavedByObjectVersion
1070
     0
  0
VISUALSTYLE
  5
937
102
{ACAD_XDICTIONARY
360
9B0
102
}
102
{ACAD_REACTORS
330
925
102
}
330
925
100
AcDbVisualStyle
  2
OverhangOff
 70
    21
 71
     2
 72
     2
 73
     0
 90
        0
 40
-0.6
 41
-30.0
 62
     5
 63
     7
 74
     1
 91
        4
 64
     7
 65
   257
 75
     1
175
     1
 42
1.0
 92
        9
 66
     7
 43
1.0
 76
     1
 77
     6
 78
     2
 67
     7
 79
     5
170
     0
171
     0
290
     0
174
     0
 93
        1
 44
0.0
173
     0
291
     1
 45
0.0
1001
ACAD
1000
AcDbSavedByObjectVersion
1070
     0
  0
VISUALSTYLE
  5
92F
102
{ACAD_XDICTIONARY
360
9A0
102
}
102
{ACAD_REACTORS
330
925
102
}
330
925
100
AcDbVisualStyle
  2
Realistic
 70
     8
 71
     2
 72
     2
 73
     0
 90
        0
 40
-0.6
 41
-30.0
 62
     5
 63
     7
 74
     1
 91
        0
 64
     7
 65
   257
 75
     1
175
     1
 42
1.0
 92
        8
 66
     8
 43
1.0
 76
     1
 77
     6
 78
     2
 67
     7
 79
     5
170
     0
171
     0
290
     0
174
     0
 93
       13
 44
0.0
173
     0
291
     0
 45
0.0
1001
ACAD
1000
AcDbSavedByObjectVersion
1070
     0
  0
VISUALSTYLE
  5
932
102
{ACAD_XDICTIONARY
360
9A6
102
}
102
{ACAD_REACTORS
330
925
102
}
330
925
100
AcDbVisualStyle
  2
Thicken
 70
    13
 71
     2
 72
     2
 73
     0
 90
        0
 40
-0.6
 41
-30.0
 62
     5
 63
     7
 74
     1
 91
        4
 64
     7
 65
   257
 75
     1
175
     1
 42
1.0
 92
       12
 66
     7
 43
1.0
 76
     1
 77
     6
 78
     2
 67
     7
 79
     5
170
     0
171
     0
290
     0
174
     0
 93
        1
 44
0.0
173
     0
291
     1
 45
0.0
1001
ACAD
1000
AcDbSavedByObjectVersion
1070
     0
  0
DICTIONARYVAR
  5
962
102
{ACAD_REACTORS
330
8F4
102
}
330
8F4
100
DictionaryVariables
280
     0
  1
1:1
  0
DICTIONARYVAR
  5
961
102
{ACAD_REACTORS
330
8F4
102
}
330
8F4
100
DictionaryVariables
280
     0
  1
STANDARD
  0
DICTIONARYVAR
  5
8F5
102
{ACAD_REACTORS
330
8F4
102
}
330
8F4
100
DictionaryVariables
280
     0
  1
STANDARD
  0
DICTIONARYVAR
  5
90A
102
{ACAD_REACTORS
330
8F4
102
}
330
8F4
100
DictionaryVariables
280
     0
  1
2
  0
DICTIONARYVAR
  5
909
102
{ACAD_REACTORS
330
8F4
102
}
330
8F4
100
DictionaryVariables
280
     0
  1
1
  0
DICTIONARYVAR
  5
964
102
{ACAD_REACTORS
330
8F4
102
}
330
8F4
100
DictionaryVariables
280
     0
  1
0
  0
DICTIONARYVAR
  5
90B
102
{ACAD_REACTORS
330
8F4
102
}
330
8F4
100
DictionaryVariables
280
     0
  1

  0
DICTIONARYVAR
  5
963
102
{ACAD_REACTORS
330
8F4
102
}
330
8F4
100
DictionaryVariables
280
     0
  1
127
  0
DICTIONARYVAR
  5
965
102
{ACAD_REACTORS
330
8F4
102
}
330
8F4
100
DictionaryVariables
280
     0
  1
2
  0
DICTIONARY
  5
96D
330
22
100
AcDbDictionary
280
     1
281
     1
  3
ACAD_XREC_ROUNDTRIP
360
96E
  0
DICTIONARY
  5
971
330
2A
100
AcDbDictionary
280
     1
281
     1
  3
ACAD_XREC_ROUNDTRIP
360
972
  0
DICTIONARY
  5
96F
330
26
100
AcDbDictionary
280
     1
281
     1
  3
ACAD_XREC_ROUNDTRIP
360
970
  0
DICTIONARY
  5
916
330
915
100
AcDbDictionary
280
     1
281
     1
  3
ACAD_XREC_ROUNDTRIP
360
98C
  3
BUMPTILE
360
918
  3
DIFFUSETILE
360
917
  3
OPACITYTILE
360
91B
  3
REFLECTIONTILE
360
91A
  3
REFRACTIONTILE
360
91C
  3
SPECULARTILE
360
919
  0
DICTIONARY
  5
90E
330
90D
100
AcDbDictionary
280
     1
281
     1
  3
ACAD_XREC_ROUNDTRIP
360
98B
  3
BUMPTILE
360
910
  3
DIFFUSETILE
360
90F
  3
OPACITYTILE
360
913
  3
REFLECTIONTILE
360
912
  3
REFRACTIONTILE
360
914
  3
SPECULARTILE
360
911
  0
DICTIONARY
  5
91E
330
91D
100
AcDbDictionary
280
     1
281
     1
  3
ACAD_XREC_ROUNDTRIP
360
98D
  3
BUMPTILE
360
920
  3
DIFFUSETILE
360
91F
  3
OPACITYTILE
360
923
  3
REFLECTIONTILE
360
922
  3
REFRACTIONTILE
360
924
  3
SPECULARTILE
360
921
  0
DICTIONARY
  5
966
330
1E
100
AcDbDictionary
280
     1
281
     1
  3
ACAD_ROUNDTRIP_2008_TABLESTYLE_CELLSTYLEMAP
360
967
  3
ACAD_XREC_ROUNDTRIP
360
96C
  0
DICTIONARY
  5
998
330
92B
100
AcDbDictionary
280
     1
281
     1
  3
ACAD_XREC_ROUNDTRIP
360
999
  0
DICTIONARY
  5
99C
330
92D
100
AcDbDictionary
280
     1
281
     1
  3
ACAD_XREC_ROUNDTRIP
360
99D
  0
DICTIONARY
  5
99A
330
92C
100
AcDbDictionary
280
     1
281
     1
  3
ACAD_XREC_ROUNDTRIP
360
99B
  0
DICTIONARY
  5
996
330
92A
100
AcDbDictionary
280
     1
281
     1
  3
ACAD_XREC_ROUNDTRIP
360
997
  0
DICTIONARY
  5
9A4
330
931
100
AcDbDictionary
280
     1
281
     1
  3
ACAD_XREC_ROUNDTRIP
360
9A5
  0
DICTIONARY
  5
9AC
330
935
100
AcDbDictionary
280
     1
281
     1
  3
ACAD_XREC_ROUNDTRIP
360
9AD
  0
DICTIONARY
  5
99E
330
92E
100
AcDbDictionary
280
     1
281
     1
  3
ACAD_XREC_ROUNDTRIP
360
99F
  0
DICTIONARY
  5
9A2
330
930
100
AcDbDictionary
280
     1
281
     1
  3
ACAD_XREC_ROUNDTRIP
360
9A3
  0
DICTIONARY
  5
9B2
330
938
100
AcDbDictionary
280
     1
281
     1
  3
ACAD_XREC_ROUNDTRIP
360
9B3
  0
DICTIONARY
  5
9AA
330
934
100
AcDbDictionary
280
     1
281
     1
  3
ACAD_XREC_ROUNDTRIP
360
9AB
  0
DICTIONARY
  5
98E
330
926
100
AcDbDictionary
280
     1
281
     1
  3
ACAD_XREC_ROUNDTRIP
360
98F
  0
DICTIONARY
  5
990
330
927
100
AcDbDictionary
280
     1
281
     1
  3
ACAD_XREC_ROUNDTRIP
360
991
  0
DICTIONARY
  5
992
330
928
100
AcDbDictionary
280
     1
281
     1
  3
ACAD_XREC_ROUNDTRIP
360
993
  0
DICTIONARY
  5
994
330
929
100
AcDbDictionary
280
     1
281
     1
  3
ACAD_XREC_ROUNDTRIP
360
995
  0
DICTIONARY
  5
9AE
330
936
100
AcDbDictionary
280
     1
281
     1
  3
ACAD_XREC_ROUNDTRIP
360
9AF
  0
DICTIONARY
  5
9A8
330
933
100
AcDbDictionary
280
     1
281
     1
  3
ACAD_XREC_ROUNDTRIP
360
9A9
  0
DICTIONARY
  5
9B0
330
937
100
AcDbDictionary
280
     1
281
     1
  3
ACAD_XREC_ROUNDTRIP
360
9B1
  0
DICTIONARY
  5
9A0
330
92F
100
AcDbDictionary
280
     1
281
     1
  3
ACAD_XREC_ROUNDTRIP
360
9A1
  0
DICTIONARY
  5
9A6
330
932
100
AcDbDictionary
280
     1
281
     1
  3
ACAD_XREC_ROUNDTRIP
360
9A7
  0
XRECORD
  5
96E
102
{ACAD_REACTORS
330
96D
102
}
330
96D
100
AcDbXrecord
280
     1
102
SHADEPLOT
 70
     0
102
SHADEPLOTRESLEVEL
 70
     2
102
SHADEPLOTCUSTOMDPI
 70
   300
  0
XRECORD
  5
972
102
{ACAD_REACTORS
330
971
102
}
330
971
100
AcDbXrecord
280
     1
102
SHADEPLOT
 70
     0
102
SHADEPLOTRESLEVEL
 70
     2
102
SHADEPLOTCUSTOMDPI
 70
   300
  0
XRECORD
  5
970
102
{ACAD_REACTORS
330
96F
102
}
330
96F
100
AcDbXrecord
280
     1
102
SHADEPLOT
 70
     0
102
SHADEPLOTRESLEVEL
 70
     2
102
SHADEPLOTCUSTOMDPI
 70
   300
  0
XRECORD
  5
98C
102
{ACAD_REACTORS
330
916
102
}
330
916
100
AcDbXrecord
280
     1
102
MATERIAL
148
0.0
149
0.0
149
0.0
 93
        0
 94
      127
282
     0
 72
     0
 77
     0
171
     0
175
     0
179
     0
273
     0
  0
XRECORD
  5
918
102
{ACAD_REACTORS
330
916
102
}
330
916
100
AcDbXrecord
280
     1
270
     1
271
     1
  0
XRECORD
  5
917
102
{ACAD_REACTORS
330
916
102
}
330
916
100
AcDbXrecord
280
     1
270
     1
271
     1
  0
XRECORD
  5
91B
102
{ACAD_REACTORS
330
916
102
}
330
916
100
AcDbXrecord
280
     1
270
     1
271
     1
  0
XRECORD
  5
91A
102
{ACAD_REACTORS
330
916
102
}
330
916
100
AcDbXrecord
280
     1
270
     1
271
     1
  0
XRECORD
  5
91C
102
{ACAD_REACTORS
330
916
102
}
330
916
100
AcDbXrecord
280
     1
270
     1
271
     1
  0
XRECORD
  5
919
102
{ACAD_REACTORS
330
916
102
}
330
916
100
AcDbXrecord
280
     1
270
     1
271
     1
  0
XRECORD
  5
98B
102
{ACAD_REACTORS
330
90E
102
}
330
90E
100
AcDbXrecord
280
     1
102
MATERIAL
148
0.0
149
0.0
149
0.0
 93
        0
 94
      127
282
     0
 72
     0
 77
     0
171
     0
175
     0
179
     0
273
     0
  0
XRECORD
  5
910
102
{ACAD_REACTORS
330
90E
102
}
330
90E
100
AcDbXrecord
280
     1
270
     1
271
     1
  0
XRECORD
  5
90F
102
{ACAD_REACTORS
330
90E
102
}
330
90E
100
AcDbXrecord
280
     1
270
     1
271
     1
  0
XRECORD
  5
913
102
{ACAD_REACTORS
330
90E
102
}
330
90E
100
AcDbXrecord
280
     1
270
     1
271
     1
  0
XRECORD
  5
912
102
{ACAD_REACTORS
330
90E
102
}
330
90E
100
AcDbXrecord
280
     1
270
     1
271
     1
  0
XRECORD
  5
914
102
{ACAD_REACTORS
330
90E
102
}
330
90E
100
AcDbXrecord
280
     1
270
     1
271
     1
  0
XRECORD
  5
911
102
{ACAD_REACTORS
330
90E
102
}
330
90E
100
AcDbXrecord
280
     1
270
     1
271
     1
  0
XRECORD
  5
98D
102
{ACAD_REACTORS
330
91E
102
}
330
91E
100
AcDbXrecord
280
     1
102
MATERIAL
148
0.0
149
0.0
149
0.0
 93
        0
 94
      127
282
     0
 72
     0
 77
     0
171
     0
175
     0
179
     0
273
     0
  0
XRECORD
  5
920
102
{ACAD_REACTORS
330
91E
102
}
330
91E
100
AcDbXrecord
280
     1
270
     1
271
     1
  0
XRECORD
  5
91F
102
{ACAD_REACTORS
330
91E
102
}
330
91E
100
AcDbXrecord
280
     1
270
     1
271
     1
  0
XRECORD
  5
923
102
{ACAD_REACTORS
330
91E
102
}
330
91E
100
AcDbXrecord
280
     1
270
     1
271
     1
  0
XRECORD
  5
922
102
{ACAD_REACTORS
330
91E
102
}
330
91E
100
AcDbXrecord
280
     1
270
     1
271
     1
  0
XRECORD
  5
924
102
{ACAD_REACTORS
330
91E
102
}
330
91E
100
AcDbXrecord
280
     1
270
     1
271
     1
  0
XRECORD
  5
921
102
{ACAD_REACTORS
330
91E
102
}
330
91E
100
AcDbXrecord
280
     1
270
     1
271
     1
  0
CELLSTYLEMAP
  5
967
102
{ACAD_REACTORS
330
966
102
}
330
966
100
AcDbCellStyleMap
 90
        3
300
CELLSTYLE
  1
TABLEFORMAT_BEGIN
 90
        5
170
     1
 91
        0
 92
    32768
 62
   257
 93
        1
300
CONTENTFORMAT
  1
CONTENTFORMAT_BEGIN
 90
        0
 91
        0
 92
        4
 93
        0
300

 40
0.0
140
1.0
 94
        5
 62
     0
340
11
144
6.0
309
CONTENTFORMAT_END
171
     1
301
MARGIN
  1
CELLMARGIN_BEGIN
 40
1.5
 40
1.5
 40
1.5
 40
1.5
 40
0.18
 40
0.18
309
CELLMARGIN_END
 94
        6
 95
        1
302
GRIDFORMAT
  1
GRIDFORMAT_BEGIN
 90
        0
 91
        1
 62
     0
 92
       -2
340
0
 93
        0
 40
0.045
309
GRIDFORMAT_END
 95
        2
302
GRIDFORMAT
  1
GRIDFORMAT_BEGIN
 90
        0
 91
        1
 62
     0
 92
       -2
340
0
 93
        0
 40
0.045
309
GRIDFORMAT_END
 95
        4
302
GRIDFORMAT
  1
GRIDFORMAT_BEGIN
 90
        0
 91
        1
 62
     0
 92
       -2
340
0
 93
        0
 40
0.045
309
GRIDFORMAT_END
 95
        8
302
GRIDFORMAT
  1
GRIDFORMAT_BEGIN
 90
        0
 91
        1
 62
     0
 92
       -2
340
0
 93
        0
 40
0.045
309
GRIDFORMAT_END
 95
       16
302
GRIDFORMAT
  1
GRIDFORMAT_BEGIN
 90
        0
 91
        1
 62
     0
 92
       -2
340
0
 93
        0
 40
0.045
309
GRIDFORMAT_END
 95
       32
302
GRIDFORMAT
  1
GRIDFORMAT_BEGIN
 90
        0
 91
        1
 62
     0
 92
       -2
340
0
 93
        0
 40
0.045
309
GRIDFORMAT_END
309
TABLEFORMAT_END
  1
CELLSTYLE_BEGIN
 90
        1
 91
        1
300
_TITLE
309
CELLSTYLE_END
300
CELLSTYLE
  1
TABLEFORMAT_BEGIN
 90
        5
170
     1
 91
        0
 92
        0
 62
   257
 93
        1
300
CONTENTFORMAT
  1
CONTENTFORMAT_BEGIN
 90
        0
 91
        0
 92
        4
 93
        0
300

 40
0.0
140
1.0
 94
        5
 62
     0
340
11
144
4.5
309
CONTENTFORMAT_END
171
     1
301
MARGIN
  1
CELLMARGIN_BEGIN
 40
1.5
 40
1.5
 40
1.5
 40
1.5
 40
0.18
 40
0.18
309
CELLMARGIN_END
 94
        6
 95
        1
302
GRIDFORMAT
  1
GRIDFORMAT_BEGIN
 90
        0
 91
        1
 62
     0
 92
       -2
340
0
 93
        0
 40
0.045
309
GRIDFORMAT_END
 95
        2
302
GRIDFORMAT
  1
GRIDFORMAT_BEGIN
 90
        0
 91
        1
 62
     0
 92
       -2
340
0
 93
        0
 40
0.045
309
GRIDFORMAT_END
 95
        4
302
GRIDFORMAT
  1
GRIDFORMAT_BEGIN
 90
        0
 91
        1
 62
     0
 92
       -2
340
0
 93
        0
 40
0.045
309
GRIDFORMAT_END
 95
        8
302
GRIDFORMAT
  1
GRIDFORMAT_BEGIN
 90
        0
 91
        1
 62
     0
 92
       -2
340
0
 93
        0
 40
0.045
309
GRIDFORMAT_END
 95
       16
302
GRIDFORMAT
  1
GRIDFORMAT_BEGIN
 90
        0
 91
        1
 62
     0
 92
       -2
340
0
 93
        0
 40
0.045
309
GRIDFORMAT_END
 95
       32
302
GRIDFORMAT
  1
GRIDFORMAT_BEGIN
 90
        0
 91
        1
 62
     0
 92
       -2
340
0
 93
        0
 40
0.045
309
GRIDFORMAT_END
309
TABLEFORMAT_END
  1
CELLSTYLE_BEGIN
 90
        2
 91
        1
300
_HEADER
309
CELLSTYLE_END
300
CELLSTYLE
  1
TABLEFORMAT_BEGIN
 90
        5
170
     1
 91
        0
 92
        0
 62
   257
 93
        1
300
CONTENTFORMAT
  1
CONTENTFORMAT_BEGIN
 90
        0
 91
        0
 92
        4
 93
        0
300

 40
0.0
140
1.0
 94
        2
 62
     0
340
11
144
4.5
309
CONTENTFORMAT_END
171
     1
301
MARGIN
  1
CELLMARGIN_BEGIN
 40
1.5
 40
1.5
 40
1.5
 40
1.5
 40
0.18
 40
0.18
309
CELLMARGIN_END
 94
        6
 95
        1
302
GRIDFORMAT
  1
GRIDFORMAT_BEGIN
 90
        0
 91
        1
 62
     0
 92
       -2
340
0
 93
        0
 40
0.045
309
GRIDFORMAT_END
 95
        2
302
GRIDFORMAT
  1
GRIDFORMAT_BEGIN
 90
        0
 91
        1
 62
     0
 92
       -2
340
0
 93
        0
 40
0.045
309
GRIDFORMAT_END
 95
        4
302
GRIDFORMAT
  1
GRIDFORMAT_BEGIN
 90
        0
 91
        1
 62
     0
 92
       -2
340
0
 93
        0
 40
0.045
309
GRIDFORMAT_END
 95
        8
302
GRIDFORMAT
  1
GRIDFORMAT_BEGIN
 90
        0
 91
        1
 62
     0
 92
       -2
340
0
 93
        0
 40
0.045
309
GRIDFORMAT_END
 95
       16
302
GRIDFORMAT
  1
GRIDFORMAT_BEGIN
 90
        0
 91
        1
 62
     0
 92
       -2
340
0
 93
        0
 40
0.045
309
GRIDFORMAT_END
 95
       32
302
GRIDFORMAT
  1
GRIDFORMAT_BEGIN
 90
        0
 91
        1
 62
     0
 92
       -2
340
0
 93
        0
 40
0.045
309
GRIDFORMAT_END
309
TABLEFORMAT_END
  1
CELLSTYLE_BEGIN
 90
        3
 91
        2
300
_DATA
309
CELLSTYLE_END
  0
XRECORD
  5
96C
102
{ACAD_REACTORS
330
966
102
}
330
966
100
AcDbXrecord
280
     1
102
ACAD_ROUNDTRIP_PRE2007_TABLESTYLE
 90
        4
 91
        0
  1

 92
        4
 93
        0
  2

 94
        4
 95
        0
  3

  0
XRECORD
  5
999
102
{ACAD_REACTORS
330
998
102
}
330
998
100
AcDbXrecord
280
     1
102
RTVSPropertyOp0
 70
     1
102
RTVSPropertyOp1
 70
     1
102
RTVSPropertyOp2
 70
     1
102
RTVSPropertyOp3
 70
     1
102
RTVSPropertyOp4
 70
     1
102
RTVSPropertyOp5
 70
     1
102
RTVSPropertyOp6
 70
     1
102
RTVSPropertyOp7
 70
     1
102
RTVSPropertyOp8
 70
     1
102
RTVSPropertyOp9
 70
     1
102
RTVSPropertyOp10
 70
     1
102
RTVSPropertyOp11
 70
     1
102
RTVSPropertyOp12
 70
     1
102
RTVSPropertyOp13
 70
     1
102
RTVSPropertyOp14
 70
     1
102
RTVSPropertyOp15
 70
     1
102
RTVSPropertyOp16
 70
     1
102
RTVSPropertyOp17
 70
     1
102
RTVSPropertyOp18
 70
     1
102
RTVSPropertyOp19
 70
     1
102
RTVSPropertyOp20
 70
     1
102
RTVSPropertyOp21
 70
     1
102
RTVSPropertyOp22
 70
     1
102
RTVSPropertyOp23
 70
     1
102
RTVSPropertyOp24
 70
     1
102
RTVSPropertyOp25
 70
     1
102
RTVSPropertyOp26
 70
     1
102
RTVSPropertyOp27
 70
     1
  0
XRECORD
  5
99D
102
{ACAD_REACTORS
330
99C
102
}
330
99C
100
AcDbXrecord
280
     1
102
RTVSPropertyOp0
 70
     1
102
RTVSPropertyOp1
 70
     1
102
RTVSPropertyOp2
 70
     1
102
RTVSPropertyOp3
 70
     1
102
RTVSPropertyOp4
 70
     1
102
RTVSPropertyOp5
 70
     1
102
RTVSPropertyOp6
 70
     1
102
RTVSPropertyOp7
 70
     1
102
RTVSPropertyOp8
 70
     1
102
RTVSPropertyOp9
 70
     1
102
RTVSPropertyOp10
 70
     1
102
RTVSPropertyOp11
 70
     1
102
RTVSPropertyOp12
 70
     1
102
RTVSPropertyOp13
 70
     1
102
RTVSPropertyOp14
 70
     1
102
RTVSPropertyOp15
 70
     1
102
RTVSPropertyOp16
 70
     1
102
RTVSPropertyOp17
 70
     1
102
RTVSPropertyOp18
 70
     1
102
RTVSPropertyOp19
 70
     1
102
RTVSPropertyOp20
 70
     1
102
RTVSPropertyOp21
 70
     1
102
RTVSPropertyOp22
 70
     1
102
RTVSPropertyOp23
 70
     1
102
RTVSPropertyOp24
 70
     1
102
RTVSPropertyOp25
 70
     1
102
RTVSPropertyOp26
 70
     1
102
RTVSPropertyOp27
 70
     1
  0
XRECORD
  5
99B
102
{ACAD_REACTORS
330
99A
102
}
330
99A
100
AcDbXrecord
280
     1
102
RTVSPropertyOp0
 70
     1
102
RTVSPropertyOp1
 70
     1
102
RTVSPropertyOp2
 70
     1
102
RTVSPropertyOp3
 70
     1
102
RTVSPropertyOp4
 70
     1
102
RTVSPropertyOp5
 70
     1
102
RTVSPropertyOp6
 70
     1
102
RTVSPropertyOp7
 70
     1
102
RTVSPropertyOp8
 70
     1
102
RTVSPropertyOp9
 70
     1
102
RTVSPropertyOp10
 70
     1
102
RTVSPropertyOp11
 70
     1
102
RTVSPropertyOp12
 70
     1
102
RTVSPropertyOp13
 70
     1
102
RTVSPropertyOp14
 70
     1
102
RTVSPropertyOp15
 70
     1
102
RTVSPropertyOp16
 70
     1
102
RTVSPropertyOp17
 70
     1
102
RTVSPropertyOp18
 70
     1
102
RTVSPropertyOp19
 70
     1
102
RTVSPropertyOp20
 70
     1
102
RTVSPropertyOp21
 70
     1
102
RTVSPropertyOp22
 70
     1
102
RTVSPropertyOp23
 70
     1
102
RTVSPropertyOp24
 70
     1
102
RTVSPropertyOp25
 70
     1
102
RTVSPropertyOp26
 70
     1
102
RTVSPropertyOp27
 70
     1
  0
XRECORD
  5
997
102
{ACAD_REACTORS
330
996
102
}
330
996
100
AcDbXrecord
280
     1
102
RTVSPropertyOp0
 70
     1
102
RTVSPropertyOp1
 70
     1
102
RTVSPropertyOp2
 70
     1
102
RTVSPropertyOp3
 70
     1
102
RTVSPropertyOp4
 70
     1
102
RTVSPropertyOp5
 70
     1
102
RTVSPropertyOp6
 70
     1
102
RTVSPropertyOp7
 70
     1
102
RTVSPropertyOp8
 70
     1
102
RTVSPropertyOp9
 70
     1
102
RTVSPropertyOp10
 70
     1
102
RTVSPropertyOp11
 70
     1
102
RTVSPropertyOp12
 70
     1
102
RTVSPropertyOp13
 70
     1
102
RTVSPropertyOp14
 70
     1
102
RTVSPropertyOp15
 70
     1
102
RTVSPropertyOp16
 70
     1
102
RTVSPropertyOp17
 70
     1
102
RTVSPropertyOp18
 70
     1
102
RTVSPropertyOp19
 70
     1
102
RTVSPropertyOp20
 70
     1
102
RTVSPropertyOp21
 70
     1
102
RTVSPropertyOp22
 70
     1
102
RTVSPropertyOp23
 70
     1
102
RTVSPropertyOp24
 70
     1
102
RTVSPropertyOp25
 70
     1
102
RTVSPropertyOp26
 70
     1
102
RTVSPropertyOp27
 70
     1
  0
XRECORD
  5
9A5
102
{ACAD_REACTORS
330
9A4
102
}
330
9A4
100
AcDbXrecord
280
     1
102
RTVSPropertyOp0
 70
     1
102
RTVSPropertyOp1
 70
     1
102
RTVSPropertyOp2
 70
     1
102
RTVSPropertyOp3
 70
     1
102
RTVSPropertyOp4
 70
     1
102
RTVSPropertyOp5
 70
     1
102
RTVSPropertyOp6
 70
     1
102
RTVSPropertyOp7
 70
     1
102
RTVSPropertyOp8
 70
     1
102
RTVSPropertyOp9
 70
     1
102
RTVSPropertyOp10
 70
     1
102
RTVSPropertyOp11
 70
     1
102
RTVSPropertyOp12
 70
     1
102
RTVSPropertyOp13
 70
     1
102
RTVSPropertyOp14
 70
     1
102
RTVSPropertyOp15
 70
     1
102
RTVSPropertyOp16
 70
     1
102
RTVSPropertyOp17
 70
     1
102
RTVSPropertyOp18
 70
     1
102
RTVSPropertyOp19
 70
     1
102
RTVSPropertyOp20
 70
     1
102
RTVSPropertyOp21
 70
     1
102
RTVSPropertyOp22
 70
     1
102
RTVSPropertyOp23
 70
     1
102
RTVSPropertyOp24
 70
     1
102
RTVSPropertyOp25
 70
     1
102
RTVSPropertyOp26
 70
     1
102
RTVSPropertyOp27
 70
     1
  0
XRECORD
  5
9AD
102
{ACAD_REACTORS
330
9AC
102
}
330
9AC
100
AcDbXrecord
280
     1
102
RTVSPropertyOp0
 70
     1
102
RTVSPropertyOp1
 70
     1
102
RTVSPropertyOp2
 70
     1
102
RTVSPropertyOp3
 70
     1
102
RTVSPropertyOp4
 70
     1
102
RTVSPropertyOp5
 70
     1
102
RTVSPropertyOp6
 70
     1
102
RTVSPropertyOp7
 70
     1
102
RTVSPropertyOp8
 70
     1
102
RTVSPropertyOp9
 70
     1
102
RTVSPropertyOp10
 70
     1
102
RTVSPropertyOp11
 70
     1
102
RTVSPropertyOp12
 70
     1
102
RTVSPropertyOp13
 70
     1
102
RTVSPropertyOp14
 70
     1
102
RTVSPropertyOp15
 70
     1
102
RTVSPropertyOp16
 70
     1
102
RTVSPropertyOp17
 70
     1
102
RTVSPropertyOp18
 70
     1
102
RTVSPropertyOp19
 70
     1
102
RTVSPropertyOp20
 70
     1
102
RTVSPropertyOp21
 70
     1
102
RTVSPropertyOp22
 70
     1
102
RTVSPropertyOp23
 70
     1
102
RTVSPropertyOp24
 70
     1
102
RTVSPropertyOp25
 70
     1
102
RTVSPropertyOp26
 70
     1
102
RTVSPropertyOp27
 70
     1
  0
XRECORD
  5
99F
102
{ACAD_REACTORS
330
99E
102
}
330
99E
100
AcDbXrecord
280
     1
102
RTVSPropertyOp0
 70
     1
102
RTVSPropertyOp1
 70
     1
102
RTVSPropertyOp2
 70
     1
102
RTVSPropertyOp3
 70
     1
102
RTVSPropertyOp4
 70
     1
102
RTVSPropertyOp5
 70
     1
102
RTVSPropertyOp6
 70
     1
102
RTVSPropertyOp7
 70
     1
102
RTVSPropertyOp8
 70
     1
102
RTVSPropertyOp9
 70
     1
102
RTVSPropertyOp10
 70
     1
102
RTVSPropertyOp11
 70
     1
102
RTVSPropertyOp12
 70
     1
102
RTVSPropertyOp13
 70
     1
102
RTVSPropertyOp14
 70
     1
102
RTVSPropertyOp15
 70
     1
102
RTVSPropertyOp16
 70
     1
102
RTVSPropertyOp17
 70
     1
102
RTVSPropertyOp18
 70
     1
102
RTVSPropertyOp19
 70
     1
102
RTVSPropertyOp20
 70
     1
102
RTVSPropertyOp21
 70
     1
102
RTVSPropertyOp22
 70
     1
102
RTVSPropertyOp23
 70
     1
102
RTVSPropertyOp24
 70
     1
102
RTVSPropertyOp25
 70
     1
102
RTVSPropertyOp26
 70
     1
102
RTVSPropertyOp27
 70
     1
  0
XRECORD
  5
9A3
102
{ACAD_REACTORS
330
9A2
102
}
330
9A2
100
AcDbXrecord
280
     1
102
RTVSPropertyOp0
 70
     1
102
RTVSPropertyOp1
 70
     1
102
RTVSPropertyOp2
 70
     1
102
RTVSPropertyOp3
 70
     1
102
RTVSPropertyOp4
 70
     1
102
RTVSPropertyOp5
 70
     1
102
RTVSPropertyOp6
 70
     1
102
RTVSPropertyOp7
 70
     1
102
RTVSPropertyOp8
 70
     1
102
RTVSPropertyOp9
 70
     1
102
RTVSPropertyOp10
 70
     1
102
RTVSPropertyOp11
 70
     1
102
RTVSPropertyOp12
 70
     1
102
RTVSPropertyOp13
 70
     1
102
RTVSPropertyOp14
 70
     1
102
RTVSPropertyOp15
 70
     1
102
RTVSPropertyOp16
 70
     1
102
RTVSPropertyOp17
 70
     1
102
RTVSPropertyOp18
 70
     1
102
RTVSPropertyOp19
 70
     1
102
RTVSPropertyOp20
 70
     1
102
RTVSPropertyOp21
 70
     1
102
RTVSPropertyOp22
 70
     1
102
RTVSPropertyOp23
 70
     1
102
RTVSPropertyOp24
 70
     1
102
RTVSPropertyOp25
 70
     1
102
RTVSPropertyOp26
 70
     1
102
RTVSPropertyOp27
 70
     1
  0
XRECORD
  5
9B3
102
{ACAD_REACTORS
330
9B2
102
}
330
9B2
100
AcDbXrecord
280
     1
102
RTVSPropertyOp0
 70
     0
102
RTVSPropertyOp1
 70
     0
102
RTVSPropertyOp2
 70
     0
102
RTVSPropertyOp3
 70
     0
102
RTVSPropertyOp4
 70
     0
102
RTVSPropertyOp5
 70
     0
102
RTVSPropertyOp6
 70
     0
102
RTVSPropertyOp7
 70
     0
102
RTVSPropertyOp8
 70
     0
102
RTVSPropertyOp9
 70
     0
102
RTVSPropertyOp10
 70
     0
102
RTVSPropertyOp11
 70
     0
102
RTVSPropertyOp12
 70
     0
102
RTVSPropertyOp13
 70
     0
102
RTVSPropertyOp14
 70
     2
102
RTVSPropertyOp15
 70
     0
102
RTVSPropertyOp16
 70
     0
102
RTVSPropertyOp17
 70
     0
102
RTVSPropertyOp18
 70
     0
102
RTVSPropertyOp19
 70
     0
102
RTVSPropertyOp20
 70
     0
102
RTVSPropertyOp21
 70
     0
102
RTVSPropertyOp22
 70
     0
102
RTVSPropertyOp23
 70
     0
102
RTVSPropertyOp24
 70
     0
102
RTVSPropertyOp25
 70
     0
102
RTVSPropertyOp26
 70
     0
102
RTVSPropertyOp27
 70
     0
  0
XRECORD
  5
9AB
102
{ACAD_REACTORS
330
9AA
102
}
330
9AA
100
AcDbXrecord
280
     1
102
RTVSPropertyOp0
 70
     1
102
RTVSPropertyOp1
 70
     1
102
RTVSPropertyOp2
 70
     1
102
RTVSPropertyOp3
 70
     1
102
RTVSPropertyOp4
 70
     1
102
RTVSPropertyOp5
 70
     1
102
RTVSPropertyOp6
 70
     1
102
RTVSPropertyOp7
 70
     1
102
RTVSPropertyOp8
 70
     1
102
RTVSPropertyOp9
 70
     1
102
RTVSPropertyOp10
 70
     1
102
RTVSPropertyOp11
 70
     1
102
RTVSPropertyOp12
 70
     1
102
RTVSPropertyOp13
 70
     1
102
RTVSPropertyOp14
 70
     1
102
RTVSPropertyOp15
 70
     1
102
RTVSPropertyOp16
 70
     1
102
RTVSPropertyOp17
 70
     1
102
RTVSPropertyOp18
 70
     1
102
RTVSPropertyOp19
 70
     1
102
RTVSPropertyOp20
 70
     1
102
RTVSPropertyOp21
 70
     1
102
RTVSPropertyOp22
 70
     1
102
RTVSPropertyOp23
 70
     1
102
RTVSPropertyOp24
 70
     1
102
RTVSPropertyOp25
 70
     1
102
RTVSPropertyOp26
 70
     1
102
RTVSPropertyOp27
 70
     1
  0
XRECORD
  5
98F
102
{ACAD_REACTORS
330
98E
102
}
330
98E
100
AcDbXrecord
280
     1
102
RTVSPropertyOp0
 70
     1
102
RTVSPropertyOp1
 70
     1
102
RTVSPropertyOp2
 70
     1
102
RTVSPropertyOp3
 70
     1
102
RTVSPropertyOp4
 70
     1
102
RTVSPropertyOp5
 70
     1
102
RTVSPropertyOp6
 70
     1
102
RTVSPropertyOp7
 70
     1
102
RTVSPropertyOp8
 70
     1
102
RTVSPropertyOp9
 70
     1
102
RTVSPropertyOp10
 70
     1
102
RTVSPropertyOp11
 70
     1
102
RTVSPropertyOp12
 70
     1
102
RTVSPropertyOp13
 70
     1
102
RTVSPropertyOp14
 70
     1
102
RTVSPropertyOp15
 70
     1
102
RTVSPropertyOp16
 70
     1
102
RTVSPropertyOp17
 70
     1
102
RTVSPropertyOp18
 70
     1
102
RTVSPropertyOp19
 70
     1
102
RTVSPropertyOp20
 70
     1
102
RTVSPropertyOp21
 70
     1
102
RTVSPropertyOp22
 70
     1
102
RTVSPropertyOp23
 70
     1
102
RTVSPropertyOp24
 70
     1
102
RTVSPropertyOp25
 70
     1
102
RTVSPropertyOp26
 70
     1
102
RTVSPropertyOp27
 70
     1
  0
XRECORD
  5
991
102
{ACAD_REACTORS
330
990
102
}
330
990
100
AcDbXrecord
280
     1
102
RTVSPropertyOp0
 70
     1
102
RTVSPropertyOp1
 70
     1
102
RTVSPropertyOp2
 70
     1
102
RTVSPropertyOp3
 70
     1
102
RTVSPropertyOp4
 70
     1
102
RTVSPropertyOp5
 70
     1
102
RTVSPropertyOp6
 70
     1
102
RTVSPropertyOp7
 70
     1
102
RTVSPropertyOp8
 70
     1
102
RTVSPropertyOp9
 70
     1
102
RTVSPropertyOp10
 70
     1
102
RTVSPropertyOp11
 70
     1
102
RTVSPropertyOp12
 70
     1
102
RTVSPropertyOp13
 70
     1
102
RTVSPropertyOp14
 70
     1
102
RTVSPropertyOp15
 70
     1
102
RTVSPropertyOp16
 70
     1
102
RTVSPropertyOp17
 70
     1
102
RTVSPropertyOp18
 70
     1
102
RTVSPropertyOp19
 70
     1
102
RTVSPropertyOp20
 70
     1
102
RTVSPropertyOp21
 70
     1
102
RTVSPropertyOp22
 70
     1
102
RTVSPropertyOp23
 70
     1
102
RTVSPropertyOp24
 70
     1
102
RTVSPropertyOp25
 70
     1
102
RTVSPropertyOp26
 70
     1
102
RTVSPropertyOp27
 70
     1
  0
XRECORD
  5
993
102
{ACAD_REACTORS
330
992
102
}
330
992
100
AcDbXrecord
280
     1
102
RTVSPropertyOp0
 70
     1
102
RTVSPropertyOp1
 70
     1
102
RTVSPropertyOp2
 70
     1
102
RTVSPropertyOp3
 70
     1
102
RTVSPropertyOp4
 70
     1
102
RTVSPropertyOp5
 70
     1
102
RTVSPropertyOp6
 70
     1
102
RTVSPropertyOp7
 70
     1
102
RTVSPropertyOp8
 70
     1
102
RTVSPropertyOp9
 70
     1
102
RTVSPropertyOp10
 70
     1
102
RTVSPropertyOp11
 70
     1
102
RTVSPropertyOp12
 70
     1
102
RTVSPropertyOp13
 70
     1
102
RTVSPropertyOp14
 70
     1
102
RTVSPropertyOp15
 70
     1
102
RTVSPropertyOp16
 70
     1
102
RTVSPropertyOp17
 70
     1
102
RTVSPropertyOp18
 70
     1
102
RTVSPropertyOp19
 70
     1
102
RTVSPropertyOp20
 70
     1
102
RTVSPropertyOp21
 70
     1
102
RTVSPropertyOp22
 70
     1
102
RTVSPropertyOp23
 70
     1
102
RTVSPropertyOp24
 70
     1
102
RTVSPropertyOp25
 70
     1
102
RTVSPropertyOp26
 70
     1
102
RTVSPropertyOp27
 70
     1
  0
XRECORD
  5
995
102
{ACAD_REACTORS
330
994
102
}
330
994
100
AcDbXrecord
280
     1
102
RTVSPropertyOp0
 70
     1
102
RTVSPropertyOp1
 70
     1
102
RTVSPropertyOp2
 70
     1
102
RTVSPropertyOp3
 70
     1
102
RTVSPropertyOp4
 70
     1
102
RTVSPropertyOp5
 70
     1
102
RTVSPropertyOp6
 70
     1
102
RTVSPropertyOp7
 70
     1
102
RTVSPropertyOp8
 70
     1
102
RTVSPropertyOp9
 70
     1
102
RTVSPropertyOp10
 70
     1
102
RTVSPropertyOp11
 70
     1
102
RTVSPropertyOp12
 70
     1
102
RTVSPropertyOp13
 70
     1
102
RTVSPropertyOp14
 70
     1
102
RTVSPropertyOp15
 70
     1
102
RTVSPropertyOp16
 70
     1
102
RTVSPropertyOp17
 70
     1
102
RTVSPropertyOp18
 70
     1
102
RTVSPropertyOp19
 70
     1
102
RTVSPropertyOp20
 70
     1
102
RTVSPropertyOp21
 70
     1
102
RTVSPropertyOp22
 70
     1
102
RTVSPropertyOp23
 70
     1
102
RTVSPropertyOp24
 70
     1
102
RTVSPropertyOp25
 70
     1
102
RTVSPropertyOp26
 70
     1
102
RTVSPropertyOp27
 70
     1
  0
XRECORD
  5
9AF
102
{ACAD_REACTORS
330
9AE
102
}
330
9AE
100
AcDbXrecord
280
     1
102
RTVSPropertyOp0
 70
     0
102
RTVSPropertyOp1
 70
     0
102
RTVSPropertyOp2
 70
     0
102
RTVSPropertyOp3
 70
     0
102
RTVSPropertyOp4
 70
     0
102
RTVSPropertyOp5
 70
     0
102
RTVSPropertyOp6
 70
     0
102
RTVSPropertyOp7
 70
     0
102
RTVSPropertyOp8
 70
     0
102
RTVSPropertyOp9
 70
     0
102
RTVSPropertyOp10
 70
     0
102
RTVSPropertyOp11
 70
     0
102
RTVSPropertyOp12
 70
     0
102
RTVSPropertyOp13
 70
     0
102
RTVSPropertyOp14
 70
     2
102
RTVSPropertyOp15
 70
     0
102
RTVSPropertyOp16
 70
     0
102
RTVSPropertyOp17
 70
     0
102
RTVSPropertyOp18
 70
     0
102
RTVSPropertyOp19
 70
     0
102
RTVSPropertyOp20
 70
     0
102
RTVSPropertyOp21
 70
     0
102
RTVSPropertyOp22
 70
     0
102
RTVSPropertyOp23
 70
     0
102
RTVSPropertyOp24
 70
     0
102
RTVSPropertyOp25
 70
     0
102
RTVSPropertyOp26
 70
     0
102
RTVSPropertyOp27
 70
     0
  0
XRECORD
  5
9A9
102
{ACAD_REACTORS
330
9A8
102
}
330
9A8
100
AcDbXrecord
280
     1
102
RTVSPropertyOp0
 70
     1
102
RTVSPropertyOp1
 70
     1
102
RTVSPropertyOp2
 70
     1
102
RTVSPropertyOp3
 70
     1
102
RTVSPropertyOp4
 70
     1
102
RTVSPropertyOp5
 70
     1
102
RTVSPropertyOp6
 70
     1
102
RTVSPropertyOp7
 70
     1
102
RTVSPropertyOp8
 70
     1
102
RTVSPropertyOp9
 70
     1
102
RTVSPropertyOp10
 70
     1
102
RTVSPropertyOp11
 70
     1
102
RTVSPropertyOp12
 70
     1
102
RTVSPropertyOp13
 70
     1
102
RTVSPropertyOp14
 70
     1
102
RTVSPropertyOp15
 70
     1
102
RTVSPropertyOp16
 70
     1
102
RTVSPropertyOp17
 70
     1
102
RTVSPropertyOp18
 70
     1
102
RTVSPropertyOp19
 70
     1
102
RTVSPropertyOp20
 70
     1
102
RTVSPropertyOp21
 70
     1
102
RTVSPropertyOp22
 70
     1
102
RTVSPropertyOp23
 70
     1
102
RTVSPropertyOp24
 70
     1
102
RTVSPropertyOp25
 70
     1
102
RTVSPropertyOp26
 70
     1
102
RTVSPropertyOp27
 70
     1
  0
XRECORD
  5
9B1
102
{ACAD_REACTORS
330
9B0
102
}
330
9B0
100
AcDbXrecord
280
     1
102
RTVSPropertyOp0
 70
     0
102
RTVSPropertyOp1
 70
     0
102
RTVSPropertyOp2
 70
     0
102
RTVSPropertyOp3
 70
     0
102
RTVSPropertyOp4
 70
     0
102
RTVSPropertyOp5
 70
     0
102
RTVSPropertyOp6
 70
     0
102
RTVSPropertyOp7
 70
     0
102
RTVSPropertyOp8
 70
     0
102
RTVSPropertyOp9
 70
     0
102
RTVSPropertyOp10
 70
     0
102
RTVSPropertyOp11
 70
     0
102
RTVSPropertyOp12
 70
     0
102
RTVSPropertyOp13
 70
     0
102
RTVSPropertyOp14
 70
     2
102
RTVSPropertyOp15
 70
     0
102
RTVSPropertyOp16
 70
     0
102
RTVSPropertyOp17
 70
     0
102
RTVSPropertyOp18
 70
     0
102
RTVSPropertyOp19
 70
     0
102
RTVSPropertyOp20
 70
     0
102
RTVSPropertyOp21
 70
     0
102
RTVSPropertyOp22
 70
     0
102
RTVSPropertyOp23
 70
     0
102
RTVSPropertyOp24
 70
     0
102
RTVSPropertyOp25
 70
     0
102
RTVSPropertyOp26
 70
     0
102
RTVSPropertyOp27
 70
     0
  0
XRECORD
  5
9A1
102
{ACAD_REACTORS
330
9A0
102
}
330
9A0
100
AcDbXrecord
280
     1
102
RTVSPropertyOp0
 70
     1
102
RTVSPropertyOp1
 70
     1
102
RTVSPropertyOp2
 70
     1
102
RTVSPropertyOp3
 70
     1
102
RTVSPropertyOp4
 70
     1
102
RTVSPropertyOp5
 70
     1
102
RTVSPropertyOp6
 70
     1
102
RTVSPropertyOp7
 70
     1
102
RTVSPropertyOp8
 70
     1
102
RTVSPropertyOp9
 70
     1
102
RTVSPropertyOp10
 70
     1
102
RTVSPropertyOp11
 70
     1
102
RTVSPropertyOp12
 70
     1
102
RTVSPropertyOp13
 70
     1
102
RTVSPropertyOp14
 70
     1
102
RTVSPropertyOp15
 70
     1
102
RTVSPropertyOp16
 70
     1
102
RTVSPropertyOp17
 70
     1
102
RTVSPropertyOp18
 70
     1
102
RTVSPropertyOp19
 70
     1
102
RTVSPropertyOp20
 70
     1
102
RTVSPropertyOp21
 70
     1
102
RTVSPropertyOp22
 70
     1
102
RTVSPropertyOp23
 70
     1
102
RTVSPropertyOp24
 70
     1
102
RTVSPropertyOp25
 70
     1
102
RTVSPropertyOp26
 70
     1
102
RTVSPropertyOp27
 70
     1
  0
XRECORD
  5
9A7
102
{ACAD_REACTORS
330
9A6
102
}
330
9A6
100
AcDbXrecord
280
     1
102
RTVSPropertyOp0
 70
     1
102
RTVSPropertyOp1
 70
     1
102
RTVSPropertyOp2
 70
     1
102
RTVSPropertyOp3
 70
     1
102
RTVSPropertyOp4
 70
     1
102
RTVSPropertyOp5
 70
     1
102
RTVSPropertyOp6
 70
     1
102
RTVSPropertyOp7
 70
     1
102
RTVSPropertyOp8
 70
     1
102
RTVSPropertyOp9
 70
     1
102
RTVSPropertyOp10
 70
     1
102
RTVSPropertyOp11
 70
     1
102
RTVSPropertyOp12
 70
     1
102
RTVSPropertyOp13
 70
     1
102
RTVSPropertyOp14
 70
     1
102
RTVSPropertyOp15
 70
     1
102
RTVSPropertyOp16
 70
     1
102
RTVSPropertyOp17
 70
     1
102
RTVSPropertyOp18
 70
     1
102
RTVSPropertyOp19
 70
     1
102
RTVSPropertyOp20
 70
     1
102
RTVSPropertyOp21
 70
     1
102
RTVSPropertyOp22
 70
     1
102
RTVSPropertyOp23
 70
     1
102
RTVSPropertyOp24
 70
     1
102
RTVSPropertyOp25
 70
     1
102
RTVSPropertyOp26
 70
     1
102
RTVSPropertyOp27
 70
     1
  0
ENDSEC
  0
EOF
