  0
SECTION
  2
HEADER
  9
$ACADVER
  1
AC1015
  9
$ACADMAINTVER
 70
    20
  9
$DWGCODEPAGE
  3
ANSI_1252
  9
$INSBASE
 10
0.0
 20
0.0
 30
0.0
  9
$EXTMIN
 10
680.3587303281837
 20
1046.139930838334
 30
0.0
  9
$EXTMAX
 10
683.9173752207256
 20
1046.589930838334
 30
0.0
  9
$LIMMIN
 10
0.0
 20
0.0
  9
$LIMMAX
 10
420.0
 20
297.0
  9
$ORTHOMODE
 70
     1
  9
$REGENMODE
 70
     1
  9
$FILLMODE
 70
     1
  9
$QTEXTMODE
 70
     0
  9
$MIRRTEXT
 70
     1
  9
$LTSCALE
 40
1.0
  9
$ATTMODE
 70
     1
  9
$TEXTSIZE
 40
2.5
  9
$TRACEWID
 40
1.0
  9
$TEXTSTYLE
  7
SANINDUSA
  9
$CLAYER
  8
0
  9
$CELTYPE
  6
ByLayer
  9
$CECOLOR
 62
   256
  9
$CELTSCALE
 40
1.0
  9
$DISPSILH
 70
     0
  9
$DIMSCALE
 40
1.0
  9
$DIMASZ
 40
2.0
  9
$DIMEXO
 40
1.0
  9
$DIMDLI
 40
1.0
  9
$DIMRND
 40
0.0
  9
$DIMDLE
 40
0.0
  9
$DIMEXE
 40
1.0
  9
$DIMTP
 40
0.0
  9
$DIMTM
 40
0.0
  9
$DIMTXT
 40
2.0
  9
$DIMCEN
 40
0.0
  9
$DIMTSZ
 40
0.0
  9
$DIMTOL
 70
     0
  9
$DIMLIM
 70
     0
  9
$DIMTIH
 70
     0
  9
$DIMTOH
 70
     0
  9
$DIMSE1
 70
     0
  9
$DIMSE2
 70
     0
  9
$DIMTAD
 70
     1
  9
$DIMZIN
 70
     8
  9
$DIMBLK
  1

  9
$DIMASO
 70
     1
  9
$DIMSHO
 70
     1
  9
$DIMPOST
  1

  9
$DIMAPOST
  1

  9
$DIMALT
 70
     0
  9
$DIMALTD
 70
     3
  9
$DIMALTF
 40
0.03937007874016
  9
$DIMLFAC
 40
1.0
  9
$DIMTOFL
 70
     1
  9
$DIMTVP
 40
0.0
  9
$DIMTIX
 70
     0
  9
$DIMSOXD
 70
     0
  9
$DIMSAH
 70
     0
  9
$DIMBLK1
  1

  9
$DIMBLK2
  1

  9
$DIMSTYLE
  2
SANINDUSA
  9
$DIMCLRD
 70
   256
  9
$DIMCLRE
 70
   256
  9
$DIMCLRT
 70
   256
  9
$DIMTFAC
 40
1.0
  9
$DIMGAP
 40
1.0
  9
$DIMJUST
 70
     0
  9
$DIMSD1
 70
     0
  9
$DIMSD2
 70
     0
  9
$DIMTOLJ
 70
     0
  9
$DIMTZIN
 70
     8
  9
$DIMALTZ
 70
     0
  9
$DIMALTTZ
 70
     0
  9
$DIMUPT
 70
     0
  9
$DIMDEC
 70
     1
  9
$DIMTDEC
 70
     1
  9
$DIMALTU
 70
     2
  9
$DIMALTTD
 70
     3
  9
$DIMTXSTY
  7
SANINDUSA
  9
$DIMAUNIT
 70
     0
  9
$DIMADEC
 70
     1
  9
$DIMALTRND
 40
0.0
  9
$DIMAZIN
 70
     0
  9
$DIMDSEP
 70
    44
  9
$DIMATFIT
 70
     3
  9
$DIMFRAC
 70
     0
  9
$DIMLDRBLK
  1

  9
$DIMLUNIT
 70
     2
  9
$DIMLWD
 70
    -1
  9
$DIMLWE
 70
    -1
  9
$DIMTMOVE
 70
     0
  9
$LUNITS
 70
     2
  9
$LUPREC
 70
     4
  9
$SKETCHINC
 40
1.0
  9
$FILLETRAD
 40
0.0
  9
$AUNITS
 70
     0
  9
$AUPREC
 70
     0
  9
$MENU
  1
.
  9
$ELEVATION
 40
0.0
  9
$PELEVATION
 40
0.0
  9
$THICKNESS
 40
0.0
  9
$LIMCHECK
 70
     0
  9
$CHAMFERA
 40
10.0
  9
$CHAMFERB
 40
10.0
  9
$CHAMFERC
 40
20.0
  9
$CHAMFERD
 40
0.0
  9
$SKPOLY
 70
     0
  9
$TDCREATE
 40
2453481.683414711
  9
$TDUCREATE
 40
2453481.641748044
  9
$TDUPDATE
 40
2456146.484302292
  9
$TDUUPDATE
 40
2456146.442635625
  9
$TDINDWG
 40
0.0029875579
  9
$TDUSRTIMER
 40
0.0029875579
  9
$USRTIMER
 70
     1
  9
$ANGBASE
 50
0.0
  9
$ANGDIR
 70
     0
  9
$PDMODE
 70
     0
  9
$PDSIZE
 40
0.0
  9
$PLINEWID
 40
0.0
  9
$SPLFRAME
 70
     0
  9
$SPLINETYPE
 70
     6
  9
$SPLINESEGS
 70
     8
  9
$HANDSEED
  5
19D9
  9
$SURFTAB1
 70
     6
  9
$SURFTAB2
 70
     6
  9
$SURFTYPE
 70
     6
  9
$SURFU
 70
     6
  9
$SURFV
 70
     6
  9
$UCSBASE
  2

  9
$UCSNAME
  2

  9
$UCSORG
 10
0.0
 20
0.0
 30
0.0
  9
$UCSXDIR
 10
1.0
 20
0.0
 30
0.0
  9
$UCSYDIR
 10
0.0
 20
1.0
 30
0.0
  9
$UCSORTHOREF
  2

  9
$UCSORTHOVIEW
 70
     0
  9
$UCSORGTOP
 10
0.0
 20
0.0
 30
0.0
  9
$UCSORGBOTTOM
 10
0.0
 20
0.0
 30
0.0
  9
$UCSORGLEFT
 10
0.0
 20
0.0
 30
0.0
  9
$UCSORGRIGHT
 10
0.0
 20
0.0
 30
0.0
  9
$UCSORGFRONT
 10
0.0
 20
0.0
 30
0.0
  9
$UCSORGBACK
 10
0.0
 20
0.0
 30
0.0
  9
$PUCSBASE
  2

  9
$PUCSNAME
  2

  9
$PUCSORG
 10
0.0
 20
0.0
 30
0.0
  9
$PUCSXDIR
 10
1.0
 20
0.0
 30
0.0
  9
$PUCSYDIR
 10
0.0
 20
1.0
 30
0.0
  9
$PUCSORTHOREF
  2

  9
$PUCSORTHOVIEW
 70
     0
  9
$PUCSORGTOP
 10
0.0
 20
0.0
 30
0.0
  9
$PUCSORGBOTTOM
 10
0.0
 20
0.0
 30
0.0
  9
$PUCSORGLEFT
 10
0.0
 20
0.0
 30
0.0
  9
$PUCSORGRIGHT
 10
0.0
 20
0.0
 30
0.0
  9
$PUCSORGFRONT
 10
0.0
 20
0.0
 30
0.0
  9
$PUCSORGBACK
 10
0.0
 20
0.0
 30
0.0
  9
$USERI1
 70
     0
  9
$USERI2
 70
     0
  9
$USERI3
 70
     0
  9
$USERI4
 70
     0
  9
$USERI5
 70
     0
  9
$USERR1
 40
0.0
  9
$USERR2
 40
0.0
  9
$USERR3
 40
0.0
  9
$USERR4
 40
0.0
  9
$USERR5
 40
0.0
  9
$WORLDVIEW
 70
     1
  9
$SHADEDGE
 70
     3
  9
$SHADEDIF
 70
    70
  9
$TILEMODE
 70
     1
  9
$MAXACTVP
 70
    64
  9
$PINSBASE
 10
0.0
 20
0.0
 30
0.0
  9
$PLIMCHECK
 70
     0
  9
$PEXTMIN
 10
1.000000000000000E+20
 20
1.000000000000000E+20
 30
1.000000000000000E+20
  9
$PEXTMAX
 10
-1.000000000000000E+20
 20
-1.000000000000000E+20
 30
-1.000000000000000E+20
  9
$PLIMMIN
 10
0.0
 20
0.0
  9
$PLIMMAX
 10
420.0
 20
297.0
  9
$UNITMODE
 70
     0
  9
$VISRETAIN
 70
     1
  9
$PLINEGEN
 70
     0
  9
$PSLTSCALE
 70
     1
  9
$TREEDEPTH
 70
  3020
  9
$CMLSTYLE
  2
Standard
  9
$CMLJUST
 70
     0
  9
$CMLSCALE
 40
20.0
  9
$PROXYGRAPHICS
 70
     1
  9
$MEASUREMENT
 70
     1
  9
$CELWEIGHT
370
    -1
  9
$ENDCAPS
280
     0
  9
$JOINSTYLE
280
     0
  9
$LWDISPLAY
290
     0
  9
$INSUNITS
 70
     4
  9
$HYPERLINKBASE
  1

  9
$STYLESHEET
  1
monochrome.ctb
  9
$XEDIT
290
     1
  9
$CEPSNTYPE
380
     0
  9
$PSTYLEMODE
290
     1
  9
$FINGERPRINTGUID
  2
{B98A73AA-52AA-4C10-B469-C0E7150AC31F}
  9
$VERSIONGUID
  2
{1AC0F985-1800-4999-AD81-218503FAC944}
  9
$EXTNAMES
290
     1
  9
$PSVPSCALE
 40
0.0
  9
$OLESTARTUP
290
     0
  0
ENDSEC
  0
SECTION
  2
CLASSES
  0
CLASS
  1
ACDBDICTIONARYWDFLT
  2
AcDbDictionaryWithDefault
  3
ObjectDBX Classes
 90
        0
280
     0
281
     0
  0
CLASS
  1
ACDBPLACEHOLDER
  2
AcDbPlaceHolder
  3
ObjectDBX Classes
 90
        0
280
     0
281
     0
  0
CLASS
  1
LAYOUT
  2
AcDbLayout
  3
ObjectDBX Classes
 90
        0
280
     0
281
     0
  0
CLASS
  1
DICTIONARYVAR
  2
AcDbDictionaryVar
  3
ObjectDBX Classes
 90
        0
280
     0
281
     0
  0
CLASS
  1
DIMASSOC
  2
AcDbDimAssoc
  3
"AcDbDimAssoc|Product Desc:     AcDim ARX App For Dimension|Company:          Autodesk, Inc.|WEB Address:      www.autodesk.com"
 90
    32768
280
     0
281
     0
  0
CLASS
  1
TABLESTYLE
  2
AcDbTableStyle
  3
ObjectDBX Classes
 90
     4095
280
     0
281
     0
  0
CLASS
  1
MATERIAL
  2
AcDbMaterial
  3
ObjectDBX Classes
 90
     1153
280
     0
281
     0
  0
CLASS
  1
VISUALSTYLE
  2
AcDbVisualStyle
  3
ObjectDBX Classes
 90
     4095
280
     0
281
     0
  0
CLASS
  1
SCALE
  2
AcDbScale
  3
ObjectDBX Classes
 90
     1153
280
     0
281
     0
  0
CLASS
  1
MLEADERSTYLE
  2
AcDbMLeaderStyle
  3
ACDB_MLEADERSTYLE_CLASS
 90
     4095
280
     0
281
     0
  0
CLASS
  1
CELLSTYLEMAP
  2
AcDbCellStyleMap
  3
ObjectDBX Classes
 90
     1152
280
     0
281
     0
  0
ENDSEC
  0
SECTION
  2
TABLES
  0
TABLE
  2
VPORT
  5
8
330
0
100
AcDbSymbolTable
 70
     1
  0
VPORT
  5
1931
330
8
100
AcDbSymbolTableRecord
100
AcDbViewportTableRecord
  2
*Active
 70
     0
 10
0.0
 20
0.0
 11
1.0
 21
1.0
 12
682.1864762445297
 22
1046.364930838334
 13
0.0
 23
0.0
 14
10.0
 24
10.0
 15
10.0
 25
10.0
 16
0.0
 26
0.0
 36
1.0
 17
0.0
 27
0.0
 37
0.0
 40
2.229771677150365
 41
1.645464025026068
 42
50.0
 43
0.0
 44
0.0
 50
0.0
 51
0.0
 71
     0
 72
   100
 73
     1
 74
     2
 75
     0
 76
     0
 77
     0
 78
     0
281
     0
 65
     1
110
0.0
120
0.0
130
0.0
111
1.0
121
0.0
131
0.0
112
0.0
122
1.0
132
0.0
 79
     0
146
0.0
  0
ENDTAB
  0
TABLE
  2
LTYPE
  5
5
330
0
100
AcDbSymbolTable
 70
     3
  0
LTYPE
  5
14
330
5
100
AcDbSymbolTableRecord
100
AcDbLinetypeTableRecord
  2
ByBlock
 70
     0
  3

 72
    65
 73
     0
 40
0.0
  0
LTYPE
  5
15
330
5
100
AcDbSymbolTableRecord
100
AcDbLinetypeTableRecord
  2
ByLayer
 70
     0
  3

 72
    65
 73
     0
 40
0.0
  0
LTYPE
  5
16
330
5
100
AcDbSymbolTableRecord
100
AcDbLinetypeTableRecord
  2
Continuous
 70
     0
  3
Solid line
 72
    65
 73
     0
 40
0.0
  0
LTYPE
  5
2D
330
5
100
AcDbSymbolTableRecord
100
AcDbLinetypeTableRecord
  2
DASHDOT
 70
     0
  3
Dash dot __ . __ . __ . __ . __ . __ . __ . __
 72
    65
 73
     4
 40
25.4
 49
12.7
 74
     0
 49
-6.349999999999999
 74
     0
 49
0.0
 74
     0
 49
-6.349999999999999
 74
     0
  0
LTYPE
  5
2E
330
5
100
AcDbSymbolTableRecord
100
AcDbLinetypeTableRecord
  2
HIDDEN
 70
     0
  3
Hidden __ __ __ __ __ __ __ __ __ __ __ __ __ _
 72
    65
 73
     2
 40
9.524999999999998
 49
6.349999999999999
 74
     0
 49
-3.174999999999999
 74
     0
  0
ENDTAB
  0
TABLE
  2
LAYER
  5
2
330
0
100
AcDbSymbolTable
 70
    16
  0
LAYER
  5
10
102
{ACAD_XDICTIONARY
360
1981
102
}
330
2
100
AcDbSymbolTableRecord
100
AcDbLayerTableRecord
  2
0
 70
     0
 62
     7
  6
Continuous
370
    -3
390
F
  0
LAYER
  5
2F
102
{ACAD_XDICTIONARY
360
1983
102
}
330
2
100
AcDbSymbolTableRecord
100
AcDbLayerTableRecord
  2
1
 70
     0
 62
     1
  6
Continuous
370
    -3
390
F
  0
LAYER
  5
30
102
{ACAD_XDICTIONARY
360
1985
102
}
330
2
100
AcDbSymbolTableRecord
100
AcDbLayerTableRecord
  2
2
 70
     0
 62
     2
  6
Continuous
370
    -3
390
F
  0
LAYER
  5
31
102
{ACAD_XDICTIONARY
360
1987
102
}
330
2
100
AcDbSymbolTableRecord
100
AcDbLayerTableRecord
  2
3
 70
     0
 62
     3
  6
Continuous
370
    -3
390
F
  0
LAYER
  5
32
102
{ACAD_XDICTIONARY
360
1989
102
}
330
2
100
AcDbSymbolTableRecord
100
AcDbLayerTableRecord
  2
4
 70
     0
 62
     4
  6
Continuous
370
    -3
390
F
  0
LAYER
  5
33
102
{ACAD_XDICTIONARY
360
198B
102
}
330
2
100
AcDbSymbolTableRecord
100
AcDbLayerTableRecord
  2
5
 70
     0
 62
     5
  6
Continuous
370
    -3
390
F
  0
LAYER
  5
34
102
{ACAD_XDICTIONARY
360
198D
102
}
330
2
100
AcDbSymbolTableRecord
100
AcDbLayerTableRecord
  2
6
 70
     0
 62
     6
  6
Continuous
370
    -3
390
F
  0
LAYER
  5
35
102
{ACAD_XDICTIONARY
360
198F
102
}
330
2
100
AcDbSymbolTableRecord
100
AcDbLayerTableRecord
  2
7
 70
     0
 62
     7
  6
Continuous
370
    -3
390
F
  0
LAYER
  5
36
102
{ACAD_XDICTIONARY
360
1991
102
}
330
2
100
AcDbSymbolTableRecord
100
AcDbLayerTableRecord
  2
cen
 70
     0
 62
     7
  6
DASHDOT
370
    -3
390
F
  0
LAYER
  5
37
102
{ACAD_XDICTIONARY
360
1993
102
}
330
2
100
AcDbSymbolTableRecord
100
AcDbLayerTableRecord
  2
hid
 70
     0
 62
     7
  6
HIDDEN
370
    -3
390
F
  0
LAYER
  5
5D6
102
{ACAD_XDICTIONARY
360
1995
102
}
330
2
100
AcDbSymbolTableRecord
100
AcDbLayerTableRecord
  2
hatch
 70
     0
 62
     9
  6
Continuous
370
    -3
390
F
  0
LAYER
  5
8AF
102
{ACAD_XDICTIONARY
360
1997
102
}
330
2
100
AcDbSymbolTableRecord
100
AcDbLayerTableRecord
  2
9
 70
     0
 62
     9
  6
Continuous
370
    -3
390
F
  0
LAYER
  5
8F8
102
{ACAD_XDICTIONARY
360
1999
102
}
330
2
100
AcDbSymbolTableRecord
100
AcDbLayerTableRecord
  2
leg fin
 70
     0
 62
     9
  6
Continuous
370
    -3
390
F
  0
LAYER
  5
91D
102
{ACAD_XDICTIONARY
360
199B
102
}
330
2
100
AcDbSymbolTableRecord
100
AcDbLayerTableRecord
  2
cotas
 70
     0
 62
     1
  6
Continuous
370
    -3
390
F
  0
LAYER
  5
92F
330
2
100
AcDbSymbolTableRecord
100
AcDbLayerTableRecord
  2
Defpoints
 70
     0
 62
     7
  6
Continuous
290
     0
370
    -3
390
F
  0
LAYER
  5
CE5
102
{ACAD_XDICTIONARY
360
199D
102
}
330
2
100
AcDbSymbolTableRecord
100
AcDbLayerTableRecord
  2
SANINDUSA
 70
     0
 62
     3
  6
Continuous
370
    -3
390
F
  0
ENDTAB
  0
TABLE
  2
STYLE
  5
3
330
0
100
AcDbSymbolTable
 70
     3
  0
STYLE
  5
11
330
3
100
AcDbSymbolTableRecord
100
AcDbTextStyleTableRecord
  2
Standard
 70
     0
 40
0.0
 41
1.0
 50
0.0
 71
     0
 42
2.5
  3
Avgardn.ttf
  4

1001
ACAD
1000
AvantGarde Bk BT
1071
       34
  0
STYLE
  5
2C
330
3
100
AcDbSymbolTableRecord
100
AcDbTextStyleTableRecord
  2

 70
     1
 40
0.0
 41
1.0
 50
0.0
 71
     0
 42
2.5
  3
ltypeshp.shx
  4

  0
STYLE
  5
91F
330
3
100
AcDbSymbolTableRecord
100
AcDbTextStyleTableRecord
  2
SANINDUSA
 70
     0
 40
0.0
 41
1.0
 50
0.0
 71
     0
 42
2.5
  3
verdana.TTF
  4

1001
ACAD
1000
Verdana
1071
       34
  0
ENDTAB
  0
TABLE
  2
VIEW
  5
6
330
0
100
AcDbSymbolTable
 70
     0
  0
ENDTAB
  0
TABLE
  2
UCS
  5
7
330
0
100
AcDbSymbolTable
 70
     0
  0
ENDTAB
  0
TABLE
  2
APPID
  5
9
330
0
100
AcDbSymbolTable
 70
     3
  0
APPID
  5
12
330
9
100
AcDbSymbolTableRecord
100
AcDbRegAppTableRecord
  2
ACAD
 70
     0
  0
APPID
  5
3A
330
9
100
AcDbSymbolTableRecord
100
AcDbRegAppTableRecord
  2
DCO15
 70
     0
  0
APPID
  5
19D8
330
9
100
AcDbSymbolTableRecord
100
AcDbRegAppTableRecord
  2
ACAD_MLEADERVER
 70
     0
  0
ENDTAB
  0
TABLE
  2
DIMSTYLE
  5
A
330
0
100
AcDbSymbolTable
 70
     2
100
AcDbDimStyleTable
 71
     1
340
921
  0
DIMSTYLE
105
45
330
A
100
AcDbSymbolTableRecord
100
AcDbDimStyleTableRecord
  2
STANDARD
 70
     0
289
     0
340
11
  0
DIMSTYLE
105
921
330
A
100
AcDbSymbolTableRecord
100
AcDbDimStyleTableRecord
  2
SANINDUSA
 70
     0
 41
2.0
 42
1.0
 43
1.0
 44
1.0
 73
     0
 74
     0
 77
     1
 78
     8
140
2.0
141
0.0
143
0.03937007874016
147
1.0
171
     3
172
     1
176
   256
177
   256
178
   256
179
     1
271
     1
272
     1
274
     3
278
    44
283
     0
284
     8
340
91F
371
    -1
372
    -1
  0
ENDTAB
  0
TABLE
  2
BLOCK_RECORD
  5
1
330
0
100
AcDbSymbolTable
 70
     5
  0
BLOCK_RECORD
  5
1F
330
1
100
AcDbSymbolTableRecord
100
AcDbBlockTableRecord
  2
*Model_Space
340
22
  0
BLOCK_RECORD
  5
1B
330
1
100
AcDbSymbolTableRecord
100
AcDbBlockTableRecord
  2
*Paper_Space
340
1E
  0
BLOCK_RECORD
  5
23
330
1
100
AcDbSymbolTableRecord
100
AcDbBlockTableRecord
  2
*Paper_Space0
340
26
  0
BLOCK_RECORD
  5
919
330
1
100
AcDbSymbolTableRecord
100
AcDbBlockTableRecord
  2
_DotSmall
340
0
  0
BLOCK_RECORD
  5
922
330
1
100
AcDbSymbolTableRecord
100
AcDbBlockTableRecord
  2
base para cotas
340
0
310
2800000020000000200000000100080000000000000400000000000000000000000000000000000000000000000080000080000000808000800000008000800080800000C0C0C000C0DCC000F0CAA6000020400000206000002080000020A0000020C0000020E00000400000004020000040400000406000004080000040A0
310
000040C0000040E00000600000006020000060400000606000006080000060A0000060C0000060E00000800000008020000080400000806000008080000080A0000080C0000080E00000A0000000A0200000A0400000A0600000A0800000A0A00000A0C00000A0E00000C0000000C0200000C0400000C0600000C0800000C0
310
A00000C0C00000C0E00000E0000000E0200000E0400000E0600000E0800000E0A00000E0C00000E0E00040000000400020004000400040006000400080004000A0004000C0004000E00040200000402020004020400040206000402080004020A0004020C0004020E000404000004040200040404000404060004040800040
310
40A0004040C0004040E00040600000406020004060400040606000406080004060A0004060C0004060E00040800000408020004080400040806000408080004080A0004080C0004080E00040A0000040A0200040A0400040A0600040A0800040A0A00040A0C00040A0E00040C0000040C0200040C0400040C0600040C08000
310
40C0A00040C0C00040C0E00040E0000040E0200040E0400040E0600040E0800040E0A00040E0C00040E0E00080000000800020008000400080006000800080008000A0008000C0008000E00080200000802020008020400080206000802080008020A0008020C0008020E00080400000804020008040400080406000804080
310
008040A0008040C0008040E00080600000806020008060400080606000806080008060A0008060C0008060E00080800000808020008080400080806000808080008080A0008080C0008080E00080A0000080A0200080A0400080A0600080A0800080A0A00080A0C00080A0E00080C0000080C0200080C0400080C0600080C0
310
800080C0A00080C0C00080C0E00080E0000080E0200080E0400080E0600080E0800080E0A00080E0C00080E0E000C0000000C0002000C0004000C0006000C0008000C000A000C000C000C000E000C0200000C0202000C0204000C0206000C0208000C020A000C020C000C020E000C0400000C0402000C0404000C0406000C0
310
408000C040A000C040C000C040E000C0600000C0602000C0604000C0606000C0608000C060A000C060C000C060E000C0800000C0802000C0804000C0806000C0808000C080A000C080C000C080E000C0A00000C0A02000C0A04000C0A06000C0A08000C0A0A000C0A0C000C0A0E000C0C00000C0C02000C0C04000C0C06000
310
C0C08000C0C0A000F0FBFF00A4A0A000808080000000FF0000FF000000FFFF00FF000000FF00FF00FFFF0000FFFFFF00A4A4A4A4A4A4A4A4A4A4A4A4A4A4A4A4A4A4A4A4A4A4A4A4A4A4A4A4A4A4A4A4A4A4A4A4A4A4A4A4A4A4A4A4A4A4A4A4A4A4A4A4A4A4A4A4A4A4A4A4A4A4A4A4A4A4A4A4A4A4A4A4A4A4A4A4A4A4A4
310
A4A4A4A4A4A4A4A4A4A4A4A4A4A4A4A4A4A4A4A4A4A4A4A4A4A4A4A4A4A4A4A4A4A4A4A4A4A4A4A4A4A4A4A4A4A4A4A4A4A4A4A4A4A4A4A4A4A4A4A4A4A4A4A4A4A4A4A4A4A4A4A4A4A4A4A4A4A4A4A4A4A4A4A4A4A4A4A4A4A4A4A4A4A4A4A4A4A4A4A4A4A4A4A4A4A4A4A4A4A4A4A4A4A4A4A4A4A4A4A4A4A4A4A4A4A4A4
310
A4A4A4A4A4A4A4A4A4A4A4A4A4A4A4A4A4A4A4A4A4A4A4A4A4A4A4A4A4A4A4A4A4A4A4A4A4A4A4A4A4A4A4A4A4A4A4A4A4A4A4A4A4A4A4A4A4A4A4A4A4A4A4A4A4A4A4A4A4A4A4A4A4A4A4A4A4A4A4A4A4A4A4A4A4A4A4A4A4A4A4A4A4A4A4A4A4A4A4A4A4A4A4A4A4A4A4A4A4A4A4A4A4A4A4A4A4A4A4A4A4A4A4A4A4A4A4
310
A4A4A4A4A4A4A4A4A4A4A4A4A4A4A4A4A4A4A4A4A4A4A4A4A4A4A4A4A4A4A4A4A4A4A4A4A4A4A4A4A4A4A4A4A4A4A4A4A4A4A4A4A4A4A4A4A4A4A4A4A4A4A4A4A4A4A4A4A4A4A4A4A4A4A4A4A4A4A4A4A4A4A4A4A4A4A4A4A4A4A4A4A4A4A4A4A4A4A4A4A4A4A4A4A4A4A4A4A4A4A4A4A4A4A4A4F9F9F9F9F9F9F9F9F9F9F9
310
F9F9F9F9F9F9F9F9F9F9F9F9F9F9F9F9F9F9F9A4A4F9F9F9F9F9F9F9F9F9F9F9F9F9F9F9F9F9F9F9F9F9F9F9F9F9F9F9F9F9F9A4A4F9F9F9F9F9F9F9F9F9F9F9F9F9F9F9F9F9F9F9F9F9F9F9F9F9F9F9F9F9F9A4A4F9A4A4A4A4A4A4A4A4A4A4A4A4A4A4A4A4A4A4A4A4A4A4A4A4A4A4A4A4F9A4A4A4A4A4A4A4A4A4A4A4A4
310
A4A4A4A4A4A4A4A4A4A4A4A4A4A4A4A4A4A4A4A4A4A4A4A4A4A4A4A4A4A4A4A4A4A4A4A4A4A4A4A4A4A4A4A4A4A4A4A4A4A4A4A4A4A4A4A4A4A4A4A4A4A4A4A4A4A4A4A4A4A4A4A4A4A4A4A4A4A4A4A4A4A4A4A4A4A4A4A4A4A4A4A4A4A4A4A4A4A4A4A4A4A4A4A4A4A4A4A4A4A4A4A4A4A4A4A4A4A4A4A4A4A4A4A4A4A4A4
310
A4A4A4A4A4A4A4A4A4A4A4A4A4A4A4A4A4A4A4A4A4A4A4A4A4A4A4A4A4A4A4A4A4A4A4A4A4A4A4A4A4A4A4A4A4A4A4A4A4A4A4A4A4A4A4A4A4A4A4A4A4A4A4A4A4A4A4A4A4A4A4A4A4A4A4A4A4A4A4A4A4A4A4A4A4A4A4A4A4A4A4A4A4A4A4A4A4A4A4A4A4A4A4A4A4A4A4A4A4A4A4A4A4A4A4A4A4A4A4A4A4A4A4A4A4A4A4
310
A4A4A4A4A4A4A4A4A4A4A4A4A4A4A4A4A4A4A4A4A4A4A4A4A4A4A4A4A4A4A4A4A4A4A4A4A4A4A4A4A4A4A4A4A4A4A4A4A4A4A4A4A4A4A4A4A4A4A4A4A4A4A4A4A4A4A4A4A4A4A4A4A4A4A4A4A4A4A4A4A4A4A4A4A4A4A4A4A4A4A4A4A4A4A4A4A4A4A4A4A4A4A4A4A4A4A4A4A4A4A4A4A4A4A4A4A4A4A4A4A4A4A4A4A4A4A4
310
A4A4A4A4A4A4A4A4A4A4A4A4A4A4A4A4A4A4A4A4A4A4A4A4A4A4A4A4A4A4A4A4A4A4A4A4A4A4A4A4A4A4A4A4A4A4A4A4A4A4A4A4A4A4A4A4
1001
ACAD
1000
DesignCenter Data
1002
{
1070
     1
1070
     4
1002
}
  0
BLOCK_RECORD
  5
AA8
330
1
100
AcDbSymbolTableRecord
100
AcDbBlockTableRecord
  2
_CLOSED
340
0
  0
ENDTAB
  0
ENDSEC
  0
SECTION
  2
BLOCKS
  0
BLOCK
  5
20
330
1F
100
AcDbEntity
  8
0
100
AcDbBlockBegin
  2
*Model_Space
 70
     0
 10
0.0
 20
0.0
 30
0.0
  3
*Model_Space
  1

  0
ENDBLK
  5
21
330
1F
100
AcDbEntity
  8
0
100
AcDbBlockEnd
  0
BLOCK
  5
1C
330
1B
100
AcDbEntity
 67
     1
  8
0
100
AcDbBlockBegin
  2
*Paper_Space
 70
     0
 10
0.0
 20
0.0
 30
0.0
  3
*Paper_Space
  1

  0
ENDBLK
  5
1D
330
1B
100
AcDbEntity
 67
     1
  8
0
100
AcDbBlockEnd
  0
BLOCK
  5
24
330
23
100
AcDbEntity
 67
     1
  8
0
100
AcDbBlockBegin
  2
*Paper_Space0
 70
     0
 10
0.0
 20
0.0
 30
0.0
  3
*Paper_Space0
  1

  0
ENDBLK
  5
25
330
23
100
AcDbEntity
 67
     1
  8
0
100
AcDbBlockEnd
  0
BLOCK
  5
91B
330
919
100
AcDbEntity
  8
0
100
AcDbBlockBegin
  2
_DotSmall
 70
     0
 10
0.0
 20
0.0
 30
0.0
  3
_DotSmall
  1

  0
LWPOLYLINE
  5
91A
330
919
100
AcDbEntity
  8
0
  6
ByBlock
 62
     0
100
AcDbPolyline
 90
        2
 70
     1
 43
0.5
 10
-0.0625
 20
0.0
 42
1.0
 10
0.0625
 20
0.0
 42
1.0
  0
ENDBLK
  5
91C
330
919
100
AcDbEntity
  8
0
100
AcDbBlockEnd
  0
BLOCK
  5
92A
330
922
100
AcDbEntity
  8
0
100
AcDbBlockBegin
  2
base para cotas
 70
     0
 10
0.0
 20
0.0
 30
0.0
  3
base para cotas
  1

  0
LINE
  5
B36
330
922
100
AcDbEntity
  8
cotas
100
AcDbLine
 10
0.0
 20
-30.0
 30
0.0
 11
327.1260136525398
 21
-30.0
 31
0.0
  0
LINE
  5
B37
330
922
100
AcDbEntity
  8
cotas
100
AcDbLine
 10
0.0
 20
-25.0
 30
0.0
 11
327.1260136525398
 21
-25.0
 31
0.0
  0
LINE
  5
B38
330
922
100
AcDbEntity
  8
cotas
100
AcDbLine
 10
0.0
 20
-20.0
 30
0.0
 11
327.1260136525398
 21
-20.0
 31
0.0
  0
LINE
  5
B39
330
922
100
AcDbEntity
  8
cotas
100
AcDbLine
 10
0.0
 20
-15.0
 30
0.0
 11
327.1260136525398
 21
-15.0
 31
0.0
  0
LINE
  5
B3A
330
922
100
AcDbEntity
  8
cotas
100
AcDbLine
 10
0.0
 20
-10.0
 30
0.0
 11
327.1260136525398
 21
-10.0
 31
0.0
  0
LINE
  5
B3B
330
922
100
AcDbEntity
  8
cotas
100
AcDbLine
 10
0.0
 20
0.0
 30
0.0
 11
0.0
 21
-30.0
 31
0.0
  0
LINE
  5
B3C
330
922
100
AcDbEntity
  8
cotas
100
AcDbLine
 10
327.1260136525398
 20
-30.0
 30
0.0
 11
327.1260136525398
 21
0.0
 31
0.0
  0
ENDBLK
  5
92B
330
922
100
AcDbEntity
  8
0
100
AcDbBlockEnd
  0
BLOCK
  5
AAD
330
AA8
100
AcDbEntity
  8
0
100
AcDbBlockBegin
  2
_CLOSED
 70
     0
 10
0.0
 20
0.0
 30
0.0
  3
_CLOSED
  1

  0
LINE
  5
AA9
330
AA8
100
AcDbEntity
  8
0
100
AcDbLine
 10
-1.0
 20
0.166667
 30
0.0
 11
0.0
 21
0.0
 31
0.0
  0
LINE
  5
AAA
330
AA8
100
AcDbEntity
  8
0
100
AcDbLine
 10
0.0
 20
0.0
 30
0.0
 11
-1.0
 21
-0.166667
 31
0.0
  0
LINE
  5
AAB
330
AA8
100
AcDbEntity
  8
0
100
AcDbLine
 10
-1.0
 20
0.166667
 30
0.0
 11
-1.0
 21
-0.166667
 31
0.0
  0
LINE
  5
AAC
330
AA8
100
AcDbEntity
  8
0
100
AcDbLine
 10
0.0
 20
0.0
 30
0.0
 11
-1.0
 21
0.0
 31
0.0
  0
ENDBLK
  5
AAE
330
AA8
100
AcDbEntity
  8
0
100
AcDbBlockEnd
  0
ENDSEC
  0
SECTION
  2
ENTITIES
  0
LINE
  5
106C
330
1F
100
AcDbEntity
  8
SANINDUSA
100
AcDbLine
 10
680.9598017782051
 20
1046.459930838334
 30
0.0
 11
680.4987303281836
 21
1046.459930838334
 31
0.0
  0
LINE
  5
106E
330
1F
100
AcDbEntity
  8
SANINDUSA
100
AcDbLine
 10
680.3687303281837
 20
1046.589930838334
 30
0.0
 11
681.2487303281836
 21
1046.589930838334
 31
0.0
  0
LINE
  5
1070
330
1F
100
AcDbEntity
  8
SANINDUSA
100
AcDbLine
 10
681.2487303281836
 20
1046.139930838334
 30
0.0
 11
680.3687303281837
 21
1046.139930838334
 31
0.0
  0
LINE
  5
1073
330
1F
100
AcDbEntity
  8
SANINDUSA
100
AcDbLine
 10
681.1387303281836
 20
1046.16096684352
 30
0.0
 11
680.4987303281836
 21
1046.16096684352
 31
0.0
  0
LINE
  5
1075
330
1F
100
AcDbEntity
  8
SANINDUSA
100
AcDbLine
 10
680.4887303281836
 20
1046.449930838334
 30
0.0
 11
680.4887303281836
 21
1046.217535386015
 31
0.0
  0
LINE
  5
1078
330
1F
100
AcDbEntity
  8
SANINDUSA
100
AcDbLine
 10
680.3587303281837
 20
1046.149930838334
 30
0.0
 11
680.3587303281837
 21
1046.579930838334
 31
0.0
  0
ARC
  5
1079
330
1F
100
AcDbEntity
  8
SANINDUSA
100
AcDbCircle
 10
680.3687303281837
 20
1046.149930838334
 30
0.0
 40
0.01
100
AcDbArc
 50
180.0
 51
270.0
  0
LINE
  5
1081
330
1F
100
AcDbEntity
  8
SANINDUSA
100
AcDbLine
 10
680.4941323225936
 20
1046.181008924985
 30
0.0
 11
680.4963867203403
 21
1046.171030368932
 31
0.0
  0
LINE
  5
1083
330
1F
100
AcDbEntity
  8
SANINDUSA
100
AcDbLine
 10
680.4963867203403
 20
1046.171030368932
 30
0.0
 11
680.4987173684753
 21
1046.161022261571
 31
0.0
  0
LINE
  5
1084
330
1F
100
AcDbEntity
  8
SANINDUSA
100
AcDbLine
 10
680.4987173684753
 20
1046.161022261571
 30
0.0
 11
680.4987303281836
 21
1046.16096684352
 31
0.0
  0
LINE
  5
1085
330
1F
100
AcDbEntity
  8
SANINDUSA
100
AcDbLine
 10
680.4987303281836
 20
1046.16096684352
 30
0.0
 11
680.4987053838059
 21
1046.161013510189
 31
0.0
  0
LINE
  5
1088
330
1F
100
AcDbEntity
  8
SANINDUSA
100
AcDbLine
 10
680.4887303281836
 20
1046.217535386015
 30
0.0
 11
680.4891909166301
 21
1046.209058099012
 31
0.0
  0
LINE
  5
108B
330
1F
100
AcDbEntity
  8
SANINDUSA
100
AcDbLine
 10
680.4891909166301
 20
1046.209058099012
 30
0.0
 11
680.49031818192
 21
1046.200513764584
 31
0.0
  0
LINE
  5
108C
330
1F
100
AcDbEntity
  8
SANINDUSA
100
AcDbLine
 10
680.49031818192
 20
1046.200513764584
 30
0.0
 11
680.4920728449626
 21
1046.190783918158
 31
0.0
  0
LINE
  5
108D
330
1F
100
AcDbEntity
  8
SANINDUSA
100
AcDbLine
 10
680.4920728449626
 20
1046.190783918158
 30
0.0
 11
680.4941323225936
 21
1046.181008924985
 31
0.0
  0
ARC
  5
10A2
330
1F
100
AcDbEntity
  8
SANINDUSA
100
AcDbCircle
 10
680.3687303281837
 20
1046.579930838334
 30
0.0
 40
0.01
100
AcDbArc
 50
90.0
 51
180.0
  0
ARC
  5
10B4
330
1F
100
AcDbEntity
  8
SANINDUSA
100
AcDbCircle
 10
680.4987303281836
 20
1046.449930838334
 30
0.0
 40
0.01
100
AcDbArc
 50
90.0
 51
180.0
  0
CIRCLE
  5
10B7
330
1F
100
AcDbEntity
  8
SANINDUSA
100
AcDbCircle
 10
680.8087303281836
 20
1046.512430838334
 30
0.0
 40
0.0175
  0
ARC
  5
10BB
330
1F
100
AcDbEntity
  8
SANINDUSA
100
AcDbCircle
 10
680.8087303281836
 20
1046.394930838334
 30
0.0
 40
0.0370588235294118
100
AcDbArc
 50
298.8708098261336
 51
241.1291901738773
  0
LINE
  5
10BE
330
1F
100
AcDbEntity
  8
SANINDUSA
100
AcDbLine
 10
680.8223197555451
 20
1046.360620626742
 30
0.0
 11
680.8258164570676
 21
1046.362043162396
 31
0.0
  0
ARC
  5
10BF
330
1F
100
AcDbEntity
  8
SANINDUSA
100
AcDbCircle
 10
680.8087303281836
 20
1046.394930838334
 30
0.0
 40
0.0225000000000001
100
AcDbArc
 50
297.4393602453947
 51
242.5607021711287
  0
LINE
  5
10C2
330
1F
100
AcDbEntity
  8
SANINDUSA
100
AcDbLine
 10
680.7916441995327
 20
1046.362043162844
 30
0.0
 11
680.7950821883621
 21
1046.360643428571
 31
0.0
  0
LINE
  5
10C3
330
1F
100
AcDbEntity
  8
SANINDUSA
100
AcDbLine
 10
680.7908369828619
 20
1046.362478032684
 30
0.0
 11
680.7916438681976
 21
1046.362042655097
 31
0.0
  0
LINE
  5
10C5
330
1F
100
AcDbEntity
  8
SANINDUSA
100
AcDbLine
 10
680.8195915534944
 20
1046.374025046936
 30
0.0
 11
680.8195915001476
 21
1046.374025019475
 31
0.0
  0
LINE
  5
10CB
330
1F
100
AcDbEntity
  8
SANINDUSA
100
AcDbLine
 10
680.8035342782964
 20
1046.373039034718
 30
0.0
 11
680.8072253151045
 21
1046.372481229526
 31
0.0
  0
LINE
  5
10CC
330
1F
100
AcDbEntity
  8
SANINDUSA
100
AcDbLine
 10
680.8072253151045
 20
1046.372481229526
 30
0.0
 11
680.8110669214714
 21
1046.372552493181
 31
0.0
  0
LINE
  5
10CD
330
1F
100
AcDbEntity
  8
SANINDUSA
100
AcDbLine
 10
680.8110669214714
 20
1046.372552493181
 30
0.0
 11
680.8151243238568
 21
1046.373358475938
 31
0.0
  0
LINE
  5
10D1
330
1F
100
AcDbEntity
  8
SANINDUSA
100
AcDbLine
 10
680.8036389097082
 20
1046.358631525733
 30
0.0
 11
680.8087201989336
 21
1046.358317096749
 31
0.0
  0
LINE
  5
10D2
330
1F
100
AcDbEntity
  8
SANINDUSA
100
AcDbLine
 10
680.8087201989336
 20
1046.358317096749
 30
0.0
 11
680.8156179754535
 21
1046.358896385623
 31
0.0
  0
LINE
  5
10D3
330
1F
100
AcDbEntity
  8
SANINDUSA
100
AcDbLine
 10
680.8156179754535
 20
1046.358896385623
 30
0.0
 11
680.8223197555451
 21
1046.360620626742
 31
0.0
  0
LINE
  5
10D4
330
1F
100
AcDbEntity
  8
SANINDUSA
100
AcDbLine
 10
680.8151243238568
 20
1046.373358475938
 30
0.0
 11
680.8190985436216
 21
1046.374962110067
 31
0.0
  0
LINE
  5
10D5
330
1F
100
AcDbEntity
  8
SANINDUSA
100
AcDbLine
 10
680.7978691562054
 20
1046.374025019447
 30
0.0
 11
680.7978691028586
 21
1046.374025046908
 31
0.0
  0
LINE
  5
10D7
330
1F
100
AcDbEntity
  8
SANINDUSA
100
AcDbLine
 10
680.7950821883621
 20
1046.360643428571
 30
0.0
 11
680.7986351537542
 21
1046.359568569168
 31
0.0
  0
LINE
  5
10D9
330
1F
100
AcDbEntity
  8
SANINDUSA
100
AcDbLine
 10
680.7983621344991
 20
1046.374962098771
 30
0.0
 11
680.8035342782964
 21
1046.373039034718
 31
0.0
  0
LINE
  5
10DB
330
1F
100
AcDbEntity
  8
SANINDUSA
100
AcDbLine
 10
680.7986351537542
 20
1046.359568569168
 30
0.0
 11
680.8036389097082
 21
1046.358631525733
 31
0.0
  0
LINE
  5
10DD
330
1F
100
AcDbEntity
  8
SANINDUSA
100
AcDbLine
 10
680.8258167881697
 20
1046.362042655097
 30
0.0
 11
680.8266236735054
 21
1046.362478032684
 31
0.0
  0
LINE
  5
10E3
330
1F
100
AcDbEntity
  8
SANINDUSA
100
AcDbLine
 10
681.1287303281837
 20
1046.217535386015
 30
0.0
 11
681.1287303281837
 21
1046.456702081779
 31
0.0
  0
LINE
  5
10E4
330
1F
100
AcDbEntity
  8
SANINDUSA
100
AcDbLine
 10
681.2587303281836
 20
1046.579930838334
 30
0.0
 11
681.2587303281836
 21
1046.149930838334
 31
0.0
  0
LINE
  5
10E7
330
1F
100
AcDbEntity
  8
SANINDUSA
100
AcDbLine
 10
681.1345061553345
 20
1046.179227468087
 30
0.0
 11
681.1365797439545
 21
1046.17013141552
 31
0.0
  0
LINE
  5
10E9
330
1F
100
AcDbEntity
  8
SANINDUSA
100
AcDbLine
 10
681.1365797439545
 20
1046.17013141552
 30
0.0
 11
681.1387165069639
 21
1046.161025482
 31
0.0
  0
LINE
  5
10EA
330
1F
100
AcDbEntity
  8
SANINDUSA
100
AcDbLine
 10
681.1387165069639
 20
1046.161025482
 30
0.0
 11
681.1387303281836
 21
1046.16096684352
 31
0.0
  0
LINE
  5
10EB
330
1F
100
AcDbEntity
  8
SANINDUSA
100
AcDbLine
 10
681.1387303281836
 20
1046.16096684352
 30
0.0
 11
681.138703817006
 21
1046.161016833484
 31
0.0
  0
ARC
  5
10ED
330
1F
100
AcDbEntity
  8
SANINDUSA
100
AcDbCircle
 10
681.2487303281836
 20
1046.149930838334
 30
0.0
 40
0.01
100
AcDbArc
 50
270.0
 51
0.0
  0
LINE
  5
10F5
330
1F
100
AcDbEntity
  8
SANINDUSA
100
AcDbLine
 10
681.1287303281837
 20
1046.217535386015
 30
0.0
 11
681.1290594320402
 21
1046.210525293622
 31
0.0
  0
LINE
  5
10F9
330
1F
100
AcDbEntity
  8
SANINDUSA
100
AcDbLine
 10
681.1290594320402
 20
1046.210525293622
 30
0.0
 11
681.1298949408153
 21
1046.203403309297
 31
0.0
  0
LINE
  5
10FA
330
1F
100
AcDbEntity
  8
SANINDUSA
100
AcDbLine
 10
681.1298949408153
 20
1046.203403309297
 30
0.0
 11
681.1319497398926
 21
1046.191359361412
 31
0.0
  0
LINE
  5
10FB
330
1F
100
AcDbEntity
  8
SANINDUSA
100
AcDbLine
 10
681.1319497398926
 20
1046.191359361412
 30
0.0
 11
681.1345061553345
 21
1046.179227468087
 31
0.0
  0
LINE
  5
111C
330
1F
100
AcDbEntity
  8
SANINDUSA
100
AcDbLine
 10
681.1187303281837
 20
1046.459930838334
 30
0.0
 11
681.0191231531515
 21
1046.459930838334
 31
0.0
  0
LINE
  5
111F
330
1F
100
AcDbEntity
  8
SANINDUSA
100
AcDbLine
 10
681.0191231531515
 20
1046.530248379969
 30
0.0
 11
681.1187303281837
 21
1046.530248379969
 31
0.0
  0
LINE
  5
1125
330
1F
100
AcDbEntity
  8
SANINDUSA
100
AcDbLine
 10
680.9989429693317
 20
1046.459930838334
 30
0.0
 11
680.973255234085
 21
1046.459930838334
 31
0.0
  0
LINE
  5
1128
330
1F
100
AcDbEntity
  8
SANINDUSA
100
AcDbLine
 10
680.973255234085
 20
1046.459930838334
 30
0.0
 11
680.9598017782051
 21
1046.459930838334
 31
0.0
  0
LINE
  5
112A
330
1F
100
AcDbEntity
  8
SANINDUSA
100
AcDbLine
 10
680.973255234085
 20
1046.459930838334
 30
0.0
 11
680.973911393845
 21
1046.46012298553
 31
0.0
  0
LINE
  5
1133
330
1F
100
AcDbEntity
  8
SANINDUSA
100
AcDbLine
 10
680.9989429693317
 20
1046.459930838334
 30
0.0
 11
680.9995991290916
 21
1046.46012298553
 31
0.0
  0
LINE
  5
1136
330
1F
100
AcDbEntity
  8
SANINDUSA
100
AcDbLine
 10
681.0191231531515
 20
1046.459930838334
 30
0.0
 11
680.9989429693317
 21
1046.459930838334
 31
0.0
  0
LINE
  5
113C
330
1F
100
AcDbEntity
  8
SANINDUSA
100
AcDbLine
 10
680.9971460019103
 20
1046.531381426945
 30
0.0
 11
681.0013179341391
 21
1046.530971691867
 31
0.0
  0
LINE
  5
113E
330
1F
100
AcDbEntity
  8
SANINDUSA
100
AcDbLine
 10
680.9598491145862
 20
1046.5399171735
 30
0.0
 11
680.969897649755
 21
1046.537037413242
 31
0.0
  0
LINE
  5
1142
330
1F
100
AcDbEntity
  8
SANINDUSA
100
AcDbLine
 10
680.959838571305
 20
1046.53990534733
 30
0.0
 11
680.9598017782051
 21
1046.539930838334
 31
0.0
  0
LINE
  5
1143
330
1F
100
AcDbEntity
  8
SANINDUSA
100
AcDbLine
 10
680.9598017782051
 20
1046.539930838334
 30
0.0
 11
680.9598491145862
 21
1046.5399171735
 31
0.0
  0
LINE
  5
1146
330
1F
100
AcDbEntity
  8
SANINDUSA
100
AcDbLine
 10
680.979981962025
 20
1046.534282807822
 30
0.0
 11
680.9828357518419
 21
1046.53360222556
 31
0.0
  0
LINE
  5
1147
330
1F
100
AcDbEntity
  8
SANINDUSA
100
AcDbLine
 10
680.9828357518419
 20
1046.53360222556
 30
0.0
 11
680.9860029783735
 21
1046.532967392194
 31
0.0
  0
LINE
  5
1148
330
1F
100
AcDbEntity
  8
SANINDUSA
100
AcDbLine
 10
680.969897649755
 20
1046.537037413242
 30
0.0
 11
680.979981962025
 21
1046.534282807822
 31
0.0
  0
LINE
  5
114E
330
1F
100
AcDbEntity
  8
SANINDUSA
100
AcDbLine
 10
680.9894607460621
 20
1046.532382896871
 30
0.0
 11
680.9931840590577
 21
1046.531852964846
 31
0.0
  0
LINE
  5
114F
330
1F
100
AcDbEntity
  8
SANINDUSA
100
AcDbLine
 10
680.9931840590577
 20
1046.531852964846
 30
0.0
 11
680.9971460019103
 21
1046.531381426945
 31
0.0
  0
LINE
  5
1157
330
1F
100
AcDbEntity
  8
SANINDUSA
100
AcDbLine
 10
680.9860029783735
 20
1046.532967392194
 30
0.0
 11
680.9894607460621
 21
1046.532382896871
 31
0.0
  0
LINE
  5
1159
330
1F
100
AcDbEntity
  8
SANINDUSA
100
AcDbLine
 10
681.0123364616457
 20
1046.530327919176
 30
0.0
 11
681.0191231531515
 21
1046.530248379969
 31
0.0
  0
LINE
  5
115D
330
1F
100
AcDbEntity
  8
SANINDUSA
100
AcDbLine
 10
681.0013179341391
 20
1046.530971691867
 30
0.0
 11
681.0056696972716
 21
1046.530626721546
 31
0.0
  0
LINE
  5
1165
330
1F
100
AcDbEntity
  8
SANINDUSA
100
AcDbLine
 10
681.0051260294346
 20
1046.529999916392
 30
0.0
 11
681.0056696972716
 21
1046.530626721546
 31
0.0
  0
LINE
  5
1167
330
1F
100
AcDbEntity
  8
SANINDUSA
100
AcDbLine
 10
681.0056696972716
 20
1046.530626721546
 30
0.0
 11
681.0123364616457
 21
1046.530327919176
 31
0.0
  0
LINE
  5
1170
330
1F
100
AcDbEntity
  8
SANINDUSA
100
AcDbLine
 10
681.1290478698181
 20
1046.519930838334
 30
0.0
 11
681.1290478698181
 21
1046.469930838334
 31
0.0
  0
LINE
  5
1174
330
1F
100
AcDbEntity
  8
SANINDUSA
100
AcDbLine
 10
681.1288857030911
 20
1046.462360525619
 30
0.0
 11
681.1287837677148
 21
1046.459500603992
 31
0.0
  0
LINE
  5
1176
330
1F
100
AcDbEntity
  8
SANINDUSA
100
AcDbLine
 10
681.1287837677148
 20
1046.459500603992
 30
0.0
 11
681.1287303281837
 21
1046.456702081779
 31
0.0
  0
ARC
  5
1180
330
1F
100
AcDbEntity
  8
SANINDUSA
100
AcDbCircle
 10
681.1187303281837
 20
1046.449930838334
 30
0.0
 40
0.01
100
AcDbArc
 50
0.0
 51
90.0
  0
LINE
  5
1183
330
1F
100
AcDbEntity
  8
SANINDUSA
100
AcDbLine
 10
681.1290478698181
 20
1046.469930838334
 30
0.0
 11
681.1290441191554
 21
1046.468851545326
 31
0.0
  0
LINE
  5
1184
330
1F
100
AcDbEntity
  8
SANINDUSA
100
AcDbLine
 10
681.1290441191554
 20
1046.468851545326
 30
0.0
 11
681.1288857030911
 21
1046.462360525619
 31
0.0
  0
ARC
  5
118D
330
1F
100
AcDbEntity
  8
SANINDUSA
100
AcDbCircle
 10
681.1187303281837
 20
1046.519930838334
 30
0.0
 40
0.0103175416344814
100
AcDbArc
 50
0.0
 51
90.0
  0
ARC
  5
1194
330
1F
100
AcDbEntity
  8
SANINDUSA
100
AcDbCircle
 10
681.2487303281836
 20
1046.579930838334
 30
0.0
 40
0.01
100
AcDbArc
 50
0.0
 51
90.0
  0
LINE
  5
11A7
330
1F
100
AcDbEntity
  8
SANINDUSA
100
AcDbLine
 10
683.1132517591503
 20
1046.238182490645
 30
0.0
 11
682.8088043453959
 21
1046.238182490645
 31
0.0
  0
LINE
  5
11A9
330
1F
100
AcDbEntity
  8
SANINDUSA
100
AcDbLine
 10
683.2332517591503
 20
1046.293182490646
 30
0.0
 11
682.3532517591503
 21
1046.293182490646
 31
0.0
  0
LINE
  5
11AB
330
1F
100
AcDbEntity
  8
SANINDUSA
100
AcDbLine
 10
682.3532517591503
 20
1046.373182490645
 30
0.0
 11
683.2332517591503
 21
1046.373182490645
 31
0.0
  0
LINE
  5
11AD
330
1F
100
AcDbEntity
  8
SANINDUSA
100
AcDbLine
 10
682.3432517591503
 20
1046.294182490645
 30
0.0
 11
682.3432517591503
 21
1046.363182490645
 31
0.0
  0
ARC
  5
11B0
330
1F
100
AcDbEntity
  8
SANINDUSA
100
AcDbCircle
 10
682.3442517591502
 20
1046.294182490645
 30
0.0
 40
0.001
100
AcDbArc
 50
180.0
 51
270.0
  0
LINE
  5
11B1
330
1F
100
AcDbEntity
  8
SANINDUSA
100
AcDbLine
 10
682.3532517591503
 20
1046.293182490646
 30
0.0
 11
682.3442517591502
 21
1046.293182490646
 31
0.0
  0
LINE
  5
11B3
330
1F
100
AcDbEntity
  8
SANINDUSA
100
AcDbLine
 10
682.7776991729047
 20
1046.238182490645
 30
0.0
 11
682.4732517591503
 21
1046.238182490645
 31
0.0
  0
LINE
  5
11B7
330
1F
100
AcDbEntity
  8
SANINDUSA
100
AcDbLine
 10
682.4632517591503
 20
1046.248182490645
 30
0.0
 11
682.4632517591503
 21
1046.260930320268
 31
0.0
  0
ARC
  5
11BA
330
1F
100
AcDbEntity
  8
SANINDUSA
100
AcDbCircle
 10
682.4732517591503
 20
1046.248182490645
 30
0.0
 40
0.01
100
AcDbArc
 50
180.0
 51
270.0
  0
LINE
  5
11BB
330
1F
100
AcDbEntity
  8
SANINDUSA
100
AcDbLine
 10
682.4603228269621
 20
1046.290253558457
 30
0.0
 11
682.4591296116732
 21
1046.291272660589
 31
0.0
  0
LINE
  5
11BC
330
1F
100
AcDbEntity
  8
SANINDUSA
100
AcDbLine
 10
682.4591296116732
 20
1046.291272660589
 30
0.0
 11
682.4577916641477
 21
1046.292092555887
 31
0.0
  0
LINE
  5
11BD
330
1F
100
AcDbEntity
  8
SANINDUSA
100
AcDbLine
 10
682.4577916641477
 20
1046.292092555887
 30
0.0
 11
682.4563419290941
 21
1046.292693055808
 31
0.0
  0
LINE
  5
11BE
330
1F
100
AcDbEntity
  8
SANINDUSA
100
AcDbLine
 10
682.4563419290941
 20
1046.292693055808
 30
0.0
 11
682.4548161038007
 21
1046.293059374051
 31
0.0
  0
LINE
  5
11BF
330
1F
100
AcDbEntity
  8
SANINDUSA
100
AcDbLine
 10
682.4548161038007
 20
1046.293059374051
 30
0.0
 11
682.4532517591503
 21
1046.293182490646
 31
0.0
  0
LINE
  5
11C0
330
1F
100
AcDbEntity
  8
SANINDUSA
100
AcDbLine
 10
682.4632517591503
 20
1046.260930320268
 30
0.0
 11
682.4632517591503
 21
1046.293182490646
 31
0.0
  0
LINE
  5
11C2
330
1F
100
AcDbEntity
  8
SANINDUSA
100
AcDbLine
 10
682.4632517591503
 20
1046.283182490646
 30
0.0
 11
682.4631286425563
 21
1046.284746835296
 31
0.0
  0
LINE
  5
11C3
330
1F
100
AcDbEntity
  8
SANINDUSA
100
AcDbLine
 10
682.4631286425563
 20
1046.284746835296
 30
0.0
 11
682.4627623243133
 21
1046.286272660589
 31
0.0
  0
LINE
  5
11C4
330
1F
100
AcDbEntity
  8
SANINDUSA
100
AcDbLine
 10
682.4627623243133
 20
1046.286272660589
 30
0.0
 11
682.4621618243922
 21
1046.287722395643
 31
0.0
  0
LINE
  5
11C5
330
1F
100
AcDbEntity
  8
SANINDUSA
100
AcDbLine
 10
682.4621618243922
 20
1046.287722395643
 30
0.0
 11
682.4613419290941
 21
1046.289060343168
 31
0.0
  0
LINE
  5
11C6
330
1F
100
AcDbEntity
  8
SANINDUSA
100
AcDbLine
 10
682.4613419290941
 20
1046.289060343168
 30
0.0
 11
682.4603228269621
 21
1046.290253558457
 31
0.0
  0
LINE
  5
11CE
330
1F
100
AcDbEntity
  8
SANINDUSA
100
AcDbLine
 10
682.8064856035374
 20
1046.238189077008
 30
0.0
 11
682.8088043453959
 21
1046.238182490645
 31
0.0
  0
LINE
  5
11D0
330
1F
100
AcDbEntity
  8
SANINDUSA
100
AcDbLine
 10
682.825372099151
 20
1046.203182490645
 30
0.0
 11
682.7932517591504
 21
1046.203182490645
 31
0.0
  0
LINE
  5
11D2
330
1F
100
AcDbEntity
  8
SANINDUSA
100
AcDbLine
 10
682.7558639349263
 20
1046.237310012388
 30
0.0
 11
682.7601395833744
 21
1046.204054968903
 31
0.0
  0
LINE
  5
11D3
330
1F
100
AcDbEntity
  8
SANINDUSA
100
AcDbLine
 10
682.7932517591504
 20
1046.203182490645
 30
0.0
 11
682.7611314191496
 21
1046.203182490645
 31
0.0
  0
ARC
  5
11D4
330
1F
100
AcDbEntity
  8
SANINDUSA
100
AcDbCircle
 10
682.7611314191496
 20
1046.204182490646
 30
0.0
 40
0.0010000000000002
100
AcDbArc
 50
187.3264066602239
 51
270.0
  0
POINT
  5
11D9
330
1F
100
AcDbEntity
  8
SANINDUSA
100
AcDbPoint
 10
682.7932517591504
 20
1046.203182490645
 30
0.0
  0
LINE
  5
11DA
330
1F
100
AcDbEntity
  8
SANINDUSA
100
AcDbLine
 10
682.7776991729047
 20
1046.238182490645
 30
0.0
 11
682.7800179147632
 21
1046.238189077008
 31
0.0
  0
ARC
  5
11DC
330
1F
100
AcDbEntity
  8
SANINDUSA
100
AcDbCircle
 10
682.754872099151
 20
1046.237182490646
 30
0.0
 40
0.0009999999999999
100
AcDbArc
 50
7.326406660171206
 51
90.0
  0
LINE
  5
11E1
330
1F
100
AcDbEntity
  8
SANINDUSA
100
AcDbLine
 10
682.7862533602048
 20
1046.238211698875
 30
0.0
 11
682.792869609753
 21
1046.238219524064
 31
0.0
  0
LINE
  5
11E2
330
1F
100
AcDbEntity
  8
SANINDUSA
100
AcDbLine
 10
682.792869609753
 20
1046.238219524064
 30
0.0
 11
682.7996714326246
 21
1046.238212975336
 31
0.0
  0
LINE
  5
11E3
330
1F
100
AcDbEntity
  8
SANINDUSA
100
AcDbLine
 10
682.7996714326246
 20
1046.238212975336
 30
0.0
 11
682.8064856035374
 21
1046.238189077008
 31
0.0
  0
LINE
  5
11F0
330
1F
100
AcDbEntity
  8
SANINDUSA
100
AcDbLine
 10
682.7800179147632
 20
1046.238189077008
 30
0.0
 11
682.7862533602048
 21
1046.238211698875
 31
0.0
  0
LINE
  5
11F2
330
1F
100
AcDbEntity
  8
SANINDUSA
100
AcDbLine
 10
682.8263639349263
 20
1046.204054968903
 30
0.0
 11
682.8306395833743
 21
1046.237310012388
 31
0.0
  0
ARC
  5
11F3
330
1F
100
AcDbEntity
  8
SANINDUSA
100
AcDbCircle
 10
682.825372099151
 20
1046.204182490646
 30
0.0
 40
0.0010000000000002
100
AcDbArc
 50
270.0
 51
352.6735933397761
  0
ARC
  5
11F4
330
1F
100
AcDbEntity
  8
SANINDUSA
100
AcDbCircle
 10
682.8316314191497
 20
1046.237182490646
 30
0.0
 40
0.0009999999999999
100
AcDbArc
 50
90.0
 51
172.6735933398288
  0
ARC
  5
11F6
330
1F
100
AcDbEntity
  8
SANINDUSA
100
AcDbCircle
 10
682.3532517591503
 20
1046.363182490645
 30
0.0
 40
0.01
100
AcDbArc
 50
90.0
 51
180.0
  0
LINE
  5
120D
330
1F
100
AcDbEntity
  8
SANINDUSA
100
AcDbLine
 10
683.2432517591503
 20
1046.363182490645
 30
0.0
 11
683.2432517591503
 21
1046.294182490645
 31
0.0
  0
LINE
  5
1211
330
1F
100
AcDbEntity
  8
SANINDUSA
100
AcDbLine
 10
683.1232517591502
 20
1046.260930320268
 30
0.0
 11
683.1232517591502
 21
1046.248182490645
 31
0.0
  0
ARC
  5
1212
330
1F
100
AcDbEntity
  8
SANINDUSA
100
AcDbCircle
 10
683.1132517591503
 20
1046.248182490645
 30
0.0
 40
0.01
100
AcDbArc
 50
270.0
 51
0.0
  0
LINE
  5
1215
330
1F
100
AcDbEntity
  8
SANINDUSA
100
AcDbLine
 10
683.1273739066274
 20
1046.291272660589
 30
0.0
 11
683.1261806913385
 21
1046.290253558457
 31
0.0
  0
LINE
  5
1216
330
1F
100
AcDbEntity
  8
SANINDUSA
100
AcDbLine
 10
683.1232517591502
 20
1046.293182490646
 30
0.0
 11
683.1232517591502
 21
1046.260930320268
 31
0.0
  0
LINE
  5
1218
330
1F
100
AcDbEntity
  8
SANINDUSA
100
AcDbLine
 10
683.1261806913385
 20
1046.290253558457
 30
0.0
 11
683.1251615892066
 21
1046.289060343168
 31
0.0
  0
LINE
  5
1219
330
1F
100
AcDbEntity
  8
SANINDUSA
100
AcDbLine
 10
683.1251615892066
 20
1046.289060343168
 30
0.0
 11
683.1243416939084
 21
1046.287722395643
 31
0.0
  0
LINE
  5
121A
330
1F
100
AcDbEntity
  8
SANINDUSA
100
AcDbLine
 10
683.1243416939084
 20
1046.287722395643
 30
0.0
 11
683.1237411939873
 21
1046.286272660589
 31
0.0
  0
LINE
  5
121B
330
1F
100
AcDbEntity
  8
SANINDUSA
100
AcDbLine
 10
683.1237411939873
 20
1046.286272660589
 30
0.0
 11
683.1233748757443
 21
1046.284746835296
 31
0.0
  0
LINE
  5
121C
330
1F
100
AcDbEntity
  8
SANINDUSA
100
AcDbLine
 10
683.1233748757443
 20
1046.284746835296
 30
0.0
 11
683.1232517591502
 21
1046.283182490646
 31
0.0
  0
LINE
  5
1222
330
1F
100
AcDbEntity
  8
SANINDUSA
100
AcDbLine
 10
683.1332517591503
 20
1046.293182490646
 30
0.0
 11
683.1316874145
 21
1046.293059374051
 31
0.0
  0
LINE
  5
1223
330
1F
100
AcDbEntity
  8
SANINDUSA
100
AcDbLine
 10
683.1316874145
 20
1046.293059374051
 30
0.0
 11
683.1301615892066
 21
1046.292693055808
 31
0.0
  0
LINE
  5
1224
330
1F
100
AcDbEntity
  8
SANINDUSA
100
AcDbLine
 10
683.1301615892066
 20
1046.292693055808
 30
0.0
 11
683.1287118541529
 21
1046.292092555887
 31
0.0
  0
LINE
  5
1225
330
1F
100
AcDbEntity
  8
SANINDUSA
100
AcDbLine
 10
683.1287118541529
 20
1046.292092555887
 30
0.0
 11
683.1273739066274
 21
1046.291272660589
 31
0.0
  0
ARC
  5
1226
330
1F
100
AcDbEntity
  8
SANINDUSA
100
AcDbCircle
 10
683.2422517591503
 20
1046.294182490645
 30
0.0
 40
0.0010000000000002
100
AcDbArc
 50
270.0
 51
0.0
  0
LINE
  5
1228
330
1F
100
AcDbEntity
  8
SANINDUSA
100
AcDbLine
 10
683.2422517591503
 20
1046.293182490646
 30
0.0
 11
683.2332517591503
 21
1046.293182490646
 31
0.0
  0
ARC
  5
123B
330
1F
100
AcDbEntity
  8
SANINDUSA
100
AcDbCircle
 10
683.2332517591503
 20
1046.363182490645
 30
0.0
 40
0.01
100
AcDbArc
 50
0.0
 51
90.0
  0
LINE
  5
1243
330
1F
100
AcDbEntity
  8
SANINDUSA
100
AcDbLine
 10
681.7076005999313
 20
1046.223156444976
 30
0.0
 11
681.7019781961358
 21
1046.22692548776
 31
0.0
  0
LINE
  5
1244
330
1F
100
AcDbEntity
  8
SANINDUSA
100
AcDbLine
 10
681.7067995837807
 20
1046.253182490646
 30
0.0
 11
681.5879241955782
 21
1046.253182490646
 31
0.0
  0
LINE
  5
1246
330
1F
100
AcDbEntity
  8
SANINDUSA
100
AcDbLine
 10
682.0269241955782
 20
1046.293182490646
 30
0.0
 11
681.5969241955781
 21
1046.293182490646
 31
0.0
  0
LINE
  5
1247
330
1F
100
AcDbEntity
  8
SANINDUSA
100
AcDbLine
 10
681.5969241955781
 20
1046.373182490645
 30
0.0
 11
682.0269241955782
 21
1046.373182490645
 31
0.0
  0
LINE
  5
124A
330
1F
100
AcDbEntity
  8
SANINDUSA
100
AcDbLine
 10
681.5869241955781
 20
1046.294182490645
 30
0.0
 11
681.5869241955781
 21
1046.363182490645
 31
0.0
  0
ARC
  5
124E
330
1F
100
AcDbEntity
  8
SANINDUSA
100
AcDbCircle
 10
681.5879241955782
 20
1046.294182490645
 30
0.0
 40
0.0009999999999999
100
AcDbArc
 50
180.0
 51
270.0
  0
ARC
  5
1250
330
1F
100
AcDbEntity
  8
SANINDUSA
100
AcDbCircle
 10
681.5879241955782
 20
1046.254182490645
 30
0.0
 40
0.0009999999999999
100
AcDbArc
 50
180.0
 51
270.0
  0
LINE
  5
1251
330
1F
100
AcDbEntity
  8
SANINDUSA
100
AcDbLine
 10
681.5869241955781
 20
1046.263182490646
 30
0.0
 11
681.5869241955781
 21
1046.283182490646
 31
0.0
  0
LINE
  5
1252
330
1F
100
AcDbEntity
  8
SANINDUSA
100
AcDbLine
 10
681.5869241955781
 20
1046.283182490646
 30
0.0
 11
681.5869241955781
 21
1046.294182490645
 31
0.0
  0
LINE
  5
1253
330
1F
100
AcDbEntity
  8
SANINDUSA
100
AcDbLine
 10
681.5869241955781
 20
1046.254182490645
 30
0.0
 11
681.5869241955781
 21
1046.263182490646
 31
0.0
  0
LINE
  5
1259
330
1F
100
AcDbEntity
  8
SANINDUSA
100
AcDbLine
 10
681.697062845053
 20
1046.231579484869
 30
0.0
 11
681.6929919393166
 21
1046.237012689159
 31
0.0
  0
LINE
  5
125A
330
1F
100
AcDbEntity
  8
SANINDUSA
100
AcDbLine
 10
681.6929919393166
 20
1046.237012689159
 30
0.0
 11
681.6898899352511
 21
1046.243051558617
 31
0.0
  0
LINE
  5
125B
330
1F
100
AcDbEntity
  8
SANINDUSA
100
AcDbLine
 10
681.6898899352511
 20
1046.243051558617
 30
0.0
 11
681.68787291829
 21
1046.249517001007
 31
0.0
  0
LINE
  5
125C
330
1F
100
AcDbEntity
  8
SANINDUSA
100
AcDbLine
 10
681.68787291829
 20
1046.249517001007
 30
0.0
 11
681.6873806350278
 21
1046.253182490646
 31
0.0
  0
LINE
  5
125E
330
1F
100
AcDbEntity
  8
SANINDUSA
100
AcDbLine
 10
681.7019781961358
 20
1046.22692548776
 30
0.0
 11
681.697062845053
 21
1046.231579484869
 31
0.0
  0
LINE
  5
1266
330
1F
100
AcDbEntity
  8
SANINDUSA
100
AcDbLine
 10
681.5969241955781
 20
1046.293182490646
 30
0.0
 11
681.5879241955782
 21
1046.293182490646
 31
0.0
  0
ARC
  5
1267
330
1F
100
AcDbEntity
  8
SANINDUSA
100
AcDbCircle
 10
681.5969241955781
 20
1046.363182490645
 30
0.0
 40
0.01
100
AcDbArc
 50
90.0
 51
180.0
  0
LINE
  5
126F
330
1F
100
AcDbEntity
  8
SANINDUSA
100
AcDbLine
 10
682.0369241955781
 20
1046.363182490645
 30
0.0
 11
682.0369241955781
 21
1046.294182490645
 31
0.0
  0
ARC
  5
1272
330
1F
100
AcDbEntity
  8
SANINDUSA
100
AcDbCircle
 10
681.8170114491432
 20
1046.303182490645
 30
0.0
 40
0.0650000000000003
100
AcDbArc
 50
270.0
 51
309.8055710922769
  0
LINE
  5
1274
330
1F
100
AcDbEntity
  8
SANINDUSA
100
AcDbLine
 10
681.8150363713542
 20
1046.204054968903
 30
0.0
 11
681.819316460584
 21
1046.237344492199
 31
0.0
  0
LINE
  5
1278
330
1F
100
AcDbEntity
  8
SANINDUSA
100
AcDbLine
 10
681.8170114491432
 20
1046.238182490645
 30
0.0
 11
681.7269241955781
 21
1046.238182490645
 31
0.0
  0
LINE
  5
127B
330
1F
100
AcDbEntity
  8
SANINDUSA
100
AcDbLine
 10
681.8140445355789
 20
1046.203182490645
 30
0.0
 11
681.7498038555775
 21
1046.203182490645
 31
0.0
  0
LINE
  5
127D
330
1F
100
AcDbEntity
  8
SANINDUSA
100
AcDbLine
 10
681.7471078538897
 20
1046.217309592667
 30
0.0
 11
681.7488120198022
 21
1046.204054968903
 31
0.0
  0
ARC
  5
127E
330
1F
100
AcDbEntity
  8
SANINDUSA
100
AcDbCircle
 10
681.7498038555775
 20
1046.204182490646
 30
0.0
 40
0.0010000000000002
100
AcDbArc
 50
187.3264066603027
 51
270.0
  0
LINE
  5
1280
330
1F
100
AcDbEntity
  8
SANINDUSA
100
AcDbLine
 10
681.735347462823
 20
1046.217831540663
 30
0.0
 11
681.727814841941
 21
1046.217939027324
 31
0.0
  0
ARC
  5
1281
330
1F
100
AcDbEntity
  8
SANINDUSA
100
AcDbCircle
 10
681.7269241955781
 20
1046.258182490645
 30
0.0
 40
0.02
100
AcDbArc
 50
196.6015495990163
 51
270.0
  0
ARC
  5
1283
330
1F
100
AcDbEntity
  8
SANINDUSA
100
AcDbCircle
 10
681.7067995837807
 20
1046.252182490646
 30
0.0
 40
0.0010000000000002
100
AcDbArc
 50
16.60154959912497
 51
90.0
  0
LINE
  5
1286
330
1F
100
AcDbEntity
  8
SANINDUSA
100
AcDbLine
 10
681.7137851709457
 20
1046.220400195303
 30
0.0
 11
681.7076005999313
 21
1046.223156444976
 31
0.0
  0
LINE
  5
1287
330
1F
100
AcDbEntity
  8
SANINDUSA
100
AcDbLine
 10
681.727814841941
 20
1046.217939027324
 30
0.0
 11
681.7203458583803
 21
1046.218720900839
 31
0.0
  0
LINE
  5
1289
330
1F
100
AcDbEntity
  8
SANINDUSA
100
AcDbLine
 10
681.7203458583803
 20
1046.218720900839
 30
0.0
 11
681.7137851709457
 21
1046.220400195303
 31
0.0
  0
LINE
  5
128C
330
1F
100
AcDbEntity
  8
SANINDUSA
100
AcDbLine
 10
681.749891090721
 20
1046.228449545733
 30
0.0
 11
681.7485275496988
 21
1046.238137605914
 31
0.0
  0
LINE
  5
1292
330
1F
100
AcDbEntity
  8
SANINDUSA
100
AcDbLine
 10
681.750874615065
 20
1046.218130586839
 30
0.0
 11
681.7504523190518
 21
1046.218183327693
 31
0.0
  0
LINE
  5
1295
330
1F
100
AcDbEntity
  8
SANINDUSA
100
AcDbLine
 10
681.7504523190518
 20
1046.218183327693
 30
0.0
 11
681.7429058966514
 21
1046.218034340804
 31
0.0
  0
LINE
  5
1296
330
1F
100
AcDbEntity
  8
SANINDUSA
100
AcDbLine
 10
681.7429058966514
 20
1046.218034340804
 30
0.0
 11
681.735347462823
 21
1046.217831540663
 31
0.0
  0
LINE
  5
1297
330
1F
100
AcDbEntity
  8
SANINDUSA
100
AcDbLine
 10
681.7512280210443
 20
1046.219075176784
 30
0.0
 11
681.7516145846196
 21
1046.218707081765
 31
0.0
  0
LINE
  5
1298
330
1F
100
AcDbEntity
  8
SANINDUSA
100
AcDbLine
 10
681.7516145846196
 20
1046.218707081765
 30
0.0
 11
681.7520629588374
 21
1046.218047984262
 31
0.0
  0
LINE
  5
1299
330
1F
100
AcDbEntity
  8
SANINDUSA
100
AcDbLine
 10
681.7520629588374
 20
1046.218047984262
 30
0.0
 11
681.7524095088772
 21
1046.217318784925
 31
0.0
  0
LINE
  5
12A2
330
1F
100
AcDbEntity
  8
SANINDUSA
100
AcDbLine
 10
681.7504665410406
 20
1046.218202472214
 30
0.0
 11
681.7504523190518
 21
1046.218183327693
 31
0.0
  0
LINE
  5
12A4
330
1F
100
AcDbEntity
  8
SANINDUSA
100
AcDbLine
 10
681.7470950814177
 20
1046.217385634162
 30
0.0
 11
681.7469637056214
 21
1046.217712580729
 31
0.0
  0
LINE
  5
12A5
330
1F
100
AcDbEntity
  8
SANINDUSA
100
AcDbLine
 10
681.7469637056214
 20
1046.217712580729
 30
0.0
 11
681.7467403253314
 21
1046.217963265478
 31
0.0
  0
LINE
  5
12A6
330
1F
100
AcDbEntity
  8
SANINDUSA
100
AcDbLine
 10
681.7467403253314
 20
1046.217963265478
 30
0.0
 11
681.7464465598247
 21
1046.218125878942
 31
0.0
  0
LINE
  5
12A7
330
1F
100
AcDbEntity
  8
SANINDUSA
100
AcDbLine
 10
681.7464465598247
 20
1046.218125878942
 30
0.0
 11
681.7461155278635
 21
1046.218182088223
 31
0.0
  0
LINE
  5
12B7
330
1F
100
AcDbEntity
  8
SANINDUSA
100
AcDbLine
 10
681.7524078758143
 20
1046.217314710308
 30
0.0
 11
681.7519107464331
 21
1046.217663960535
 31
0.0
  0
LINE
  5
12B8
330
1F
100
AcDbEntity
  8
SANINDUSA
100
AcDbLine
 10
681.7519107464331
 20
1046.217663960535
 30
0.0
 11
681.7513317791243
 21
1046.217969753253
 31
0.0
  0
LINE
  5
12B9
330
1F
100
AcDbEntity
  8
SANINDUSA
100
AcDbLine
 10
681.7513317791243
 20
1046.217969753253
 30
0.0
 11
681.750874615065
 21
1046.218130586839
 31
0.0
  0
LINE
  5
12BB
330
1F
100
AcDbEntity
  8
SANINDUSA
100
AcDbLine
 10
681.7512280210443
 20
1046.219075176784
 30
0.0
 11
681.749891090721
 21
1046.228449545733
 31
0.0
  0
ARC
  5
12BC
330
1F
100
AcDbEntity
  8
SANINDUSA
100
AcDbCircle
 10
681.8140445355789
 20
1046.204182490646
 30
0.0
 40
0.0010000000000002
100
AcDbArc
 50
270.0
 51
352.6735933397236
  0
LINE
  5
12D3
330
1F
100
AcDbEntity
  8
SANINDUSA
100
AcDbLine
 10
681.9065446949299
 20
1046.293182490646
 30
0.0
 11
681.8586234351214
 21
1046.253248107472
 31
0.0
  0
ARC
  5
12D5
330
1F
100
AcDbEntity
  8
SANINDUSA
100
AcDbCircle
 10
681.8203087860231
 20
1046.237220838557
 30
0.0
 40
0.0010000000000002
100
AcDbArc
 50
90.72513227301545
 51
172.8969880384462
  0
LINE
  5
12D7
330
1F
100
AcDbEntity
  8
SANINDUSA
100
AcDbLine
 10
681.8585496533028
 20
1046.25318668119
 30
0.0
 11
681.8585890586416
 21
1046.253219466772
 31
0.0
  0
ARC
  5
12D9
330
1F
100
AcDbEntity
  8
SANINDUSA
100
AcDbCircle
 10
682.0359241955782
 20
1046.294182490645
 30
0.0
 40
0.0009999999999999
100
AcDbArc
 50
270.0
 51
0.0
  0
LINE
  5
12DB
330
1F
100
AcDbEntity
  8
SANINDUSA
100
AcDbLine
 10
682.0359241955782
 20
1046.293182490646
 30
0.0
 11
682.0269241955782
 21
1046.293182490646
 31
0.0
  0
ARC
  5
12DD
330
1F
100
AcDbEntity
  8
SANINDUSA
100
AcDbCircle
 10
682.0269241955782
 20
1046.363182490645
 30
0.0
 40
0.01
100
AcDbArc
 50
0.0
 51
90.0
  0
LINE
  5
154D
330
1F
100
AcDbEntity
  8
SANINDUSA
100
AcDbLine
 10
683.6243752207256
 20
1046.248182490645
 30
0.0
 11
683.6073752207256
 21
1046.248182490645
 31
0.0
  0
LINE
  5
154F
330
1F
100
AcDbEntity
  8
SANINDUSA
100
AcDbLine
 10
683.8397706730452
 20
1046.373182490645
 30
0.0
 11
683.6073752207256
 21
1046.373182490645
 31
0.0
  0
LINE
  5
1550
330
1F
100
AcDbEntity
  8
SANINDUSA
100
AcDbLine
 10
683.6265665540694
 20
1046.218182088223
 30
0.0
 11
683.6200388895174
 21
1046.218179696347
 31
0.0
  0
LINE
  5
1552
330
1F
100
AcDbEntity
  8
SANINDUSA
100
AcDbLine
 10
683.6143752207256
 20
1046.238202471897
 30
0.0
 11
683.6398752207257
 21
1046.238202471897
 31
0.0
  0
LINE
  5
1553
330
1F
100
AcDbEntity
  8
SANINDUSA
100
AcDbLine
 10
683.6261609350113
 20
1046.228182490645
 30
0.0
 11
683.620391082528
 21
1046.228182490645
 31
0.0
  0
LINE
  5
1560
330
1F
100
AcDbEntity
  8
SANINDUSA
100
AcDbLine
 10
683.6859106588309
 20
1046.240883797328
 30
0.0
 11
683.6989889593773
 21
1046.248083906626
 31
0.0
  0
ARC
  5
1562
330
1F
100
AcDbEntity
  8
SANINDUSA
100
AcDbCircle
 10
683.6974061817937
 20
1046.303135580231
 30
0.0
 40
0.0650000000000001
100
AcDbArc
 50
272.9125998628378
 51
309.8055710922768
  0
LINE
  5
1565
330
1F
100
AcDbEntity
  8
SANINDUSA
100
AcDbLine
 10
683.6253163971962
 20
1046.247947196528
 30
0.0
 11
683.6388163971962
 21
1046.240747196528
 31
0.0
  0
LINE
  5
156C
330
1F
100
AcDbEntity
  8
SANINDUSA
100
AcDbLine
 10
683.6388752207255
 20
1046.203182490645
 30
0.0
 11
683.6858752207255
 21
1046.203182490645
 31
0.0
  0
LINE
  5
156D
330
1F
100
AcDbEntity
  8
SANINDUSA
100
AcDbLine
 10
683.6848752207256
 20
1046.239131764088
 30
0.0
 11
683.6848752207256
 21
1046.204182490646
 31
0.0
  0
LINE
  5
156E
330
1F
100
AcDbEntity
  8
SANINDUSA
100
AcDbLine
 10
683.6954873965015
 20
1046.204054968903
 30
0.0
 11
683.6997679753953
 21
1046.2373483603
 31
0.0
  0
ARC
  5
1570
330
1F
100
AcDbEntity
  8
SANINDUSA
100
AcDbCircle
 10
683.6944955607263
 20
1046.204182490646
 30
0.0
 40
0.0009999999999999
100
AcDbArc
 50
270.0
 51
352.6735933398288
  0
ARC
  5
1571
330
1F
100
AcDbEntity
  8
SANINDUSA
100
AcDbCircle
 10
683.6858752207255
 20
1046.204182490646
 30
0.0
 40
0.001
100
AcDbArc
 50
180.0
 51
270.0
  0
LINE
  5
1572
330
1F
100
AcDbEntity
  8
SANINDUSA
100
AcDbLine
 10
683.6858752207255
 20
1046.203182490645
 30
0.0
 11
683.6944955607263
 21
1046.203182490645
 31
0.0
  0
ARC
  5
1573
330
1F
100
AcDbEntity
  8
SANINDUSA
100
AcDbCircle
 10
683.7007598111707
 20
1046.237220838557
 30
0.0
 40
0.001
100
AcDbArc
 50
92.91259986283785
 51
172.6735933398288
  0
LINE
  5
1575
330
1F
100
AcDbEntity
  8
SANINDUSA
100
AcDbLine
 10
683.6858150704244
 20
1046.240827665458
 30
0.0
 11
683.6859106588309
 21
1046.240883797328
 31
0.0
  0
LINE
  5
1576
330
1F
100
AcDbEntity
  8
SANINDUSA
100
AcDbLine
 10
683.6853134795457
 20
1046.240381149758
 30
0.0
 11
683.6858150704244
 21
1046.240827665458
 31
0.0
  0
LINE
  5
1577
330
1F
100
AcDbEntity
  8
SANINDUSA
100
AcDbLine
 10
683.6849879631432
 20
1046.239793775294
 30
0.0
 11
683.6853134795457
 21
1046.240381149758
 31
0.0
  0
LINE
  5
1578
330
1F
100
AcDbEntity
  8
SANINDUSA
100
AcDbLine
 10
683.6848752207256
 20
1046.239131764088
 30
0.0
 11
683.6849879631432
 21
1046.239793775294
 31
0.0
  0
LINE
  5
157E
330
1F
100
AcDbEntity
  8
SANINDUSA
100
AcDbLine
 10
683.6398752207257
 20
1046.204182490646
 30
0.0
 11
683.6398752207257
 21
1046.228245151739
 31
0.0
  0
ARC
  5
157F
330
1F
100
AcDbEntity
  8
SANINDUSA
100
AcDbCircle
 10
683.6265670410224
 20
1046.217182088342
 30
0.0
 40
0.0010000000000001
100
AcDbArc
 50
7.326406660171217
 51
90.02790035506825
  0
LINE
  5
1580
330
1F
100
AcDbEntity
  8
SANINDUSA
100
AcDbLine
 10
683.630254880725
 20
1046.203182490645
 30
0.0
 11
683.6388752207255
 21
1046.203182490645
 31
0.0
  0
ARC
  5
1581
330
1F
100
AcDbEntity
  8
SANINDUSA
100
AcDbCircle
 10
683.6388752207255
 20
1046.204182490646
 30
0.0
 40
0.001
100
AcDbArc
 50
270.0
 51
0.000000000000007
  0
ARC
  5
1582
330
1F
100
AcDbEntity
  8
SANINDUSA
100
AcDbCircle
 10
683.630254880725
 20
1046.204182490646
 30
0.0
 40
0.001
100
AcDbArc
 50
187.3264066601712
 51
270.0
  0
LINE
  5
1583
330
1F
100
AcDbEntity
  8
SANINDUSA
100
AcDbLine
 10
683.6275588767978
 20
1046.217309610084
 30
0.0
 11
683.6292630449496
 21
1046.204054968903
 31
0.0
  0
LINE
  5
1584
330
1F
100
AcDbEntity
  8
SANINDUSA
100
AcDbLine
 10
683.6398752207257
 20
1046.228245151739
 30
0.0
 11
683.626152878585
 21
1046.228245151739
 31
0.0
  0
ARC
  5
1585
330
1F
100
AcDbEntity
  8
SANINDUSA
100
AcDbCircle
 10
683.6378752207256
 20
1046.238982490645
 30
0.0
 40
0.002
100
AcDbArc
 50
0.000000000000007
 51
61.92751306414877
  0
LINE
  5
1586
330
1F
100
AcDbEntity
  8
SANINDUSA
100
AcDbLine
 10
683.6398752207257
 20
1046.238202471897
 30
0.0
 11
683.6398752207257
 21
1046.238982490645
 31
0.0
  0
LINE
  5
158A
330
1F
100
AcDbEntity
  8
SANINDUSA
100
AcDbLine
 10
683.626152878585
 20
1046.228245151739
 30
0.0
 11
683.6261609350113
 21
1046.228182490645
 31
0.0
  0
LINE
  5
158E
330
1F
100
AcDbEntity
  8
SANINDUSA
100
AcDbLine
 10
683.7869957200775
 20
1046.293182490646
 30
0.0
 11
683.8673752207256
 21
1046.293182490646
 31
0.0
  0
LINE
  5
158F
330
1F
100
AcDbEntity
  8
SANINDUSA
100
AcDbLine
 10
683.8873752207256
 20
1046.323182490645
 30
0.0
 11
683.8229957200773
 21
1046.323182490645
 31
0.0
  0
LINE
  5
1590
330
1F
100
AcDbEntity
  8
SANINDUSA
100
AcDbLine
 10
683.8146162194292
 20
1046.313182490645
 30
0.0
 11
683.8673752207256
 21
1046.313182490645
 31
0.0
  0
LINE
  5
1592
330
1F
100
AcDbEntity
  8
SANINDUSA
100
AcDbLine
 10
683.845124463567
 20
1046.354640193013
 30
0.0
 11
683.7340632885946
 21
1046.26208921387
 31
0.0
  0
LINE
  5
1593
330
1F
100
AcDbEntity
  8
SANINDUSA
100
AcDbLine
 10
683.8229957200773
 20
1046.323182490645
 30
0.0
 11
683.8459636182739
 21
1046.342322405809
 31
0.0
  0
LINE
  5
1595
330
1F
100
AcDbEntity
  8
SANINDUSA
100
AcDbLine
 10
683.9173752207256
 20
1046.294182490645
 30
0.0
 11
683.9173752207256
 21
1046.363182490645
 31
0.0
  0
LINE
  5
1596
330
1F
100
AcDbEntity
  8
SANINDUSA
100
AcDbLine
 10
683.9073752207256
 20
1046.303182490645
 30
0.0
 11
683.9073752207256
 21
1046.363182490645
 31
0.0
  0
LINE
  5
159D
330
1F
100
AcDbEntity
  8
SANINDUSA
100
AcDbLine
 10
683.8783752207255
 20
1046.293182490646
 30
0.0
 11
683.9163752207256
 21
1046.293182490646
 31
0.0
  0
LINE
  5
159E
330
1F
100
AcDbEntity
  8
SANINDUSA
100
AcDbLine
 10
683.8873752207256
 20
1046.323182490645
 30
0.0
 11
683.8873752207256
 21
1046.303182490645
 31
0.0
  0
ARC
  5
159F
330
1F
100
AcDbEntity
  8
SANINDUSA
100
AcDbCircle
 10
683.9163752207256
 20
1046.294182490645
 30
0.0
 40
0.0010000000000002
100
AcDbArc
 50
270.0
 51
0.000000000000007
  0
LINE
  5
15A0
330
1F
100
AcDbEntity
  8
SANINDUSA
100
AcDbLine
 10
683.9073752207256
 20
1046.303182490645
 30
0.0
 11
683.8873752207256
 21
1046.303182490645
 31
0.0
  0
ARC
  5
15A1
330
1F
100
AcDbEntity
  8
SANINDUSA
100
AcDbCircle
 10
683.8673752207256
 20
1046.303182490645
 30
0.0
 40
0.01
100
AcDbArc
 50
0.000000000000007
 51
90.0
  0
ARC
  5
15A8
330
1F
100
AcDbEntity
  8
SANINDUSA
100
AcDbCircle
 10
683.8783752207255
 20
1046.294182490645
 30
0.0
 40
0.0010000000000002
100
AcDbArc
 50
180.0
 51
270.0
  0
LINE
  5
15A9
330
1F
100
AcDbEntity
  8
SANINDUSA
100
AcDbLine
 10
683.8673752207256
 20
1046.293182490646
 30
0.0
 11
683.8783752207255
 21
1046.293182490646
 31
0.0
  0
LINE
  5
15AC
330
1F
100
AcDbEntity
  8
SANINDUSA
100
AcDbLine
 10
683.8773752207256
 20
1046.294182490645
 30
0.0
 11
683.8773752207256
 21
1046.303182490645
 31
0.0
  0
ARC
  5
15AF
330
1F
100
AcDbEntity
  8
SANINDUSA
100
AcDbCircle
 10
683.8963392155401
 20
1046.293182490646
 30
0.0
 40
0.08
100
AcDbArc
 50
90.0
 51
129.8055710922768
  0
LINE
  5
15B0
330
1F
100
AcDbEntity
  8
SANINDUSA
100
AcDbLine
 10
683.8963392155401
 20
1046.373182490645
 30
0.0
 11
683.8397706730452
 21
1046.373182490645
 31
0.0
  0
ARC
  5
15B1
330
1F
100
AcDbEntity
  8
SANINDUSA
100
AcDbCircle
 10
683.9035802142437
 20
1046.273182490645
 30
0.0
 40
0.09
100
AcDbArc
 50
90.0
 51
129.8055710922768
  0
ARC
  5
15B2
330
1F
100
AcDbEntity
  8
SANINDUSA
100
AcDbCircle
 10
683.9073752207256
 20
1046.363182490645
 30
0.0
 40
0.01
100
AcDbArc
 50
0.000000000000007
 51
90.0
  0
LINE
  5
15B3
330
1F
100
AcDbEntity
  8
SANINDUSA
100
AcDbLine
 10
683.9073752207256
 20
1046.373182490645
 30
0.0
 11
683.8963392155401
 21
1046.373182490645
 31
0.0
  0
LINE
  5
15B4
330
1F
100
AcDbEntity
  8
SANINDUSA
100
AcDbLine
 10
683.9035802142437
 20
1046.363182490645
 30
0.0
 11
683.9073752207256
 21
1046.363182490645
 31
0.0
  0
ARC
  5
15C1
330
1F
100
AcDbEntity
  8
SANINDUSA
100
AcDbCircle
 10
683.6956522246147
 20
1046.308182490645
 30
0.0
 40
0.06
100
AcDbArc
 50
273.9781334307664
 51
309.8055710922768
  0
LINE
  5
15C2
330
1F
100
AcDbEntity
  8
SANINDUSA
100
AcDbLine
 10
683.739018167772
 20
1046.253201197058
 30
0.0
 11
683.8082143754326
 21
1046.310864703442
 31
0.0
  0
ARC
  5
15C5
330
1F
100
AcDbEntity
  8
SANINDUSA
100
AcDbCircle
 10
683.8146162194292
 20
1046.303182490645
 30
0.0
 40
0.0100000000000001
100
AcDbArc
 50
90.0
 51
129.8055710922768
  0
LINE
  5
15C7
330
1F
100
AcDbEntity
  8
SANINDUSA
100
AcDbLine
 10
683.6956522246147
 20
1046.248182490645
 30
0.0
 11
683.6243752207256
 21
1046.248182490645
 31
0.0
  0
LINE
  5
15C8
330
1F
100
AcDbEntity
  8
SANINDUSA
100
AcDbLine
 10
683.6975085713072
 20
1046.24821121438
 30
0.0
 11
683.6961040921949
 21
1046.248184192205
 31
0.0
  0
LINE
  5
15C9
330
1F
100
AcDbEntity
  8
SANINDUSA
100
AcDbLine
 10
683.6985731143872
 20
1046.24825362946
 30
0.0
 11
683.6975085713072
 21
1046.24821121438
 31
0.0
  0
LINE
  5
15CA
330
1F
100
AcDbEntity
  8
SANINDUSA
100
AcDbLine
 10
683.6995083574178
 20
1046.248306533536
 30
0.0
 11
683.6985731143872
 21
1046.24825362946
 31
0.0
  0
LINE
  5
15CB
330
1F
100
AcDbEntity
  8
SANINDUSA
100
AcDbLine
 10
683.6998147725992
 20
1046.24832705485
 30
0.0
 11
683.6995083574178
 21
1046.248306533536
 31
0.0
  0
LINE
  5
15CC
330
1F
100
AcDbEntity
  8
SANINDUSA
100
AcDbLine
 10
683.6998147698973
 20
1046.248327054662
 30
0.0
 11
683.6998147725992
 21
1046.24832705485
 31
0.0
  0
LINE
  5
15CD
330
1F
100
AcDbEntity
  8
SANINDUSA
100
AcDbLine
 10
683.6989889623112
 20
1046.24808390686
 30
0.0
 11
683.6989889593773
 21
1046.248083906626
 31
0.0
  0
LINE
  5
15D2
330
1F
100
AcDbEntity
  8
SANINDUSA
100
AcDbLine
 10
683.6952628710088
 20
1046.247948483036
 30
0.0
 11
683.6952628962156
 21
1046.247948483149
 31
0.0
  0
LINE
  5
15D3
330
1F
100
AcDbEntity
  8
SANINDUSA
100
AcDbLine
 10
683.6996232657743
 20
1046.248304417815
 30
0.0
 11
683.6998147698973
 21
1046.248327054662
 31
0.0
  0
LINE
  5
15D4
330
1F
100
AcDbEntity
  8
SANINDUSA
100
AcDbLine
 10
683.6989889593773
 20
1046.248083906626
 30
0.0
 11
683.6996232657743
 21
1046.248304417815
 31
0.0
  0
LINE
  5
15D6
330
1F
100
AcDbEntity
  8
SANINDUSA
100
AcDbLine
 10
683.6961050665181
 20
1046.248184199551
 30
0.0
 11
683.6956522246147
 21
1046.248182490645
 31
0.0
  0
ARC
  5
15D9
330
1F
100
AcDbEntity
  8
SANINDUSA
100
AcDbCircle
 10
683.6243752207256
 20
1046.246182490645
 30
0.0
 40
0.0020000000000002
100
AcDbArc
 50
61.92751306414877
 51
90.0
  0
LINE
  5
15DA
330
1F
100
AcDbEntity
  8
SANINDUSA
100
AcDbLine
 10
683.5812556895945
 20
1046.243423884411
 30
0.0
 11
683.5789782732854
 21
1046.248489367744
 31
0.0
  0
LINE
  5
15DB
330
1F
100
AcDbEntity
  8
SANINDUSA
100
AcDbLine
 10
683.5696766649837
 20
1046.244788738098
 30
0.0
 11
683.5680724846795
 21
1046.250713470177
 31
0.0
  0
ARC
  5
15DC
330
1F
100
AcDbEntity
  8
SANINDUSA
100
AcDbCircle
 10
683.6073752207256
 20
1046.258182490645
 30
0.0
 40
0.02
100
AcDbArc
 50
180.0
 51
270.0
  0
LINE
  5
15E1
330
1F
100
AcDbEntity
  8
SANINDUSA
100
AcDbLine
 10
683.5945605092987
 20
1046.220283558008
 30
0.0
 11
683.5889150537017
 21
1046.222692587216
 31
0.0
  0
LINE
  5
15E2
330
1F
100
AcDbEntity
  8
SANINDUSA
100
AcDbLine
 10
683.600610288503
 20
1046.218752530787
 30
0.0
 11
683.5945605092987
 21
1046.220283558008
 31
0.0
  0
LINE
  5
15E3
330
1F
100
AcDbEntity
  8
SANINDUSA
100
AcDbLine
 10
683.6069860578917
 20
1046.218186498473
 30
0.0
 11
683.600610288503
 21
1046.218752530787
 31
0.0
  0
LINE
  5
15E4
330
1F
100
AcDbEntity
  8
SANINDUSA
100
AcDbLine
 10
683.6135138343556
 20
1046.218186172073
 30
0.0
 11
683.6069860578917
 21
1046.218186498473
 31
0.0
  0
LINE
  5
15E5
330
1F
100
AcDbEntity
  8
SANINDUSA
100
AcDbLine
 10
683.6200388895174
 20
1046.218179696347
 30
0.0
 11
683.6135138343556
 21
1046.218186172073
 31
0.0
  0
LINE
  5
15E6
330
1F
100
AcDbEntity
  8
SANINDUSA
100
AcDbLine
 10
683.5977811206714
 20
1046.229751903206
 30
0.0
 11
683.5928257845722
 21
1046.231945530615
 31
0.0
  0
LINE
  5
15E7
330
1F
100
AcDbEntity
  8
SANINDUSA
100
AcDbLine
 10
683.6031580184701
 20
1046.228477145829
 30
0.0
 11
683.5977811206714
 21
1046.229751903206
 31
0.0
  0
LINE
  5
15E8
330
1F
100
AcDbEntity
  8
SANINDUSA
100
AcDbLine
 10
683.6088513775613
 20
1046.228182490645
 30
0.0
 11
683.6031580184701
 21
1046.228477145829
 31
0.0
  0
LINE
  5
15E9
330
1F
100
AcDbEntity
  8
SANINDUSA
100
AcDbLine
 10
683.6146212300446
 20
1046.228182490645
 30
0.0
 11
683.6088513775613
 21
1046.228182490645
 31
0.0
  0
LINE
  5
15EA
330
1F
100
AcDbEntity
  8
SANINDUSA
100
AcDbLine
 10
683.620391082528
 20
1046.228182490645
 30
0.0
 11
683.6146212300446
 21
1046.228182490645
 31
0.0
  0
LINE
  5
15EB
330
1F
100
AcDbEntity
  8
SANINDUSA
100
AcDbLine
 10
683.6073752207256
 20
1046.238182490645
 30
0.0
 11
683.6143752207256
 21
1046.238182490645
 31
0.0
  0
LINE
  5
15EC
330
1F
100
AcDbEntity
  8
SANINDUSA
100
AcDbLine
 10
683.6143752207256
 20
1046.238182490645
 30
0.0
 11
683.6143752207256
 21
1046.238202471897
 31
0.0
  0
LINE
  5
15ED
330
1F
100
AcDbEntity
  8
SANINDUSA
100
AcDbLine
 10
683.6143752207256
 20
1046.228245151739
 30
0.0
 11
683.6143752207256
 21
1046.238182490645
 31
0.0
  0
LINE
  5
15EE
330
1F
100
AcDbEntity
  8
SANINDUSA
100
AcDbLine
 10
683.5843925477338
 20
1046.238908282957
 30
0.0
 11
683.5812556895945
 21
1046.243423884411
 31
0.0
  0
LINE
  5
15EF
330
1F
100
AcDbEntity
  8
SANINDUSA
100
AcDbLine
 10
683.5882841464707
 20
1046.235047264614
 30
0.0
 11
683.5843925477338
 21
1046.238908282957
 31
0.0
  0
LINE
  5
15F0
330
1F
100
AcDbEntity
  8
SANINDUSA
100
AcDbLine
 10
683.5928257845722
 20
1046.231945530615
 30
0.0
 11
683.5882841464707
 21
1046.235047264614
 31
0.0
  0
LINE
  5
15F1
330
1F
100
AcDbEntity
  8
SANINDUSA
100
AcDbLine
 10
683.5721294986532
 20
1046.239264944389
 30
0.0
 11
683.5696766649837
 21
1046.244788738098
 31
0.0
  0
LINE
  5
15F2
330
1F
100
AcDbEntity
  8
SANINDUSA
100
AcDbLine
 10
683.5753553626308
 20
1046.234217572385
 30
0.0
 11
683.5721294986532
 21
1046.239264944389
 31
0.0
  0
LINE
  5
15F3
330
1F
100
AcDbEntity
  8
SANINDUSA
100
AcDbLine
 10
683.579278656785
 20
1046.229722155183
 30
0.0
 11
683.5753553626308
 21
1046.234217572385
 31
0.0
  0
LINE
  5
15F4
330
1F
100
AcDbEntity
  8
SANINDUSA
100
AcDbLine
 10
683.5838237641333
 20
1046.225854902784
 30
0.0
 11
683.579278656785
 21
1046.229722155183
 31
0.0
  0
LINE
  5
15F5
330
1F
100
AcDbEntity
  8
SANINDUSA
100
AcDbLine
 10
683.5889150537017
 20
1046.222692587216
 30
0.0
 11
683.5838237641333
 21
1046.225854902784
 31
0.0
  0
LINE
  5
15FC
330
1F
100
AcDbEntity
  8
SANINDUSA
100
AcDbLine
 10
683.5773752207257
 20
1046.271673673443
 30
0.0
 11
683.5773752207257
 21
1046.363182490645
 31
0.0
  0
LINE
  5
15FD
330
1F
100
AcDbEntity
  8
SANINDUSA
100
AcDbLine
 10
683.5673830630869
 20
1046.263395320579
 30
0.0
 11
683.567375201007
 21
1046.363182490642
 31
0.0
  0
LINE
  5
15FF
330
1F
100
AcDbEntity
  8
SANINDUSA
100
AcDbLine
 10
683.5973752207256
 20
1046.328682490645
 30
0.0
 11
683.5973752207256
 21
1046.357682490645
 31
0.0
  0
LINE
  5
1601
330
1F
100
AcDbEntity
  8
SANINDUSA
100
AcDbLine
 10
683.5873752207256
 20
1046.356682490645
 30
0.0
 11
683.5873752207256
 21
1046.329682490645
 31
0.0
  0
LINE
  5
1603
330
1F
100
AcDbEntity
  8
SANINDUSA
100
AcDbLine
 10
683.4823752207256
 20
1046.263182490646
 30
0.0
 11
683.5000079187964
 21
1046.363182490645
 31
0.0
  0
LINE
  5
1604
330
1F
100
AcDbEntity
  8
SANINDUSA
100
AcDbLine
 10
683.4773752207256
 20
1046.363182490645
 30
0.0
 11
683.4773752207256
 21
1046.263182490646
 31
0.0
  0
LINE
  5
1605
330
1F
100
AcDbEntity
  8
SANINDUSA
100
AcDbLine
 10
683.4673752207256
 20
1046.363182490645
 30
0.0
 11
683.4673752207256
 21
1046.254182490645
 31
0.0
  0
LINE
  5
1606
330
1F
100
AcDbEntity
  8
SANINDUSA
100
AcDbLine
 10
683.5116254804817
 20
1046.362356138823
 30
0.0
 11
683.4925209288475
 21
1046.254008842468
 31
0.0
  0
LINE
  5
1609
330
1F
100
AcDbEntity
  8
SANINDUSA
100
AcDbLine
 10
683.4915361210944
 20
1046.253182490646
 30
0.0
 11
683.567804135349
 21
1046.253182490646
 31
0.0
  0
LINE
  5
160B
330
1F
100
AcDbEntity
  8
SANINDUSA
100
AcDbLine
 10
683.5873752207256
 20
1046.329682490645
 30
0.0
 11
683.5873752207256
 21
1046.258182490645
 31
0.0
  0
LINE
  5
160C
330
1F
100
AcDbEntity
  8
SANINDUSA
100
AcDbLine
 10
683.5973752207256
 20
1046.258182490645
 30
0.0
 11
683.5973752207256
 21
1046.328682490645
 31
0.0
  0
LINE
  5
160D
330
1F
100
AcDbEntity
  8
SANINDUSA
100
AcDbLine
 10
683.5773752207257
 20
1046.266940660135
 30
0.0
 11
683.5773752207257
 21
1046.271673673443
 31
0.0
  0
ARC
  5
1613
330
1F
100
AcDbEntity
  8
SANINDUSA
100
AcDbCircle
 10
683.6073752207256
 20
1046.258182490645
 30
0.0
 40
0.01
100
AcDbArc
 50
180.0
 51
270.0
  0
LINE
  5
1615
330
1F
100
AcDbEntity
  8
SANINDUSA
100
AcDbLine
 10
683.5773833804755
 20
1046.257476561106
 30
0.0
 11
683.5773752207257
 21
1046.262207646828
 31
0.0
  0
LINE
  5
1616
330
1F
100
AcDbEntity
  8
SANINDUSA
100
AcDbLine
 10
683.5773752207257
 20
1046.262207646828
 30
0.0
 11
683.5773752207257
 21
1046.266940660135
 31
0.0
  0
LINE
  5
1617
330
1F
100
AcDbEntity
  8
SANINDUSA
100
AcDbLine
 10
683.5789782732854
 20
1046.248489367744
 30
0.0
 11
683.5778454975846
 21
1046.252867310134
 31
0.0
  0
LINE
  5
1618
330
1F
100
AcDbEntity
  8
SANINDUSA
100
AcDbLine
 10
683.5778454975846
 20
1046.252867310134
 30
0.0
 11
683.5773833804755
 21
1046.257476561106
 31
0.0
  0
LINE
  5
1619
330
1F
100
AcDbEntity
  8
SANINDUSA
100
AcDbLine
 10
683.567393166238
 20
1046.256963722908
 30
0.0
 11
683.5673830630869
 21
1046.263395320579
 31
0.0
  0
LINE
  5
161A
330
1F
100
AcDbEntity
  8
SANINDUSA
100
AcDbLine
 10
683.5680724846795
 20
1046.250713470177
 30
0.0
 11
683.567393166238
 21
1046.256963722908
 31
0.0
  0
LINE
  5
161B
330
1F
100
AcDbEntity
  8
SANINDUSA
100
AcDbLine
 10
683.5953752207256
 20
1046.330682490645
 30
0.0
 11
683.5883752207256
 21
1046.330682490645
 31
0.0
  0
ARC
  5
161C
330
1F
100
AcDbEntity
  8
SANINDUSA
100
AcDbCircle
 10
683.5953752207256
 20
1046.328682490645
 30
0.0
 40
0.002
100
AcDbArc
 50
0.000000000000007
 51
90.0
  0
ARC
  5
161D
330
1F
100
AcDbEntity
  8
SANINDUSA
100
AcDbCircle
 10
683.5883752207256
 20
1046.329682490645
 30
0.0
 40
0.001
100
AcDbArc
 50
90.0
 51
180.0
  0
LINE
  5
161E
330
1F
100
AcDbEntity
  8
SANINDUSA
100
AcDbLine
 10
683.4915361210944
 20
1046.253182490646
 30
0.0
 11
683.4683752207256
 21
1046.253182490646
 31
0.0
  0
ARC
  5
1620
330
1F
100
AcDbEntity
  8
SANINDUSA
100
AcDbCircle
 10
683.4915361210944
 20
1046.254182490645
 30
0.0
 40
0.0009999999999999
100
AcDbArc
 50
270.0
 51
349.999999999995
  0
LINE
  5
1622
330
1F
100
AcDbEntity
  8
SANINDUSA
100
AcDbLine
 10
683.4823752207256
 20
1046.263182490646
 30
0.0
 11
683.4773752207256
 21
1046.263182490646
 31
0.0
  0
ARC
  5
1623
330
1F
100
AcDbEntity
  8
SANINDUSA
100
AcDbCircle
 10
683.4683752207256
 20
1046.254182490645
 30
0.0
 40
0.001
100
AcDbArc
 50
180.0
 51
270.0
  0
LINE
  5
1626
330
1F
100
AcDbEntity
  8
SANINDUSA
100
AcDbLine
 10
683.5126102882347
 20
1046.363182490645
 30
0.0
 11
683.5263752207256
 21
1046.363182490645
 31
0.0
  0
LINE
  5
1628
330
1F
100
AcDbEntity
  8
SANINDUSA
100
AcDbLine
 10
683.5253752207257
 20
1046.373182490645
 30
0.0
 11
683.4773752207256
 21
1046.373182490645
 31
0.0
  0
LINE
  5
162A
330
1F
100
AcDbEntity
  8
SANINDUSA
100
AcDbLine
 10
683.5873752207256
 20
1046.373182490645
 30
0.0
 11
683.5643752207256
 21
1046.373182490645
 31
0.0
  0
LINE
  5
162B
330
1F
100
AcDbEntity
  8
SANINDUSA
100
AcDbLine
 10
683.5873752207256
 20
1046.363182490645
 30
0.0
 11
683.5873752207256
 21
1046.356682490645
 31
0.0
  0
LINE
  5
162C
330
1F
100
AcDbEntity
  8
SANINDUSA
100
AcDbLine
 10
683.5973752207256
 20
1046.357682490645
 30
0.0
 11
683.5973752207256
 21
1046.363182490645
 31
0.0
  0
LINE
  5
162D
330
1F
100
AcDbEntity
  8
SANINDUSA
100
AcDbLine
 10
683.5883752207256
 20
1046.355682490645
 30
0.0
 11
683.5953752207256
 21
1046.355682490645
 31
0.0
  0
ARC
  5
162E
330
1F
100
AcDbEntity
  8
SANINDUSA
100
AcDbCircle
 10
683.5953752207256
 20
1046.357682490645
 30
0.0
 40
0.0020000000000002
100
AcDbArc
 50
270.0
 51
0.000000000000007
  0
ARC
  5
162F
330
1F
100
AcDbEntity
  8
SANINDUSA
100
AcDbCircle
 10
683.5883752207256
 20
1046.356682490645
 30
0.0
 40
0.0010000000000002
100
AcDbArc
 50
180.0
 51
270.0
  0
ARC
  5
1630
330
1F
100
AcDbEntity
  8
SANINDUSA
100
AcDbCircle
 10
683.5873752207256
 20
1046.363182490645
 30
0.0
 40
0.01
100
AcDbArc
 50
0.000000000000007
 51
90.0
  0
LINE
  5
1631
330
1F
100
AcDbEntity
  8
SANINDUSA
100
AcDbLine
 10
683.5873752207256
 20
1046.373182490645
 30
0.0
 11
683.6073752207256
 21
1046.373182490645
 31
0.0
  0
LINE
  5
1634
330
1F
100
AcDbEntity
  8
SANINDUSA
100
AcDbLine
 10
683.5773752207257
 20
1046.363182490645
 30
0.0
 11
683.5873752207256
 21
1046.363182490645
 31
0.0
  0
LINE
  5
1635
330
1F
100
AcDbEntity
  8
SANINDUSA
100
AcDbLine
 10
683.5643752207256
 20
1046.373182490645
 30
0.0
 11
683.5253752207257
 21
1046.373182490645
 31
0.0
  0
LINE
  5
1636
330
1F
100
AcDbEntity
  8
SANINDUSA
100
AcDbLine
 10
683.5263752207256
 20
1046.363182490645
 30
0.0
 11
683.5633752207256
 21
1046.363182490645
 31
0.0
  0
ARC
  5
1639
330
1F
100
AcDbEntity
  8
SANINDUSA
100
AcDbCircle
 10
683.5643752207256
 20
1046.371182490645
 30
0.0
 40
0.0020000000000002
100
AcDbArc
 50
90.0
 51
180.0
  0
ARC
  5
163A
330
1F
100
AcDbEntity
  8
SANINDUSA
100
AcDbCircle
 10
683.5633752207256
 20
1046.364182490645
 30
0.0
 40
0.0010000000000002
100
AcDbArc
 50
180.0
 51
270.0
  0
LINE
  5
163B
330
1F
100
AcDbEntity
  8
SANINDUSA
100
AcDbLine
 10
683.5623752207255
 20
1046.371182490645
 30
0.0
 11
683.5623752207255
 21
1046.364182490645
 31
0.0
  0
LINE
  5
163C
330
1F
100
AcDbEntity
  8
SANINDUSA
100
AcDbLine
 10
683.5633752207256
 20
1046.363182490645
 30
0.0
 11
683.567375201007
 21
1046.363182490642
 31
0.0
  0
ARC
  5
163D
330
1F
100
AcDbEntity
  8
SANINDUSA
100
AcDbCircle
 10
683.5253752207257
 20
1046.371182490645
 30
0.0
 40
0.0020000000000002
100
AcDbArc
 50
0.000000000000007
 51
90.0
  0
ARC
  5
163E
330
1F
100
AcDbEntity
  8
SANINDUSA
100
AcDbCircle
 10
683.5263752207256
 20
1046.364182490645
 30
0.0
 40
0.0010000000000002
100
AcDbArc
 50
270.0
 51
0.000000000000007
  0
LINE
  5
163F
330
1F
100
AcDbEntity
  8
SANINDUSA
100
AcDbLine
 10
683.5273752207256
 20
1046.364182490645
 30
0.0
 11
683.5273752207256
 21
1046.371182490645
 31
0.0
  0
LINE
  5
1640
330
1F
100
AcDbEntity
  8
SANINDUSA
100
AcDbLine
 10
683.4773752207256
 20
1046.363182490645
 30
0.0
 11
683.5000079187964
 21
1046.363182490645
 31
0.0
  0
ARC
  5
1641
330
1F
100
AcDbEntity
  8
SANINDUSA
100
AcDbCircle
 10
683.5126102882347
 20
1046.362182490645
 30
0.0
 40
0.001
100
AcDbArc
 50
90.0
 51
169.9999999999949
  0
ARC
  5
1644
330
1F
100
AcDbEntity
  8
SANINDUSA
100
AcDbCircle
 10
683.4773752207256
 20
1046.363182490645
 30
0.0
 40
0.01
100
AcDbArc
 50
90.0
 51
180.0
  0
ENDSEC
  0
SECTION
  2
OBJECTS
  0
DICTIONARY
  5
C
330
0
100
AcDbDictionary
281
     1
  3
ACAD_COLOR
350
190A
  3
ACAD_GROUP
350
D
  3
ACAD_LAYOUT
350
1A
  3
ACAD_MATERIAL
350
1909
  3
ACAD_MLEADERSTYLE
350
197A
  3
ACAD_MLINESTYLE
350
17
  3
ACAD_PLOTSETTINGS
350
19
  3
ACAD_PLOTSTYLENAME
350
E
  3
ACAD_SCALELIST
350
1968
  3
ACAD_TABLESTYLE
350
190B
  3
ACAD_VISUALSTYLE
350
1954
  3
ACDB_RECOMPOSE_DATA
350
19A6
  3
AcDbVariableDictionary
350
3D
  3
ASE_INDEX_DICTIONARY
350
1904
  3
DWGPROPS
350
19A7
  0
DICTIONARY
  5
1981
330
10
100
AcDbDictionary
280
     1
281
     1
  3
ADSK_XREC_LAYER_RECONCILED
360
1982
  0
DICTIONARY
  5
1983
330
2F
100
AcDbDictionary
280
     1
281
     1
  3
ADSK_XREC_LAYER_RECONCILED
360
1984
  0
DICTIONARY
  5
1985
330
30
100
AcDbDictionary
280
     1
281
     1
  3
ADSK_XREC_LAYER_RECONCILED
360
1986
  0
DICTIONARY
  5
1987
330
31
100
AcDbDictionary
280
     1
281
     1
  3
ADSK_XREC_LAYER_RECONCILED
360
1988
  0
DICTIONARY
  5
1989
330
32
100
AcDbDictionary
280
     1
281
     1
  3
ADSK_XREC_LAYER_RECONCILED
360
198A
  0
DICTIONARY
  5
198B
330
33
100
AcDbDictionary
280
     1
281
     1
  3
ADSK_XREC_LAYER_RECONCILED
360
198C
  0
DICTIONARY
  5
198D
330
34
100
AcDbDictionary
280
     1
281
     1
  3
ADSK_XREC_LAYER_RECONCILED
360
198E
  0
DICTIONARY
  5
198F
330
35
100
AcDbDictionary
280
     1
281
     1
  3
ADSK_XREC_LAYER_RECONCILED
360
1990
  0
DICTIONARY
  5
1991
330
36
100
AcDbDictionary
280
     1
281
     1
  3
ADSK_XREC_LAYER_RECONCILED
360
1992
  0
DICTIONARY
  5
1993
330
37
100
AcDbDictionary
280
     1
281
     1
  3
ADSK_XREC_LAYER_RECONCILED
360
1994
  0
DICTIONARY
  5
1995
330
5D6
100
AcDbDictionary
280
     1
281
     1
  3
ADSK_XREC_LAYER_RECONCILED
360
1996
  0
DICTIONARY
  5
1997
330
8AF
100
AcDbDictionary
280
     1
281
     1
  3
ADSK_XREC_LAYER_RECONCILED
360
1998
  0
DICTIONARY
  5
1999
330
8F8
100
AcDbDictionary
280
     1
281
     1
  3
ADSK_XREC_LAYER_RECONCILED
360
199A
  0
DICTIONARY
  5
199B
330
91D
100
AcDbDictionary
280
     1
281
     1
  3
ADSK_XREC_LAYER_RECONCILED
360
199C
  0
DICTIONARY
  5
199D
330
CE5
100
AcDbDictionary
280
     1
281
     1
  3
ADSK_XREC_LAYER_RECONCILED
360
199E
  0
DICTIONARY
  5
190A
102
{ACAD_REACTORS
330
C
102
}
330
C
100
AcDbDictionary
281
     1
  0
DICTIONARY
  5
D
102
{ACAD_REACTORS
330
C
102
}
330
C
100
AcDbDictionary
281
     1
  0
DICTIONARY
  5
1A
102
{ACAD_REACTORS
330
C
102
}
330
C
100
AcDbDictionary
281
     1
  3
Layout1
350
1E
  3
Layout2
350
26
  3
Model
350
22
  0
DICTIONARY
  5
1909
102
{ACAD_REACTORS
330
C
102
}
330
C
100
AcDbDictionary
281
     1
  3
ByBlock
350
1944
  3
ByLayer
350
193C
  3
Global
350
194C
  0
DICTIONARY
  5
197A
102
{ACAD_REACTORS
330
C
102
}
330
C
100
AcDbDictionary
281
     1
  3
Standard
350
197B
  0
DICTIONARY
  5
17
102
{ACAD_REACTORS
330
C
102
}
330
C
100
AcDbDictionary
281
     1
  3
Standard
350
18
  0
DICTIONARY
  5
19
102
{ACAD_REACTORS
330
C
102
}
330
C
100
AcDbDictionary
281
     1
  0
ACDBDICTIONARYWDFLT
  5
E
102
{ACAD_REACTORS
330
C
102
}
330
C
100
AcDbDictionary
281
     1
  3
Normal
350
F
100
AcDbDictionaryWithDefault
340
F
  0
DICTIONARY
  5
1968
102
{ACAD_REACTORS
330
C
102
}
330
C
100
AcDbDictionary
281
     1
  3
A0
350
1969
  3
A1
350
196A
  3
A2
350
196B
  3
A3
350
196C
  3
A4
350
196D
  3
A5
350
196E
  3
A6
350
196F
  3
A7
350
1970
  3
A8
350
1971
  3
A9
350
1972
  3
B0
350
1973
  3
B1
350
1974
  3
B2
350
1975
  3
B3
350
1976
  3
B4
350
1977
  3
B5
350
1978
  3
B6
350
1979
  0
DICTIONARY
  5
190B
102
{ACAD_REACTORS
330
C
102
}
330
C
100
AcDbDictionary
281
     1
  3
Standard
350
190C
  0
DICTIONARY
  5
1954
102
{ACAD_REACTORS
330
C
102
}
330
C
100
AcDbDictionary
281
     1
  3
2dWireframe
350
195A
  3
3D Hidden
350
195C
  3
3dWireframe
350
195B
  3
Basic
350
1959
  3
Brighten
350
1960
  3
ColorChange
350
1964
  3
Conceptual
350
195D
  3
Dim
350
195F
  3
EdgeColorOff
350
1967
  3
Facepattern
350
1963
  3
Flat
350
1955
  3
FlatWithEdges
350
1956
  3
Gouraud
350
1957
  3
GouraudWithEdges
350
1958
  3
JitterOff
350
1965
  3
Linepattern
350
1962
  3
OverhangOff
350
1966
  3
Realistic
350
195E
  3
Thicken
350
1961
  0
XRECORD
  5
19A6
102
{ACAD_REACTORS
330
C
102
}
330
C
100
AcDbXrecord
280
     1
 90
        1
330
190C
  0
DICTIONARY
  5
3D
102
{ACAD_REACTORS
330
C
102
}
330
C
100
AcDbDictionary
281
     1
  3
CANNOSCALE
350
19A0
  3
CMLEADERSTYLE
350
199F
  3
CTABLESTYLE
350
1939
  3
DIMASSOC
350
3F
  3
HIDETEXT
350
3E
  3
INDEXCTL
350
19A2
  3
PROJECTNAME
350
193A
  3
SORTENTS
350
19A1
  3
XCLIPFRAME
350
19A3
  0
DICTIONARY
  5
1904
102
{ACAD_REACTORS
330
C
102
}
330
C
100
AcDbDictionary
281
     1
  3
ASEBlockHierarchyIndexRecord
350
1905
1001
DCO15
1040
1527420097.906
  0
XRECORD
  5
19A7
102
{ACAD_REACTORS
330
C
102
}
330
C
100
AcDbXrecord
280
     1
  1
DWGPROPS COOKIE
  2

  3

  4

  6

  7

  8
Julio
  9

300
=
301
=
302
=
303
=
304
=
305
=
306
=
307
=
308
=
309
=
 40
0.0029873842592593
 41
2453481.683414711
 42
2456146.484302292
  1

 90
        0
  0
XRECORD
  5
1982
102
{ACAD_REACTORS
330
1981
102
}
330
1981
100
AcDbXrecord
280
     1
290
     1
  0
XRECORD
  5
1984
102
{ACAD_REACTORS
330
1983
102
}
330
1983
100
AcDbXrecord
280
     1
290
     1
  0
XRECORD
  5
1986
102
{ACAD_REACTORS
330
1985
102
}
330
1985
100
AcDbXrecord
280
     1
290
     1
  0
XRECORD
  5
1988
102
{ACAD_REACTORS
330
1987
102
}
330
1987
100
AcDbXrecord
280
     1
290
     1
  0
XRECORD
  5
198A
102
{ACAD_REACTORS
330
1989
102
}
330
1989
100
AcDbXrecord
280
     1
290
     1
  0
XRECORD
  5
198C
102
{ACAD_REACTORS
330
198B
102
}
330
198B
100
AcDbXrecord
280
     1
290
     1
  0
XRECORD
  5
198E
102
{ACAD_REACTORS
330
198D
102
}
330
198D
100
AcDbXrecord
280
     1
290
     1
  0
XRECORD
  5
1990
102
{ACAD_REACTORS
330
198F
102
}
330
198F
100
AcDbXrecord
280
     1
290
     1
  0
XRECORD
  5
1992
102
{ACAD_REACTORS
330
1991
102
}
330
1991
100
AcDbXrecord
280
     1
290
     1
  0
XRECORD
  5
1994
102
{ACAD_REACTORS
330
1993
102
}
330
1993
100
AcDbXrecord
280
     1
290
     1
  0
XRECORD
  5
1996
102
{ACAD_REACTORS
330
1995
102
}
330
1995
100
AcDbXrecord
280
     1
290
     1
  0
XRECORD
  5
1998
102
{ACAD_REACTORS
330
1997
102
}
330
1997
100
AcDbXrecord
280
     1
290
     1
  0
XRECORD
  5
199A
102
{ACAD_REACTORS
330
1999
102
}
330
1999
100
AcDbXrecord
280
     1
290
     1
  0
XRECORD
  5
199C
102
{ACAD_REACTORS
330
199B
102
}
330
199B
100
AcDbXrecord
280
     1
290
     1
  0
XRECORD
  5
199E
102
{ACAD_REACTORS
330
199D
102
}
330
199D
100
AcDbXrecord
280
     1
290
     1
  0
LAYOUT
  5
1E
102
{ACAD_XDICTIONARY
360
19A8
102
}
102
{ACAD_REACTORS
330
1A
102
}
330
1A
100
AcDbPlotSettings
  1

  2
Ploter HP500
  4

  6

 40
0.0
 41
0.0
 42
0.0
 43
0.0
 44
0.0
 45
0.0
 46
0.0
 47
0.0
 48
0.0
 49
0.0
140
0.0
141
0.0
142
1.0
143
1.0
 70
   688
 72
     0
 73
     0
 74
     5
  7
monochrome.ctb
 75
    16
147
1.0
148
0.0
149
0.0
100
AcDbLayout
  1
Layout1
 70
     1
 71
     1
 10
0.0
 20
0.0
 11
420.0
 21
297.0
 12
0.0
 22
0.0
 32
0.0
 14
1.000000000000000E+20
 24
1.000000000000000E+20
 34
1.000000000000000E+20
 15
-1.000000000000000E+20
 25
-1.000000000000000E+20
 35
-1.000000000000000E+20
146
0.0
 13
0.0
 23
0.0
 33
0.0
 16
1.0
 26
0.0
 36
0.0
 17
0.0
 27
1.0
 37
0.0
 76
     0
330
1B
  0
LAYOUT
  5
26
102
{ACAD_XDICTIONARY
360
19AC
102
}
102
{ACAD_REACTORS
330
1A
102
}
330
1A
100
AcDbPlotSettings
  1

  2
Ploter HP500
  4

  6

 40
0.0
 41
0.0
 42
0.0
 43
0.0
 44
0.0
 45
0.0
 46
0.0
 47
0.0
 48
0.0
 49
0.0
140
0.0
141
0.0
142
1.0
143
1.0
 70
   688
 72
     0
 73
     0
 74
     5
  7
monochrome.ctb
 75
    16
147
1.0
148
0.0
149
0.0
100
AcDbLayout
  1
Layout2
 70
     1
 71
     2
 10
0.0
 20
0.0
 11
12.0
 21
9.0
 12
0.0
 22
0.0
 32
0.0
 14
0.0
 24
0.0
 34
0.0
 15
0.0
 25
0.0
 35
0.0
146
0.0
 13
0.0
 23
0.0
 33
0.0
 16
1.0
 26
0.0
 36
0.0
 17
0.0
 27
1.0
 37
0.0
 76
     0
330
23
  0
LAYOUT
  5
22
102
{ACAD_XDICTIONARY
360
19AA
102
}
102
{ACAD_REACTORS
330
1A
102
}
330
1A
100
AcDbPlotSettings
  1

  2
Ploter HP500
  4
User268
  6

 40
4.995333194732666
 41
16.97565841674804
 42
4.995330810546875
 43
16.97567749023437
 44
209.9733276367187
 45
296.9259948730469
 46
0.0
 47
0.0
 48
0.0
 49
0.0
140
0.0
141
0.0
142
1.0
143
1.0
 70
 11952
 72
     1
 73
     1
 74
     0
  7

 75
     0
147
1.0
148
-427.5957866592534
149
7.362384574453926
100
AcDbLayout
  1
Model
 70
     1
 71
     0
 10
0.0
 20
0.0
 11
12.0
 21
9.0
 12
0.0
 22
0.0
 32
0.0
 14
0.0
 24
0.0
 34
0.0
 15
0.0
 25
0.0
 35
0.0
146
0.0
 13
0.0
 23
0.0
 33
0.0
 16
1.0
 26
0.0
 36
0.0
 17
0.0
 27
1.0
 37
0.0
 76
     0
330
1F
331
1931
  0
MATERIAL
  5
1944
102
{ACAD_XDICTIONARY
360
1945
102
}
102
{ACAD_REACTORS
330
1909
102
}
330
1909
100
AcDbMaterial
  1
ByBlock
 72
     0
 43
0.0008202099737533
 43
0.0
 43
0.0
 43
0.0
 43
0.0
 43
0.0008202099737533
 43
0.0
 43
0.0
 43
0.0
 43
0.0
 43
1.0
 43
0.0
 43
0.0
 43
0.0
 43
0.0
 43
1.0
 77
     0
 47
0.0008202099737533
 47
0.0
 47
0.0
 47
0.0
 47
0.0
 47
0.0008202099737533
 47
0.0
 47
0.0
 47
0.0
 47
0.0
 47
1.0
 47
0.0
 47
0.0
 47
0.0
 47
0.0
 47
1.0
171
     0
 49
0.0008202099737533
 49
0.0
 49
0.0
 49
0.0
 49
0.0
 49
0.0008202099737533
 49
0.0
 49
0.0
 49
0.0
 49
0.0
 49
1.0
 49
0.0
 49
0.0
 49
0.0
 49
0.0
 49
1.0
175
     0
142
0.0008202099737533
142
0.0
142
0.0
142
0.0
142
0.0
142
0.0008202099737533
142
0.0
142
0.0
142
0.0
142
0.0
142
1.0
142
0.0
142
0.0
142
0.0
142
0.0
142
1.0
179
     0
144
0.0008202099737533
144
0.0
144
0.0
144
0.0
144
0.0
144
0.0008202099737533
144
0.0
144
0.0
144
0.0
144
0.0
144
1.0
144
0.0
144
0.0
144
0.0
144
0.0
144
1.0
147
0.0008202099737533
147
0.0
147
0.0
147
0.0
147
0.0
147
0.0008202099737533
147
0.0
147
0.0
147
0.0
147
0.0
147
1.0
147
0.0
147
0.0
147
0.0
147
0.0
147
1.0
  0
MATERIAL
  5
193C
102
{ACAD_XDICTIONARY
360
193D
102
}
102
{ACAD_REACTORS
330
1909
102
}
330
1909
100
AcDbMaterial
  1
ByLayer
 72
     0
 43
0.0008202099737533
 43
0.0
 43
0.0
 43
0.0
 43
0.0
 43
0.0008202099737533
 43
0.0
 43
0.0
 43
0.0
 43
0.0
 43
1.0
 43
0.0
 43
0.0
 43
0.0
 43
0.0
 43
1.0
 77
     0
 47
0.0008202099737533
 47
0.0
 47
0.0
 47
0.0
 47
0.0
 47
0.0008202099737533
 47
0.0
 47
0.0
 47
0.0
 47
0.0
 47
1.0
 47
0.0
 47
0.0
 47
0.0
 47
0.0
 47
1.0
171
     0
 49
0.0008202099737533
 49
0.0
 49
0.0
 49
0.0
 49
0.0
 49
0.0008202099737533
 49
0.0
 49
0.0
 49
0.0
 49
0.0
 49
1.0
 49
0.0
 49
0.0
 49
0.0
 49
0.0
 49
1.0
175
     0
142
0.0008202099737533
142
0.0
142
0.0
142
0.0
142
0.0
142
0.0008202099737533
142
0.0
142
0.0
142
0.0
142
0.0
142
1.0
142
0.0
142
0.0
142
0.0
142
0.0
142
1.0
179
     0
144
0.0008202099737533
144
0.0
144
0.0
144
0.0
144
0.0
144
0.0008202099737533
144
0.0
144
0.0
144
0.0
144
0.0
144
1.0
144
0.0
144
0.0
144
0.0
144
0.0
144
1.0
147
0.0008202099737533
147
0.0
147
0.0
147
0.0
147
0.0
147
0.0008202099737533
147
0.0
147
0.0
147
0.0
147
0.0
147
1.0
147
0.0
147
0.0
147
0.0
147
0.0
147
1.0
  0
MATERIAL
  5
194C
102
{ACAD_XDICTIONARY
360
194D
102
}
102
{ACAD_REACTORS
330
1909
102
}
330
1909
100
AcDbMaterial
  1
Global
 72
     0
 43
0.0008202099737533
 43
0.0
 43
0.0
 43
0.0
 43
0.0
 43
0.0008202099737533
 43
0.0
 43
0.0
 43
0.0
 43
0.0
 43
1.0
 43
0.0
 43
0.0
 43
0.0
 43
0.0
 43
1.0
 77
     0
 47
0.0008202099737533
 47
0.0
 47
0.0
 47
0.0
 47
0.0
 47
0.0008202099737533
 47
0.0
 47
0.0
 47
0.0
 47
0.0
 47
1.0
 47
0.0
 47
0.0
 47
0.0
 47
0.0
 47
1.0
171
     0
 49
0.0008202099737533
 49
0.0
 49
0.0
 49
0.0
 49
0.0
 49
0.0008202099737533
 49
0.0
 49
0.0
 49
0.0
 49
0.0
 49
1.0
 49
0.0
 49
0.0
 49
0.0
 49
0.0
 49
1.0
175
     0
142
0.0008202099737533
142
0.0
142
0.0
142
0.0
142
0.0
142
0.0008202099737533
142
0.0
142
0.0
142
0.0
142
0.0
142
1.0
142
0.0
142
0.0
142
0.0
142
0.0
142
1.0
179
     0
144
0.0008202099737533
144
0.0
144
0.0
144
0.0
144
0.0
144
0.0008202099737533
144
0.0
144
0.0
144
0.0
144
0.0
144
1.0
144
0.0
144
0.0
144
0.0
144
0.0
144
1.0
147
0.0008202099737533
147
0.0
147
0.0
147
0.0
147
0.0
147
0.0008202099737533
147
0.0
147
0.0
147
0.0
147
0.0
147
1.0
147
0.0
147
0.0
147
0.0
147
0.0
147
1.0
  0
MLEADERSTYLE
  5
197B
102
{ACAD_REACTORS
330
197A
102
}
330
197A
100
AcDbMLeaderStyle
170
     2
171
     1
172
     0
 90
        2
 40
0.0
 41
0.0
173
     1
 91
-1056964608
340
14
 92
       -2
290
     1
 42
2.0
291
     1
 43
0.36
  3
Standard
 44
4.0
300

342
11
174
     1
178
     6
175
     1
176
     0
 93
-1056964608
 45
4.0
292
     0
297
     0
 46
4.0
 94
-1056964608
 47
1.0
 49
1.0
140
1.0
293
     1
141
0.0
294
     1
177
     0
142
1.0
295
     0
296
     0
143
0.125
1001
ACAD_MLEADERVER
1070
     2
  0
MLINESTYLE
  5
18
102
{ACAD_REACTORS
330
17
102
}
330
17
100
AcDbMlineStyle
  2
STANDARD
 70
     0
  3

 62
   256
 51
90.0
 52
90.0
 71
     2
 49
0.5
 62
   256
  6
BYLAYER
 49
-0.5
 62
   256
  6
BYLAYER
  0
ACDBPLACEHOLDER
  5
F
102
{ACAD_REACTORS
330
E
102
}
330
E
  0
SCALE
  5
1969
102
{ACAD_REACTORS
330
1968
102
}
330
1968
100
AcDbScale
 70
     0
300
1:1
140
1.0
141
1.0
290
     1
  0
SCALE
  5
196A
102
{ACAD_REACTORS
330
1968
102
}
330
1968
100
AcDbScale
 70
     0
300
1:2
140
1.0
141
2.0
290
     0
  0
SCALE
  5
196B
102
{ACAD_REACTORS
330
1968
102
}
330
1968
100
AcDbScale
 70
     0
300
1:4
140
1.0
141
4.0
290
     0
  0
SCALE
  5
196C
102
{ACAD_REACTORS
330
1968
102
}
330
1968
100
AcDbScale
 70
     0
300
1:5
140
1.0
141
5.0
290
     0
  0
SCALE
  5
196D
102
{ACAD_REACTORS
330
1968
102
}
330
1968
100
AcDbScale
 70
     0
300
1:8
140
1.0
141
8.0
290
     0
  0
SCALE
  5
196E
102
{ACAD_REACTORS
330
1968
102
}
330
1968
100
AcDbScale
 70
     0
300
1:10
140
1.0
141
10.0
290
     0
  0
SCALE
  5
196F
102
{ACAD_REACTORS
330
1968
102
}
330
1968
100
AcDbScale
 70
     0
300
1:16
140
1.0
141
16.0
290
     0
  0
SCALE
  5
1970
102
{ACAD_REACTORS
330
1968
102
}
330
1968
100
AcDbScale
 70
     0
300
1:20
140
1.0
141
20.0
290
     0
  0
SCALE
  5
1971
102
{ACAD_REACTORS
330
1968
102
}
330
1968
100
AcDbScale
 70
     0
300
1:30
140
1.0
141
30.0
290
     0
  0
SCALE
  5
1972
102
{ACAD_REACTORS
330
1968
102
}
330
1968
100
AcDbScale
 70
     0
300
1:40
140
1.0
141
40.0
290
     0
  0
SCALE
  5
1973
102
{ACAD_REACTORS
330
1968
102
}
330
1968
100
AcDbScale
 70
     0
300
1:50
140
1.0
141
50.0
290
     0
  0
SCALE
  5
1974
102
{ACAD_REACTORS
330
1968
102
}
330
1968
100
AcDbScale
 70
     0
300
1:100
140
1.0
141
100.0
290
     0
  0
SCALE
  5
1975
102
{ACAD_REACTORS
330
1968
102
}
330
1968
100
AcDbScale
 70
     0
300
2:1
140
2.0
141
1.0
290
     0
  0
SCALE
  5
1976
102
{ACAD_REACTORS
330
1968
102
}
330
1968
100
AcDbScale
 70
     0
300
4:1
140
4.0
141
1.0
290
     0
  0
SCALE
  5
1977
102
{ACAD_REACTORS
330
1968
102
}
330
1968
100
AcDbScale
 70
     0
300
8:1
140
8.0
141
1.0
290
     0
  0
SCALE
  5
1978
102
{ACAD_REACTORS
330
1968
102
}
330
1968
100
AcDbScale
 70
     0
300
10:1
140
10.0
141
1.0
290
     0
  0
SCALE
  5
1979
102
{ACAD_REACTORS
330
1968
102
}
330
1968
100
AcDbScale
 70
     0
300
100:1
140
100.0
141
1.0
290
     0
  0
TABLESTYLE
  5
190C
102
{ACAD_XDICTIONARY
360
19A4
102
}
102
{ACAD_REACTORS
330
190B
102
}
330
190B
100
AcDbTableStyle
  3
Standard
 70
     0
 71
     0
 40
1.5
 41
1.5
280
     0
281
     0
  7
Standard
140
4.5
170
     2
 62
     0
 63
     7
283
     0
274
    -2
284
     1
 64
     0
275
    -2
285
     1
 65
     0
276
    -2
286
     1
 66
     0
277
    -2
287
     1
 67
     0
278
    -2
288
     1
 68
     0
279
    -2
289
     1
 69
     0
  7
Standard
140
6.0
170
     5
 62
     0
 63
     7
283
     0
274
    -2
284
     1
 64
     0
275
    -2
285
     1
 65
     0
276
    -2
286
     1
 66
     0
277
    -2
287
     1
 67
     0
278
    -2
288
     1
 68
     0
279
    -2
289
     1
 69
     0
  7
Standard
140
4.5
170
     5
 62
     0
 63
     7
283
     0
274
    -2
284
     1
 64
     0
275
    -2
285
     1
 65
     0
276
    -2
286
     1
 66
     0
277
    -2
287
     1
 67
     0
278
    -2
288
     1
 68
     0
279
    -2
289
     1
 69
     0
  0
VISUALSTYLE
  5
195A
102
{ACAD_XDICTIONARY
360
19BC
102
}
102
{ACAD_REACTORS
330
1954
102
}
330
1954
100
AcDbVisualStyle
  2
2dWireframe
 70
     4
 71
     0
 72
     2
 73
     0
 90
        0
 40
-0.6
 41
-30.0
 62
     5
 63
     7
 74
     1
 91
        4
 64
     7
 65
   257
 75
     1
175
     1
 42
1.0
 92
        0
 66
   257
 43
1.0
 76
     1
 77
     6
 78
     2
 67
     7
 79
     5
170
     0
171
     0
290
     0
174
     0
 93
        1
 44
0.0
173
     0
291
     0
 45
0.0
1001
ACAD
1000
AcDbSavedByObjectVersion
1070
     0
  0
VISUALSTYLE
  5
195C
102
{ACAD_XDICTIONARY
360
19C0
102
}
102
{ACAD_REACTORS
330
1954
102
}
330
1954
100
AcDbVisualStyle
  2
3D Hidden
 70
     6
 71
     1
 72
     2
 73
     2
 90
        0
 40
-0.6
 41
-30.0
 62
     5
 63
     7
 74
     2
 91
        2
 64
     7
 65
   257
 75
     2
175
     1
 42
179.0
 92
        0
 66
   257
 43
1.0
 76
     1
 77
     6
 78
     2
 67
     7
 79
     3
170
     0
171
     0
290
     0
174
     0
 93
        1
 44
0.0
173
     0
291
     0
 45
0.0
1001
ACAD
1000
AcDbSavedByObjectVersion
1070
     0
  0
VISUALSTYLE
  5
195B
102
{ACAD_XDICTIONARY
360
19BE
102
}
102
{ACAD_REACTORS
330
1954
102
}
330
1954
100
AcDbVisualStyle
  2
3dWireframe
 70
     5
 71
     0
 72
     2
 73
     0
 90
        0
 40
-0.6
 41
-30.0
 62
     5
 63
     7
 74
     1
 91
        4
 64
     7
 65
   257
 75
     1
175
     1
 42
1.0
 92
        0
 66
   257
 43
1.0
 76
     1
 77
     6
 78
     2
 67
     7
 79
     5
170
     0
171
     0
290
     0
174
     0
 93
        1
 44
0.0
173
     0
291
     0
 45
0.0
1001
ACAD
1000
AcDbSavedByObjectVersion
1070
     0
  0
VISUALSTYLE
  5
1959
102
{ACAD_XDICTIONARY
360
19BA
102
}
102
{ACAD_REACTORS
330
1954
102
}
330
1954
100
AcDbVisualStyle
  2
Basic
 70
     7
 71
     1
 72
     0
 73
     1
 90
        0
 40
-0.6
 41
-30.0
 62
     5
 63
     7
 74
     0
 91
        4
 64
     7
 65
   257
 75
     1
175
     1
 42
1.0
 92
        8
 66
     7
 43
1.0
 76
     1
 77
     6
 78
     2
 67
     7
 79
     5
170
     0
171
     0
290
     0
174
     0
 93
        1
 44
0.0
173
     0
291
     1
 45
0.0
1001
ACAD
1000
AcDbSavedByObjectVersion
1070
     0
  0
VISUALSTYLE
  5
1960
102
{ACAD_XDICTIONARY
360
19C8
102
}
102
{ACAD_REACTORS
330
1954
102
}
330
1954
100
AcDbVisualStyle
  2
Brighten
 70
    12
 71
     2
 72
     2
 73
     0
 90
        0
 40
-0.6
 41
-30.0
 62
     5
 63
     7
 74
     1
 91
        4
 64
     7
 65
   257
 75
     1
175
     1
 42
1.0
 92
        8
 66
     7
 43
1.0
 76
     1
 77
     6
 78
     2
 67
     7
 79
     5
170
     0
171
     0
290
     0
174
     0
 93
        1
 44
50.0
173
     0
291
     1
 45
0.0
1001
ACAD
1000
AcDbSavedByObjectVersion
1070
     0
  0
VISUALSTYLE
  5
1964
102
{ACAD_XDICTIONARY
360
19D0
102
}
102
{ACAD_REACTORS
330
1954
102
}
330
1954
100
AcDbVisualStyle
  2
ColorChange
 70
    16
 71
     2
 72
     2
 73
     3
 90
        0
 40
-0.6
 41
-30.0
 62
     5
 63
     8
 74
     1
 91
        4
 64
     7
 65
   257
 75
     1
175
     1
 42
1.0
 92
        8
 66
     8
 43
1.0
 76
     1
 77
     6
 78
     2
 67
     7
 79
     5
170
     0
171
     0
290
     0
174
     0
 93
        1
 44
0.0
173
     0
291
     1
 45
0.0
1001
ACAD
1000
AcDbSavedByObjectVersion
1070
     0
  0
VISUALSTYLE
  5
195D
102
{ACAD_XDICTIONARY
360
19C2
102
}
102
{ACAD_REACTORS
330
1954
102
}
330
1954
100
AcDbVisualStyle
  2
Conceptual
 70
     9
 71
     3
 72
     2
 73
     0
 90
        0
 40
-0.6
 41
-30.0
 62
     5
 63
     7
 74
     2
 91
        2
 64
     7
 65
   257
 75
     1
175
     1
 42
179.0
 92
        8
 66
     7
 43
1.0
 76
     1
 77
     6
 78
     2
 67
     7
 79
     3
170
     0
171
     0
290
     0
174
     0
 93
        1
 44
0.0
173
     0
291
     0
 45
0.0
1001
ACAD
1000
AcDbSavedByObjectVersion
1070
     0
  0
VISUALSTYLE
  5
195F
102
{ACAD_XDICTIONARY
360
19C6
102
}
102
{ACAD_REACTORS
330
1954
102
}
330
1954
100
AcDbVisualStyle
  2
Dim
 70
    11
 71
     2
 72
     2
 73
     0
 90
        0
 40
-0.6
 41
-30.0
 62
     5
 63
     7
 74
     1
 91
        4
 64
     7
 65
   257
 75
     1
175
     1
 42
1.0
 92
        8
 66
     7
 43
1.0
 76
     1
 77
     6
 78
     2
 67
     7
 79
     5
170
     0
171
     0
290
     0
174
     0
 93
        1
 44
-50.0
173
     0
291
     1
 45
0.0
1001
ACAD
1000
AcDbSavedByObjectVersion
1070
     0
  0
VISUALSTYLE
  5
1967
102
{ACAD_XDICTIONARY
360
19D6
102
}
102
{ACAD_REACTORS
330
1954
102
}
330
1954
100
AcDbVisualStyle
  2
EdgeColorOff
 70
    22
 71
     2
 72
     2
 73
     0
 90
        0
 40
-0.6
 41
-30.0
 62
     5
 63
     7
 74
     1
 91
        4
 64
     7
 65
   257
 75
     1
175
     1
 42
1.0
 92
        8
 66
     7
 43
1.0
 76
     1
 77
     6
 78
     2
 67
     7
 79
     5
170
     0
171
     0
290
     0
174
     0
 93
        1
 44
0.0
173
     0
291
     1
 45
0.0
1001
ACAD
1000
AcDbSavedByObjectVersion
1070
     0
  0
VISUALSTYLE
  5
1963
102
{ACAD_XDICTIONARY
360
19CE
102
}
102
{ACAD_REACTORS
330
1954
102
}
330
1954
100
AcDbVisualStyle
  2
Facepattern
 70
    15
 71
     2
 72
     2
 73
     0
 90
        0
 40
-0.6
 41
-30.0
 62
     5
 63
     7
 74
     1
 91
        4
 64
     7
 65
   257
 75
     1
175
     1
 42
1.0
 92
        8
 66
     7
 43
1.0
 76
     1
 77
     6
 78
     2
 67
     7
 79
     5
170
     0
171
     0
290
     0
174
     0
 93
        1
 44
0.0
173
     0
291
     1
 45
0.0
1001
ACAD
1000
AcDbSavedByObjectVersion
1070
     0
  0
VISUALSTYLE
  5
1955
102
{ACAD_XDICTIONARY
360
19B2
102
}
102
{ACAD_REACTORS
330
1954
102
}
330
1954
100
AcDbVisualStyle
  2
Flat
 70
     0
 71
     2
 72
     1
 73
     1
 90
        2
 40
-0.6
 41
30.0
 62
     5
 63
     7
 74
     0
 91
        4
 64
     7
 65
   257
 75
     1
175
     1
 42
1.0
 92
        8
 66
     7
 43
1.0
 76
     1
 77
     6
 78
     2
 67
     7
 79
     5
170
     0
171
     0
290
     0
174
     0
 93
       13
 44
0.0
173
     0
291
     1
 45
0.0
1001
ACAD
1000
AcDbSavedByObjectVersion
1070
     0
  0
VISUALSTYLE
  5
1956
102
{ACAD_XDICTIONARY
360
19B4
102
}
102
{ACAD_REACTORS
330
1954
102
}
330
1954
100
AcDbVisualStyle
  2
FlatWithEdges
 70
     1
 71
     2
 72
     1
 73
     1
 90
        2
 40
-0.6
 41
30.0
 62
     5
 63
     7
 74
     1
 91
        4
 64
     7
 65
   257
 75
     1
175
     1
 42
1.0
 92
        0
 66
   257
 43
1.0
 76
     1
 77
     6
 78
     2
 67
     7
 79
     5
170
     0
171
     0
290
     0
174
     0
 93
       13
 44
0.0
173
     0
291
     1
 45
0.0
1001
ACAD
1000
AcDbSavedByObjectVersion
1070
     0
  0
VISUALSTYLE
  5
1957
102
{ACAD_XDICTIONARY
360
19B6
102
}
102
{ACAD_REACTORS
330
1954
102
}
330
1954
100
AcDbVisualStyle
  2
Gouraud
 70
     2
 71
     2
 72
     2
 73
     1
 90
        2
 40
-0.6
 41
30.0
 62
     5
 63
     7
 74
     0
 91
        4
 64
     7
 65
   257
 75
     1
175
     1
 42
1.0
 92
        0
 66
     7
 43
1.0
 76
     1
 77
     6
 78
     2
 67
     7
 79
     5
170
     0
171
     0
290
     0
174
     0
 93
       13
 44
0.0
173
     0
291
     1
 45
0.0
1001
ACAD
1000
AcDbSavedByObjectVersion
1070
     0
  0
VISUALSTYLE
  5
1958
102
{ACAD_XDICTIONARY
360
19B8
102
}
102
{ACAD_REACTORS
330
1954
102
}
330
1954
100
AcDbVisualStyle
  2
GouraudWithEdges
 70
     3
 71
     2
 72
     2
 73
     1
 90
        2
 40
-0.6
 41
30.0
 62
     5
 63
     7
 74
     1
 91
        4
 64
     7
 65
   257
 75
     1
175
     1
 42
1.0
 92
        0
 66
   257
 43
1.0
 76
     1
 77
     6
 78
     2
 67
     7
 79
     5
170
     0
171
     0
290
     0
174
     0
 93
       13
 44
0.0
173
     0
291
     1
 45
0.0
1001
ACAD
1000
AcDbSavedByObjectVersion
1070
     0
  0
VISUALSTYLE
  5
1965
102
{ACAD_XDICTIONARY
360
19D2
102
}
102
{ACAD_REACTORS
330
1954
102
}
330
1954
100
AcDbVisualStyle
  2
JitterOff
 70
    20
 71
     2
 72
     2
 73
     0
 90
        0
 40
-0.6
 41
-30.0
 62
     5
 63
     7
 74
     1
 91
        4
 64
     7
 65
   257
 75
     1
175
     1
 42
1.0
 92
       10
 66
     7
 43
1.0
 76
     1
 77
     6
 78
     2
 67
     7
 79
     5
170
     0
171
     0
290
     0
174
     0
 93
        1
 44
0.0
173
     0
291
     1
 45
0.0
1001
ACAD
1000
AcDbSavedByObjectVersion
1070
     0
  0
VISUALSTYLE
  5
1962
102
{ACAD_XDICTIONARY
360
19CC
102
}
102
{ACAD_REACTORS
330
1954
102
}
330
1954
100
AcDbVisualStyle
  2
Linepattern
 70
    14
 71
     2
 72
     2
 73
     0
 90
        0
 40
-0.6
 41
-30.0
 62
     5
 63
     7
 74
     1
 91
        4
 64
     7
 65
   257
 75
     7
175
     7
 42
1.0
 92
        8
 66
     7
 43
1.0
 76
     1
 77
     6
 78
     2
 67
     7
 79
     5
170
     0
171
     0
290
     0
174
     0
 93
        1
 44
0.0
173
     0
291
     1
 45
0.0
1001
ACAD
1000
AcDbSavedByObjectVersion
1070
     0
  0
VISUALSTYLE
  5
1966
102
{ACAD_XDICTIONARY
360
19D4
102
}
102
{ACAD_REACTORS
330
1954
102
}
330
1954
100
AcDbVisualStyle
  2
OverhangOff
 70
    21
 71
     2
 72
     2
 73
     0
 90
        0
 40
-0.6
 41
-30.0
 62
     5
 63
     7
 74
     1
 91
        4
 64
     7
 65
   257
 75
     1
175
     1
 42
1.0
 92
        9
 66
     7
 43
1.0
 76
     1
 77
     6
 78
     2
 67
     7
 79
     5
170
     0
171
     0
290
     0
174
     0
 93
        1
 44
0.0
173
     0
291
     1
 45
0.0
1001
ACAD
1000
AcDbSavedByObjectVersion
1070
     0
  0
VISUALSTYLE
  5
195E
102
{ACAD_XDICTIONARY
360
19C4
102
}
102
{ACAD_REACTORS
330
1954
102
}
330
1954
100
AcDbVisualStyle
  2
Realistic
 70
     8
 71
     2
 72
     2
 73
     0
 90
        0
 40
-0.6
 41
-30.0
 62
     5
 63
     7
 74
     1
 91
        0
 64
     7
 65
   257
 75
     1
175
     1
 42
1.0
 92
        8
 66
     8
 43
1.0
 76
     1
 77
     6
 78
     2
 67
     7
 79
     5
170
     0
171
     0
290
     0
174
     0
 93
       13
 44
0.0
173
     0
291
     0
 45
0.0
1001
ACAD
1000
AcDbSavedByObjectVersion
1070
     0
  0
VISUALSTYLE
  5
1961
102
{ACAD_XDICTIONARY
360
19CA
102
}
102
{ACAD_REACTORS
330
1954
102
}
330
1954
100
AcDbVisualStyle
  2
Thicken
 70
    13
 71
     2
 72
     2
 73
     0
 90
        0
 40
-0.6
 41
-30.0
 62
     5
 63
     7
 74
     1
 91
        4
 64
     7
 65
   257
 75
     1
175
     1
 42
1.0
 92
       12
 66
     7
 43
1.0
 76
     1
 77
     6
 78
     2
 67
     7
 79
     5
170
     0
171
     0
290
     0
174
     0
 93
        1
 44
0.0
173
     0
291
     1
 45
0.0
1001
ACAD
1000
AcDbSavedByObjectVersion
1070
     0
  0
DICTIONARYVAR
  5
19A0
102
{ACAD_REACTORS
330
3D
102
}
330
3D
100
DictionaryVariables
280
     0
  1
1:1
  0
DICTIONARYVAR
  5
199F
102
{ACAD_REACTORS
330
3D
102
}
330
3D
100
DictionaryVariables
280
     0
  1
STANDARD
  0
DICTIONARYVAR
  5
1939
102
{ACAD_REACTORS
330
3D
102
}
330
3D
100
DictionaryVariables
280
     0
  1
STANDARD
  0
DICTIONARYVAR
  5
3F
102
{ACAD_REACTORS
330
3D
102
}
330
3D
100
DictionaryVariables
280
     0
  1
2
  0
DICTIONARYVAR
  5
3E
102
{ACAD_REACTORS
330
3D
102
}
330
3D
100
DictionaryVariables
280
     0
  1
1
  0
DICTIONARYVAR
  5
19A2
102
{ACAD_REACTORS
330
3D
102
}
330
3D
100
DictionaryVariables
280
     0
  1
0
  0
DICTIONARYVAR
  5
193A
102
{ACAD_REACTORS
330
3D
102
}
330
3D
100
DictionaryVariables
280
     0
  1

  0
DICTIONARYVAR
  5
19A1
102
{ACAD_REACTORS
330
3D
102
}
330
3D
100
DictionaryVariables
280
     0
  1
127
  0
DICTIONARYVAR
  5
19A3
102
{ACAD_REACTORS
330
3D
102
}
330
3D
100
DictionaryVariables
280
     0
  1
2
  0
XRECORD
  5
1905
102
{ACAD_REACTORS
330
1904
102
}
330
1904
100
AcDbXrecord
280
     1
  0
DICTIONARY
  5
19A8
330
1E
100
AcDbDictionary
280
     1
281
     1
  3
ACAD_XREC_ROUNDTRIP
360
19A9
  0
DICTIONARY
  5
19AC
330
26
100
AcDbDictionary
280
     1
281
     1
  3
ACAD_XREC_ROUNDTRIP
360
19AD
  0
DICTIONARY
  5
19AA
330
22
100
AcDbDictionary
280
     1
281
     1
  3
ACAD_XREC_ROUNDTRIP
360
19AB
  0
DICTIONARY
  5
1945
330
1944
100
AcDbDictionary
280
     1
281
     1
  3
ACAD_XREC_ROUNDTRIP
360
19B0
  3
BUMPTILE
360
1947
  3
DIFFUSETILE
360
1946
  3
OPACITYTILE
360
194A
  3
REFLECTIONTILE
360
1949
  3
REFRACTIONTILE
360
194B
  3
SPECULARTILE
360
1948
  0
DICTIONARY
  5
193D
330
193C
100
AcDbDictionary
280
     1
281
     1
  3
ACAD_XREC_ROUNDTRIP
360
19AF
  3
BUMPTILE
360
193F
  3
DIFFUSETILE
360
193E
  3
OPACITYTILE
360
1942
  3
REFLECTIONTILE
360
1941
  3
REFRACTIONTILE
360
1943
  3
SPECULARTILE
360
1940
  0
DICTIONARY
  5
194D
330
194C
100
AcDbDictionary
280
     1
281
     1
  3
ACAD_XREC_ROUNDTRIP
360
19B1
  3
BUMPTILE
360
194F
  3
DIFFUSETILE
360
194E
  3
OPACITYTILE
360
1952
  3
REFLECTIONTILE
360
1951
  3
REFRACTIONTILE
360
1953
  3
SPECULARTILE
360
1950
  0
DICTIONARY
  5
19A4
330
190C
100
AcDbDictionary
280
     1
281
     1
  3
ACAD_ROUNDTRIP_2008_TABLESTYLE_CELLSTYLEMAP
360
19A5
  3
ACAD_XREC_ROUNDTRIP
360
19AE
  0
DICTIONARY
  5
19BC
330
195A
100
AcDbDictionary
280
     1
281
     1
  3
ACAD_XREC_ROUNDTRIP
360
19BD
  0
DICTIONARY
  5
19C0
330
195C
100
AcDbDictionary
280
     1
281
     1
  3
ACAD_XREC_ROUNDTRIP
360
19C1
  0
DICTIONARY
  5
19BE
330
195B
100
AcDbDictionary
280
     1
281
     1
  3
ACAD_XREC_ROUNDTRIP
360
19BF
  0
DICTIONARY
  5
19BA
330
1959
100
AcDbDictionary
280
     1
281
     1
  3
ACAD_XREC_ROUNDTRIP
360
19BB
  0
DICTIONARY
  5
19C8
330
1960
100
AcDbDictionary
280
     1
281
     1
  3
ACAD_XREC_ROUNDTRIP
360
19C9
  0
DICTIONARY
  5
19D0
330
1964
100
AcDbDictionary
280
     1
281
     1
  3
ACAD_XREC_ROUNDTRIP
360
19D1
  0
DICTIONARY
  5
19C2
330
195D
100
AcDbDictionary
280
     1
281
     1
  3
ACAD_XREC_ROUNDTRIP
360
19C3
  0
DICTIONARY
  5
19C6
330
195F
100
AcDbDictionary
280
     1
281
     1
  3
ACAD_XREC_ROUNDTRIP
360
19C7
  0
DICTIONARY
  5
19D6
330
1967
100
AcDbDictionary
280
     1
281
     1
  3
ACAD_XREC_ROUNDTRIP
360
19D7
  0
DICTIONARY
  5
19CE
330
1963
100
AcDbDictionary
280
     1
281
     1
  3
ACAD_XREC_ROUNDTRIP
360
19CF
  0
DICTIONARY
  5
19B2
330
1955
100
AcDbDictionary
280
     1
281
     1
  3
ACAD_XREC_ROUNDTRIP
360
19B3
  0
DICTIONARY
  5
19B4
330
1956
100
AcDbDictionary
280
     1
281
     1
  3
ACAD_XREC_ROUNDTRIP
360
19B5
  0
DICTIONARY
  5
19B6
330
1957
100
AcDbDictionary
280
     1
281
     1
  3
ACAD_XREC_ROUNDTRIP
360
19B7
  0
DICTIONARY
  5
19B8
330
1958
100
AcDbDictionary
280
     1
281
     1
  3
ACAD_XREC_ROUNDTRIP
360
19B9
  0
DICTIONARY
  5
19D2
330
1965
100
AcDbDictionary
280
     1
281
     1
  3
ACAD_XREC_ROUNDTRIP
360
19D3
  0
DICTIONARY
  5
19CC
330
1962
100
AcDbDictionary
280
     1
281
     1
  3
ACAD_XREC_ROUNDTRIP
360
19CD
  0
DICTIONARY
  5
19D4
330
1966
100
AcDbDictionary
280
     1
281
     1
  3
ACAD_XREC_ROUNDTRIP
360
19D5
  0
DICTIONARY
  5
19C4
330
195E
100
AcDbDictionary
280
     1
281
     1
  3
ACAD_XREC_ROUNDTRIP
360
19C5
  0
DICTIONARY
  5
19CA
330
1961
100
AcDbDictionary
280
     1
281
     1
  3
ACAD_XREC_ROUNDTRIP
360
19CB
  0
XRECORD
  5
19A9
102
{ACAD_REACTORS
330
19A8
102
}
330
19A8
100
AcDbXrecord
280
     1
102
SHADEPLOT
 70
     0
102
SHADEPLOTRESLEVEL
 70
     2
102
SHADEPLOTCUSTOMDPI
 70
   300
  0
XRECORD
  5
19AD
102
{ACAD_REACTORS
330
19AC
102
}
330
19AC
100
AcDbXrecord
280
     1
102
SHADEPLOT
 70
     0
102
SHADEPLOTRESLEVEL
 70
     2
102
SHADEPLOTCUSTOMDPI
 70
   300
  0
XRECORD
  5
19AB
102
{ACAD_REACTORS
330
19AA
102
}
330
19AA
100
AcDbXrecord
280
     1
102
SHADEPLOT
 70
     0
102
SHADEPLOTRESLEVEL
 70
     2
102
SHADEPLOTCUSTOMDPI
 70
   300
  0
XRECORD
  5
19B0
102
{ACAD_REACTORS
330
1945
102
}
330
1945
100
AcDbXrecord
280
     1
102
MATERIAL
148
0.0
149
0.0
149
0.0
 93
        0
 94
      127
282
     0
 72
     0
 77
     0
171
     0
175
     0
179
     0
273
     0
  0
XRECORD
  5
1947
102
{ACAD_REACTORS
330
1945
102
}
330
1945
100
AcDbXrecord
280
     1
270
     1
271
     1
  0
XRECORD
  5
1946
102
{ACAD_REACTORS
330
1945
102
}
330
1945
100
AcDbXrecord
280
     1
270
     1
271
     1
  0
XRECORD
  5
194A
102
{ACAD_REACTORS
330
1945
102
}
330
1945
100
AcDbXrecord
280
     1
270
     1
271
     1
  0
XRECORD
  5
1949
102
{ACAD_REACTORS
330
1945
102
}
330
1945
100
AcDbXrecord
280
     1
270
     1
271
     1
  0
XRECORD
  5
194B
102
{ACAD_REACTORS
330
1945
102
}
330
1945
100
AcDbXrecord
280
     1
270
     1
271
     1
  0
XRECORD
  5
1948
102
{ACAD_REACTORS
330
1945
102
}
330
1945
100
AcDbXrecord
280
     1
270
     1
271
     1
  0
XRECORD
  5
19AF
102
{ACAD_REACTORS
330
193D
102
}
330
193D
100
AcDbXrecord
280
     1
102
MATERIAL
148
0.0
149
0.0
149
0.0
 93
        0
 94
      127
282
     0
 72
     0
 77
     0
171
     0
175
     0
179
     0
273
     0
  0
XRECORD
  5
193F
102
{ACAD_REACTORS
330
193D
102
}
330
193D
100
AcDbXrecord
280
     1
270
     1
271
     1
  0
XRECORD
  5
193E
102
{ACAD_REACTORS
330
193D
102
}
330
193D
100
AcDbXrecord
280
     1
270
     1
271
     1
  0
XRECORD
  5
1942
102
{ACAD_REACTORS
330
193D
102
}
330
193D
100
AcDbXrecord
280
     1
270
     1
271
     1
  0
XRECORD
  5
1941
102
{ACAD_REACTORS
330
193D
102
}
330
193D
100
AcDbXrecord
280
     1
270
     1
271
     1
  0
XRECORD
  5
1943
102
{ACAD_REACTORS
330
193D
102
}
330
193D
100
AcDbXrecord
280
     1
270
     1
271
     1
  0
XRECORD
  5
1940
102
{ACAD_REACTORS
330
193D
102
}
330
193D
100
AcDbXrecord
280
     1
270
     1
271
     1
  0
XRECORD
  5
19B1
102
{ACAD_REACTORS
330
194D
102
}
330
194D
100
AcDbXrecord
280
     1
102
MATERIAL
148
0.0
149
0.0
149
0.0
 93
        0
 94
      127
282
     0
 72
     0
 77
     0
171
     0
175
     0
179
     0
273
     0
  0
XRECORD
  5
194F
102
{ACAD_REACTORS
330
194D
102
}
330
194D
100
AcDbXrecord
280
     1
270
     1
271
     1
  0
XRECORD
  5
194E
102
{ACAD_REACTORS
330
194D
102
}
330
194D
100
AcDbXrecord
280
     1
270
     1
271
     1
  0
XRECORD
  5
1952
102
{ACAD_REACTORS
330
194D
102
}
330
194D
100
AcDbXrecord
280
     1
270
     1
271
     1
  0
XRECORD
  5
1951
102
{ACAD_REACTORS
330
194D
102
}
330
194D
100
AcDbXrecord
280
     1
270
     1
271
     1
  0
XRECORD
  5
1953
102
{ACAD_REACTORS
330
194D
102
}
330
194D
100
AcDbXrecord
280
     1
270
     1
271
     1
  0
XRECORD
  5
1950
102
{ACAD_REACTORS
330
194D
102
}
330
194D
100
AcDbXrecord
280
     1
270
     1
271
     1
  0
CELLSTYLEMAP
  5
19A5
102
{ACAD_REACTORS
330
19A4
102
}
330
19A4
100
AcDbCellStyleMap
 90
        3
300
CELLSTYLE
  1
TABLEFORMAT_BEGIN
 90
        5
170
     1
 91
        0
 92
    32768
 62
   257
 93
        1
300
CONTENTFORMAT
  1
CONTENTFORMAT_BEGIN
 90
        0
 91
        0
 92
        4
 93
        0
300

 40
0.0
140
1.0
 94
        5
 62
     0
340
11
144
6.0
309
CONTENTFORMAT_END
171
     1
301
MARGIN
  1
CELLMARGIN_BEGIN
 40
1.5
 40
1.5
 40
1.5
 40
1.5
 40
0.18
 40
0.18
309
CELLMARGIN_END
 94
        6
 95
        1
302
GRIDFORMAT
  1
GRIDFORMAT_BEGIN
 90
        0
 91
        1
 62
     0
 92
       -2
340
0
 93
        0
 40
0.045
309
GRIDFORMAT_END
 95
        2
302
GRIDFORMAT
  1
GRIDFORMAT_BEGIN
 90
        0
 91
        1
 62
     0
 92
       -2
340
0
 93
        0
 40
0.045
309
GRIDFORMAT_END
 95
        4
302
GRIDFORMAT
  1
GRIDFORMAT_BEGIN
 90
        0
 91
        1
 62
     0
 92
       -2
340
0
 93
        0
 40
0.045
309
GRIDFORMAT_END
 95
        8
302
GRIDFORMAT
  1
GRIDFORMAT_BEGIN
 90
        0
 91
        1
 62
     0
 92
       -2
340
0
 93
        0
 40
0.045
309
GRIDFORMAT_END
 95
       16
302
GRIDFORMAT
  1
GRIDFORMAT_BEGIN
 90
        0
 91
        1
 62
     0
 92
       -2
340
0
 93
        0
 40
0.045
309
GRIDFORMAT_END
 95
       32
302
GRIDFORMAT
  1
GRIDFORMAT_BEGIN
 90
        0
 91
        1
 62
     0
 92
       -2
340
0
 93
        0
 40
0.045
309
GRIDFORMAT_END
309
TABLEFORMAT_END
  1
CELLSTYLE_BEGIN
 90
        1
 91
        1
300
_TITLE
309
CELLSTYLE_END
300
CELLSTYLE
  1
TABLEFORMAT_BEGIN
 90
        5
170
     1
 91
        0
 92
        0
 62
   257
 93
        1
300
CONTENTFORMAT
  1
CONTENTFORMAT_BEGIN
 90
        0
 91
        0
 92
        4
 93
        0
300

 40
0.0
140
1.0
 94
        5
 62
     0
340
11
144
4.5
309
CONTENTFORMAT_END
171
     1
301
MARGIN
  1
CELLMARGIN_BEGIN
 40
1.5
 40
1.5
 40
1.5
 40
1.5
 40
0.18
 40
0.18
309
CELLMARGIN_END
 94
        6
 95
        1
302
GRIDFORMAT
  1
GRIDFORMAT_BEGIN
 90
        0
 91
        1
 62
     0
 92
       -2
340
0
 93
        0
 40
0.045
309
GRIDFORMAT_END
 95
        2
302
GRIDFORMAT
  1
GRIDFORMAT_BEGIN
 90
        0
 91
        1
 62
     0
 92
       -2
340
0
 93
        0
 40
0.045
309
GRIDFORMAT_END
 95
        4
302
GRIDFORMAT
  1
GRIDFORMAT_BEGIN
 90
        0
 91
        1
 62
     0
 92
       -2
340
0
 93
        0
 40
0.045
309
GRIDFORMAT_END
 95
        8
302
GRIDFORMAT
  1
GRIDFORMAT_BEGIN
 90
        0
 91
        1
 62
     0
 92
       -2
340
0
 93
        0
 40
0.045
309
GRIDFORMAT_END
 95
       16
302
GRIDFORMAT
  1
GRIDFORMAT_BEGIN
 90
        0
 91
        1
 62
     0
 92
       -2
340
0
 93
        0
 40
0.045
309
GRIDFORMAT_END
 95
       32
302
GRIDFORMAT
  1
GRIDFORMAT_BEGIN
 90
        0
 91
        1
 62
     0
 92
       -2
340
0
 93
        0
 40
0.045
309
GRIDFORMAT_END
309
TABLEFORMAT_END
  1
CELLSTYLE_BEGIN
 90
        2
 91
        1
300
_HEADER
309
CELLSTYLE_END
300
CELLSTYLE
  1
TABLEFORMAT_BEGIN
 90
        5
170
     1
 91
        0
 92
        0
 62
   257
 93
        1
300
CONTENTFORMAT
  1
CONTENTFORMAT_BEGIN
 90
        0
 91
        0
 92
        4
 93
        0
300

 40
0.0
140
1.0
 94
        2
 62
     0
340
11
144
4.5
309
CONTENTFORMAT_END
171
     1
301
MARGIN
  1
CELLMARGIN_BEGIN
 40
1.5
 40
1.5
 40
1.5
 40
1.5
 40
0.18
 40
0.18
309
CELLMARGIN_END
 94
        6
 95
        1
302
GRIDFORMAT
  1
GRIDFORMAT_BEGIN
 90
        0
 91
        1
 62
     0
 92
       -2
340
0
 93
        0
 40
0.045
309
GRIDFORMAT_END
 95
        2
302
GRIDFORMAT
  1
GRIDFORMAT_BEGIN
 90
        0
 91
        1
 62
     0
 92
       -2
340
0
 93
        0
 40
0.045
309
GRIDFORMAT_END
 95
        4
302
GRIDFORMAT
  1
GRIDFORMAT_BEGIN
 90
        0
 91
        1
 62
     0
 92
       -2
340
0
 93
        0
 40
0.045
309
GRIDFORMAT_END
 95
        8
302
GRIDFORMAT
  1
GRIDFORMAT_BEGIN
 90
        0
 91
        1
 62
     0
 92
       -2
340
0
 93
        0
 40
0.045
309
GRIDFORMAT_END
 95
       16
302
GRIDFORMAT
  1
GRIDFORMAT_BEGIN
 90
        0
 91
        1
 62
     0
 92
       -2
340
0
 93
        0
 40
0.045
309
GRIDFORMAT_END
 95
       32
302
GRIDFORMAT
  1
GRIDFORMAT_BEGIN
 90
        0
 91
        1
 62
     0
 92
       -2
340
0
 93
        0
 40
0.045
309
GRIDFORMAT_END
309
TABLEFORMAT_END
  1
CELLSTYLE_BEGIN
 90
        3
 91
        2
300
_DATA
309
CELLSTYLE_END
  0
XRECORD
  5
19AE
102
{ACAD_REACTORS
330
19A4
102
}
330
19A4
100
AcDbXrecord
280
     1
102
ACAD_ROUNDTRIP_PRE2007_TABLESTYLE
 90
        4
 91
        0
  1

 92
        4
 93
        0
  2

 94
        4
 95
        0
  3

  0
XRECORD
  5
19BD
102
{ACAD_REACTORS
330
19BC
102
}
330
19BC
100
AcDbXrecord
280
     1
102
RTVSPropertyOp0
 70
     1
102
RTVSPropertyOp1
 70
     1
102
RTVSPropertyOp2
 70
     1
102
RTVSPropertyOp3
 70
     1
102
RTVSPropertyOp4
 70
     1
102
RTVSPropertyOp5
 70
     1
102
RTVSPropertyOp6
 70
     1
102
RTVSPropertyOp7
 70
     1
102
RTVSPropertyOp8
 70
     1
102
RTVSPropertyOp9
 70
     1
102
RTVSPropertyOp10
 70
     1
102
RTVSPropertyOp11
 70
     1
102
RTVSPropertyOp12
 70
     1
102
RTVSPropertyOp13
 70
     1
102
RTVSPropertyOp14
 70
     1
102
RTVSPropertyOp15
 70
     1
102
RTVSPropertyOp16
 70
     1
102
RTVSPropertyOp17
 70
     1
102
RTVSPropertyOp18
 70
     1
102
RTVSPropertyOp19
 70
     1
102
RTVSPropertyOp20
 70
     1
102
RTVSPropertyOp21
 70
     1
102
RTVSPropertyOp22
 70
     1
102
RTVSPropertyOp23
 70
     1
102
RTVSPropertyOp24
 70
     1
102
RTVSPropertyOp25
 70
     1
102
RTVSPropertyOp26
 70
     1
102
RTVSPropertyOp27
 70
     1
  0
XRECORD
  5
19C1
102
{ACAD_REACTORS
330
19C0
102
}
330
19C0
100
AcDbXrecord
280
     1
102
RTVSPropertyOp0
 70
     1
102
RTVSPropertyOp1
 70
     1
102
RTVSPropertyOp2
 70
     1
102
RTVSPropertyOp3
 70
     1
102
RTVSPropertyOp4
 70
     1
102
RTVSPropertyOp5
 70
     1
102
RTVSPropertyOp6
 70
     1
102
RTVSPropertyOp7
 70
     1
102
RTVSPropertyOp8
 70
     1
102
RTVSPropertyOp9
 70
     1
102
RTVSPropertyOp10
 70
     1
102
RTVSPropertyOp11
 70
     1
102
RTVSPropertyOp12
 70
     1
102
RTVSPropertyOp13
 70
     1
102
RTVSPropertyOp14
 70
     1
102
RTVSPropertyOp15
 70
     1
102
RTVSPropertyOp16
 70
     1
102
RTVSPropertyOp17
 70
     1
102
RTVSPropertyOp18
 70
     1
102
RTVSPropertyOp19
 70
     1
102
RTVSPropertyOp20
 70
     1
102
RTVSPropertyOp21
 70
     1
102
RTVSPropertyOp22
 70
     1
102
RTVSPropertyOp23
 70
     1
102
RTVSPropertyOp24
 70
     1
102
RTVSPropertyOp25
 70
     1
102
RTVSPropertyOp26
 70
     1
102
RTVSPropertyOp27
 70
     1
  0
XRECORD
  5
19BF
102
{ACAD_REACTORS
330
19BE
102
}
330
19BE
100
AcDbXrecord
280
     1
102
RTVSPropertyOp0
 70
     1
102
RTVSPropertyOp1
 70
     1
102
RTVSPropertyOp2
 70
     1
102
RTVSPropertyOp3
 70
     1
102
RTVSPropertyOp4
 70
     1
102
RTVSPropertyOp5
 70
     1
102
RTVSPropertyOp6
 70
     1
102
RTVSPropertyOp7
 70
     1
102
RTVSPropertyOp8
 70
     1
102
RTVSPropertyOp9
 70
     1
102
RTVSPropertyOp10
 70
     1
102
RTVSPropertyOp11
 70
     1
102
RTVSPropertyOp12
 70
     1
102
RTVSPropertyOp13
 70
     1
102
RTVSPropertyOp14
 70
     1
102
RTVSPropertyOp15
 70
     1
102
RTVSPropertyOp16
 70
     1
102
RTVSPropertyOp17
 70
     1
102
RTVSPropertyOp18
 70
     1
102
RTVSPropertyOp19
 70
     1
102
RTVSPropertyOp20
 70
     1
102
RTVSPropertyOp21
 70
     1
102
RTVSPropertyOp22
 70
     1
102
RTVSPropertyOp23
 70
     1
102
RTVSPropertyOp24
 70
     1
102
RTVSPropertyOp25
 70
     1
102
RTVSPropertyOp26
 70
     1
102
RTVSPropertyOp27
 70
     1
  0
XRECORD
  5
19BB
102
{ACAD_REACTORS
330
19BA
102
}
330
19BA
100
AcDbXrecord
280
     1
102
RTVSPropertyOp0
 70
     1
102
RTVSPropertyOp1
 70
     1
102
RTVSPropertyOp2
 70
     1
102
RTVSPropertyOp3
 70
     1
102
RTVSPropertyOp4
 70
     1
102
RTVSPropertyOp5
 70
     1
102
RTVSPropertyOp6
 70
     1
102
RTVSPropertyOp7
 70
     1
102
RTVSPropertyOp8
 70
     1
102
RTVSPropertyOp9
 70
     1
102
RTVSPropertyOp10
 70
     1
102
RTVSPropertyOp11
 70
     1
102
RTVSPropertyOp12
 70
     1
102
RTVSPropertyOp13
 70
     1
102
RTVSPropertyOp14
 70
     1
102
RTVSPropertyOp15
 70
     1
102
RTVSPropertyOp16
 70
     1
102
RTVSPropertyOp17
 70
     1
102
RTVSPropertyOp18
 70
     1
102
RTVSPropertyOp19
 70
     1
102
RTVSPropertyOp20
 70
     1
102
RTVSPropertyOp21
 70
     1
102
RTVSPropertyOp22
 70
     1
102
RTVSPropertyOp23
 70
     1
102
RTVSPropertyOp24
 70
     1
102
RTVSPropertyOp25
 70
     1
102
RTVSPropertyOp26
 70
     1
102
RTVSPropertyOp27
 70
     1
  0
XRECORD
  5
19C9
102
{ACAD_REACTORS
330
19C8
102
}
330
19C8
100
AcDbXrecord
280
     1
102
RTVSPropertyOp0
 70
     1
102
RTVSPropertyOp1
 70
     1
102
RTVSPropertyOp2
 70
     1
102
RTVSPropertyOp3
 70
     1
102
RTVSPropertyOp4
 70
     1
102
RTVSPropertyOp5
 70
     1
102
RTVSPropertyOp6
 70
     1
102
RTVSPropertyOp7
 70
     1
102
RTVSPropertyOp8
 70
     1
102
RTVSPropertyOp9
 70
     1
102
RTVSPropertyOp10
 70
     1
102
RTVSPropertyOp11
 70
     1
102
RTVSPropertyOp12
 70
     1
102
RTVSPropertyOp13
 70
     1
102
RTVSPropertyOp14
 70
     1
102
RTVSPropertyOp15
 70
     1
102
RTVSPropertyOp16
 70
     1
102
RTVSPropertyOp17
 70
     1
102
RTVSPropertyOp18
 70
     1
102
RTVSPropertyOp19
 70
     1
102
RTVSPropertyOp20
 70
     1
102
RTVSPropertyOp21
 70
     1
102
RTVSPropertyOp22
 70
     1
102
RTVSPropertyOp23
 70
     1
102
RTVSPropertyOp24
 70
     1
102
RTVSPropertyOp25
 70
     1
102
RTVSPropertyOp26
 70
     1
102
RTVSPropertyOp27
 70
     1
  0
XRECORD
  5
19D1
102
{ACAD_REACTORS
330
19D0
102
}
330
19D0
100
AcDbXrecord
280
     1
102
RTVSPropertyOp0
 70
     1
102
RTVSPropertyOp1
 70
     1
102
RTVSPropertyOp2
 70
     1
102
RTVSPropertyOp3
 70
     1
102
RTVSPropertyOp4
 70
     1
102
RTVSPropertyOp5
 70
     1
102
RTVSPropertyOp6
 70
     1
102
RTVSPropertyOp7
 70
     1
102
RTVSPropertyOp8
 70
     1
102
RTVSPropertyOp9
 70
     1
102
RTVSPropertyOp10
 70
     1
102
RTVSPropertyOp11
 70
     1
102
RTVSPropertyOp12
 70
     1
102
RTVSPropertyOp13
 70
     1
102
RTVSPropertyOp14
 70
     1
102
RTVSPropertyOp15
 70
     1
102
RTVSPropertyOp16
 70
     1
102
RTVSPropertyOp17
 70
     1
102
RTVSPropertyOp18
 70
     1
102
RTVSPropertyOp19
 70
     1
102
RTVSPropertyOp20
 70
     1
102
RTVSPropertyOp21
 70
     1
102
RTVSPropertyOp22
 70
     1
102
RTVSPropertyOp23
 70
     1
102
RTVSPropertyOp24
 70
     1
102
RTVSPropertyOp25
 70
     1
102
RTVSPropertyOp26
 70
     1
102
RTVSPropertyOp27
 70
     1
  0
XRECORD
  5
19C3
102
{ACAD_REACTORS
330
19C2
102
}
330
19C2
100
AcDbXrecord
280
     1
102
RTVSPropertyOp0
 70
     1
102
RTVSPropertyOp1
 70
     1
102
RTVSPropertyOp2
 70
     1
102
RTVSPropertyOp3
 70
     1
102
RTVSPropertyOp4
 70
     1
102
RTVSPropertyOp5
 70
     1
102
RTVSPropertyOp6
 70
     1
102
RTVSPropertyOp7
 70
     1
102
RTVSPropertyOp8
 70
     1
102
RTVSPropertyOp9
 70
     1
102
RTVSPropertyOp10
 70
     1
102
RTVSPropertyOp11
 70
     1
102
RTVSPropertyOp12
 70
     1
102
RTVSPropertyOp13
 70
     1
102
RTVSPropertyOp14
 70
     1
102
RTVSPropertyOp15
 70
     1
102
RTVSPropertyOp16
 70
     1
102
RTVSPropertyOp17
 70
     1
102
RTVSPropertyOp18
 70
     1
102
RTVSPropertyOp19
 70
     1
102
RTVSPropertyOp20
 70
     1
102
RTVSPropertyOp21
 70
     1
102
RTVSPropertyOp22
 70
     1
102
RTVSPropertyOp23
 70
     1
102
RTVSPropertyOp24
 70
     1
102
RTVSPropertyOp25
 70
     1
102
RTVSPropertyOp26
 70
     1
102
RTVSPropertyOp27
 70
     1
  0
XRECORD
  5
19C7
102
{ACAD_REACTORS
330
19C6
102
}
330
19C6
100
AcDbXrecord
280
     1
102
RTVSPropertyOp0
 70
     1
102
RTVSPropertyOp1
 70
     1
102
RTVSPropertyOp2
 70
     1
102
RTVSPropertyOp3
 70
     1
102
RTVSPropertyOp4
 70
     1
102
RTVSPropertyOp5
 70
     1
102
RTVSPropertyOp6
 70
     1
102
RTVSPropertyOp7
 70
     1
102
RTVSPropertyOp8
 70
     1
102
RTVSPropertyOp9
 70
     1
102
RTVSPropertyOp10
 70
     1
102
RTVSPropertyOp11
 70
     1
102
RTVSPropertyOp12
 70
     1
102
RTVSPropertyOp13
 70
     1
102
RTVSPropertyOp14
 70
     1
102
RTVSPropertyOp15
 70
     1
102
RTVSPropertyOp16
 70
     1
102
RTVSPropertyOp17
 70
     1
102
RTVSPropertyOp18
 70
     1
102
RTVSPropertyOp19
 70
     1
102
RTVSPropertyOp20
 70
     1
102
RTVSPropertyOp21
 70
     1
102
RTVSPropertyOp22
 70
     1
102
RTVSPropertyOp23
 70
     1
102
RTVSPropertyOp24
 70
     1
102
RTVSPropertyOp25
 70
     1
102
RTVSPropertyOp26
 70
     1
102
RTVSPropertyOp27
 70
     1
  0
XRECORD
  5
19D7
102
{ACAD_REACTORS
330
19D6
102
}
330
19D6
100
AcDbXrecord
280
     1
102
RTVSPropertyOp0
 70
     0
102
RTVSPropertyOp1
 70
     0
102
RTVSPropertyOp2
 70
     0
102
RTVSPropertyOp3
 70
     0
102
RTVSPropertyOp4
 70
     0
102
RTVSPropertyOp5
 70
     0
102
RTVSPropertyOp6
 70
     0
102
RTVSPropertyOp7
 70
     0
102
RTVSPropertyOp8
 70
     0
102
RTVSPropertyOp9
 70
     0
102
RTVSPropertyOp10
 70
     0
102
RTVSPropertyOp11
 70
     0
102
RTVSPropertyOp12
 70
     0
102
RTVSPropertyOp13
 70
     0
102
RTVSPropertyOp14
 70
     2
102
RTVSPropertyOp15
 70
     0
102
RTVSPropertyOp16
 70
     0
102
RTVSPropertyOp17
 70
     0
102
RTVSPropertyOp18
 70
     0
102
RTVSPropertyOp19
 70
     0
102
RTVSPropertyOp20
 70
     0
102
RTVSPropertyOp21
 70
     0
102
RTVSPropertyOp22
 70
     0
102
RTVSPropertyOp23
 70
     0
102
RTVSPropertyOp24
 70
     0
102
RTVSPropertyOp25
 70
     0
102
RTVSPropertyOp26
 70
     0
102
RTVSPropertyOp27
 70
     0
  0
XRECORD
  5
19CF
102
{ACAD_REACTORS
330
19CE
102
}
330
19CE
100
AcDbXrecord
280
     1
102
RTVSPropertyOp0
 70
     1
102
RTVSPropertyOp1
 70
     1
102
RTVSPropertyOp2
 70
     1
102
RTVSPropertyOp3
 70
     1
102
RTVSPropertyOp4
 70
     1
102
RTVSPropertyOp5
 70
     1
102
RTVSPropertyOp6
 70
     1
102
RTVSPropertyOp7
 70
     1
102
RTVSPropertyOp8
 70
     1
102
RTVSPropertyOp9
 70
     1
102
RTVSPropertyOp10
 70
     1
102
RTVSPropertyOp11
 70
     1
102
RTVSPropertyOp12
 70
     1
102
RTVSPropertyOp13
 70
     1
102
RTVSPropertyOp14
 70
     1
102
RTVSPropertyOp15
 70
     1
102
RTVSPropertyOp16
 70
     1
102
RTVSPropertyOp17
 70
     1
102
RTVSPropertyOp18
 70
     1
102
RTVSPropertyOp19
 70
     1
102
RTVSPropertyOp20
 70
     1
102
RTVSPropertyOp21
 70
     1
102
RTVSPropertyOp22
 70
     1
102
RTVSPropertyOp23
 70
     1
102
RTVSPropertyOp24
 70
     1
102
RTVSPropertyOp25
 70
     1
102
RTVSPropertyOp26
 70
     1
102
RTVSPropertyOp27
 70
     1
  0
XRECORD
  5
19B3
102
{ACAD_REACTORS
330
19B2
102
}
330
19B2
100
AcDbXrecord
280
     1
102
RTVSPropertyOp0
 70
     1
102
RTVSPropertyOp1
 70
     1
102
RTVSPropertyOp2
 70
     1
102
RTVSPropertyOp3
 70
     1
102
RTVSPropertyOp4
 70
     1
102
RTVSPropertyOp5
 70
     1
102
RTVSPropertyOp6
 70
     1
102
RTVSPropertyOp7
 70
     1
102
RTVSPropertyOp8
 70
     1
102
RTVSPropertyOp9
 70
     1
102
RTVSPropertyOp10
 70
     1
102
RTVSPropertyOp11
 70
     1
102
RTVSPropertyOp12
 70
     1
102
RTVSPropertyOp13
 70
     1
102
RTVSPropertyOp14
 70
     1
102
RTVSPropertyOp15
 70
     1
102
RTVSPropertyOp16
 70
     1
102
RTVSPropertyOp17
 70
     1
102
RTVSPropertyOp18
 70
     1
102
RTVSPropertyOp19
 70
     1
102
RTVSPropertyOp20
 70
     1
102
RTVSPropertyOp21
 70
     1
102
RTVSPropertyOp22
 70
     1
102
RTVSPropertyOp23
 70
     1
102
RTVSPropertyOp24
 70
     1
102
RTVSPropertyOp25
 70
     1
102
RTVSPropertyOp26
 70
     1
102
RTVSPropertyOp27
 70
     1
  0
XRECORD
  5
19B5
102
{ACAD_REACTORS
330
19B4
102
}
330
19B4
100
AcDbXrecord
280
     1
102
RTVSPropertyOp0
 70
     1
102
RTVSPropertyOp1
 70
     1
102
RTVSPropertyOp2
 70
     1
102
RTVSPropertyOp3
 70
     1
102
RTVSPropertyOp4
 70
     1
102
RTVSPropertyOp5
 70
     1
102
RTVSPropertyOp6
 70
     1
102
RTVSPropertyOp7
 70
     1
102
RTVSPropertyOp8
 70
     1
102
RTVSPropertyOp9
 70
     1
102
RTVSPropertyOp10
 70
     1
102
RTVSPropertyOp11
 70
     1
102
RTVSPropertyOp12
 70
     1
102
RTVSPropertyOp13
 70
     1
102
RTVSPropertyOp14
 70
     1
102
RTVSPropertyOp15
 70
     1
102
RTVSPropertyOp16
 70
     1
102
RTVSPropertyOp17
 70
     1
102
RTVSPropertyOp18
 70
     1
102
RTVSPropertyOp19
 70
     1
102
RTVSPropertyOp20
 70
     1
102
RTVSPropertyOp21
 70
     1
102
RTVSPropertyOp22
 70
     1
102
RTVSPropertyOp23
 70
     1
102
RTVSPropertyOp24
 70
     1
102
RTVSPropertyOp25
 70
     1
102
RTVSPropertyOp26
 70
     1
102
RTVSPropertyOp27
 70
     1
  0
XRECORD
  5
19B7
102
{ACAD_REACTORS
330
19B6
102
}
330
19B6
100
AcDbXrecord
280
     1
102
RTVSPropertyOp0
 70
     1
102
RTVSPropertyOp1
 70
     1
102
RTVSPropertyOp2
 70
     1
102
RTVSPropertyOp3
 70
     1
102
RTVSPropertyOp4
 70
     1
102
RTVSPropertyOp5
 70
     1
102
RTVSPropertyOp6
 70
     1
102
RTVSPropertyOp7
 70
     1
102
RTVSPropertyOp8
 70
     1
102
RTVSPropertyOp9
 70
     1
102
RTVSPropertyOp10
 70
     1
102
RTVSPropertyOp11
 70
     1
102
RTVSPropertyOp12
 70
     1
102
RTVSPropertyOp13
 70
     1
102
RTVSPropertyOp14
 70
     1
102
RTVSPropertyOp15
 70
     1
102
RTVSPropertyOp16
 70
     1
102
RTVSPropertyOp17
 70
     1
102
RTVSPropertyOp18
 70
     1
102
RTVSPropertyOp19
 70
     1
102
RTVSPropertyOp20
 70
     1
102
RTVSPropertyOp21
 70
     1
102
RTVSPropertyOp22
 70
     1
102
RTVSPropertyOp23
 70
     1
102
RTVSPropertyOp24
 70
     1
102
RTVSPropertyOp25
 70
     1
102
RTVSPropertyOp26
 70
     1
102
RTVSPropertyOp27
 70
     1
  0
XRECORD
  5
19B9
102
{ACAD_REACTORS
330
19B8
102
}
330
19B8
100
AcDbXrecord
280
     1
102
RTVSPropertyOp0
 70
     1
102
RTVSPropertyOp1
 70
     1
102
RTVSPropertyOp2
 70
     1
102
RTVSPropertyOp3
 70
     1
102
RTVSPropertyOp4
 70
     1
102
RTVSPropertyOp5
 70
     1
102
RTVSPropertyOp6
 70
     1
102
RTVSPropertyOp7
 70
     1
102
RTVSPropertyOp8
 70
     1
102
RTVSPropertyOp9
 70
     1
102
RTVSPropertyOp10
 70
     1
102
RTVSPropertyOp11
 70
     1
102
RTVSPropertyOp12
 70
     1
102
RTVSPropertyOp13
 70
     1
102
RTVSPropertyOp14
 70
     1
102
RTVSPropertyOp15
 70
     1
102
RTVSPropertyOp16
 70
     1
102
RTVSPropertyOp17
 70
     1
102
RTVSPropertyOp18
 70
     1
102
RTVSPropertyOp19
 70
     1
102
RTVSPropertyOp20
 70
     1
102
RTVSPropertyOp21
 70
     1
102
RTVSPropertyOp22
 70
     1
102
RTVSPropertyOp23
 70
     1
102
RTVSPropertyOp24
 70
     1
102
RTVSPropertyOp25
 70
     1
102
RTVSPropertyOp26
 70
     1
102
RTVSPropertyOp27
 70
     1
  0
XRECORD
  5
19D3
102
{ACAD_REACTORS
330
19D2
102
}
330
19D2
100
AcDbXrecord
280
     1
102
RTVSPropertyOp0
 70
     0
102
RTVSPropertyOp1
 70
     0
102
RTVSPropertyOp2
 70
     0
102
RTVSPropertyOp3
 70
     0
102
RTVSPropertyOp4
 70
     0
102
RTVSPropertyOp5
 70
     0
102
RTVSPropertyOp6
 70
     0
102
RTVSPropertyOp7
 70
     0
102
RTVSPropertyOp8
 70
     0
102
RTVSPropertyOp9
 70
     0
102
RTVSPropertyOp10
 70
     0
102
RTVSPropertyOp11
 70
     0
102
RTVSPropertyOp12
 70
     0
102
RTVSPropertyOp13
 70
     0
102
RTVSPropertyOp14
 70
     2
102
RTVSPropertyOp15
 70
     0
102
RTVSPropertyOp16
 70
     0
102
RTVSPropertyOp17
 70
     0
102
RTVSPropertyOp18
 70
     0
102
RTVSPropertyOp19
 70
     0
102
RTVSPropertyOp20
 70
     0
102
RTVSPropertyOp21
 70
     0
102
RTVSPropertyOp22
 70
     0
102
RTVSPropertyOp23
 70
     0
102
RTVSPropertyOp24
 70
     0
102
RTVSPropertyOp25
 70
     0
102
RTVSPropertyOp26
 70
     0
102
RTVSPropertyOp27
 70
     0
  0
XRECORD
  5
19CD
102
{ACAD_REACTORS
330
19CC
102
}
330
19CC
100
AcDbXrecord
280
     1
102
RTVSPropertyOp0
 70
     1
102
RTVSPropertyOp1
 70
     1
102
RTVSPropertyOp2
 70
     1
102
RTVSPropertyOp3
 70
     1
102
RTVSPropertyOp4
 70
     1
102
RTVSPropertyOp5
 70
     1
102
RTVSPropertyOp6
 70
     1
102
RTVSPropertyOp7
 70
     1
102
RTVSPropertyOp8
 70
     1
102
RTVSPropertyOp9
 70
     1
102
RTVSPropertyOp10
 70
     1
102
RTVSPropertyOp11
 70
     1
102
RTVSPropertyOp12
 70
     1
102
RTVSPropertyOp13
 70
     1
102
RTVSPropertyOp14
 70
     1
102
RTVSPropertyOp15
 70
     1
102
RTVSPropertyOp16
 70
     1
102
RTVSPropertyOp17
 70
     1
102
RTVSPropertyOp18
 70
     1
102
RTVSPropertyOp19
 70
     1
102
RTVSPropertyOp20
 70
     1
102
RTVSPropertyOp21
 70
     1
102
RTVSPropertyOp22
 70
     1
102
RTVSPropertyOp23
 70
     1
102
RTVSPropertyOp24
 70
     1
102
RTVSPropertyOp25
 70
     1
102
RTVSPropertyOp26
 70
     1
102
RTVSPropertyOp27
 70
     1
  0
XRECORD
  5
19D5
102
{ACAD_REACTORS
330
19D4
102
}
330
19D4
100
AcDbXrecord
280
     1
102
RTVSPropertyOp0
 70
     0
102
RTVSPropertyOp1
 70
     0
102
RTVSPropertyOp2
 70
     0
102
RTVSPropertyOp3
 70
     0
102
RTVSPropertyOp4
 70
     0
102
RTVSPropertyOp5
 70
     0
102
RTVSPropertyOp6
 70
     0
102
RTVSPropertyOp7
 70
     0
102
RTVSPropertyOp8
 70
     0
102
RTVSPropertyOp9
 70
     0
102
RTVSPropertyOp10
 70
     0
102
RTVSPropertyOp11
 70
     0
102
RTVSPropertyOp12
 70
     0
102
RTVSPropertyOp13
 70
     0
102
RTVSPropertyOp14
 70
     2
102
RTVSPropertyOp15
 70
     0
102
RTVSPropertyOp16
 70
     0
102
RTVSPropertyOp17
 70
     0
102
RTVSPropertyOp18
 70
     0
102
RTVSPropertyOp19
 70
     0
102
RTVSPropertyOp20
 70
     0
102
RTVSPropertyOp21
 70
     0
102
RTVSPropertyOp22
 70
     0
102
RTVSPropertyOp23
 70
     0
102
RTVSPropertyOp24
 70
     0
102
RTVSPropertyOp25
 70
     0
102
RTVSPropertyOp26
 70
     0
102
RTVSPropertyOp27
 70
     0
  0
XRECORD
  5
19C5
102
{ACAD_REACTORS
330
19C4
102
}
330
19C4
100
AcDbXrecord
280
     1
102
RTVSPropertyOp0
 70
     1
102
RTVSPropertyOp1
 70
     1
102
RTVSPropertyOp2
 70
     1
102
RTVSPropertyOp3
 70
     1
102
RTVSPropertyOp4
 70
     1
102
RTVSPropertyOp5
 70
     1
102
RTVSPropertyOp6
 70
     1
102
RTVSPropertyOp7
 70
     1
102
RTVSPropertyOp8
 70
     1
102
RTVSPropertyOp9
 70
     1
102
RTVSPropertyOp10
 70
     1
102
RTVSPropertyOp11
 70
     1
102
RTVSPropertyOp12
 70
     1
102
RTVSPropertyOp13
 70
     1
102
RTVSPropertyOp14
 70
     1
102
RTVSPropertyOp15
 70
     1
102
RTVSPropertyOp16
 70
     1
102
RTVSPropertyOp17
 70
     1
102
RTVSPropertyOp18
 70
     1
102
RTVSPropertyOp19
 70
     1
102
RTVSPropertyOp20
 70
     1
102
RTVSPropertyOp21
 70
     1
102
RTVSPropertyOp22
 70
     1
102
RTVSPropertyOp23
 70
     1
102
RTVSPropertyOp24
 70
     1
102
RTVSPropertyOp25
 70
     1
102
RTVSPropertyOp26
 70
     1
102
RTVSPropertyOp27
 70
     1
  0
XRECORD
  5
19CB
102
{ACAD_REACTORS
330
19CA
102
}
330
19CA
100
AcDbXrecord
280
     1
102
RTVSPropertyOp0
 70
     1
102
RTVSPropertyOp1
 70
     1
102
RTVSPropertyOp2
 70
     1
102
RTVSPropertyOp3
 70
     1
102
RTVSPropertyOp4
 70
     1
102
RTVSPropertyOp5
 70
     1
102
RTVSPropertyOp6
 70
     1
102
RTVSPropertyOp7
 70
     1
102
RTVSPropertyOp8
 70
     1
102
RTVSPropertyOp9
 70
     1
102
RTVSPropertyOp10
 70
     1
102
RTVSPropertyOp11
 70
     1
102
RTVSPropertyOp12
 70
     1
102
RTVSPropertyOp13
 70
     1
102
RTVSPropertyOp14
 70
     1
102
RTVSPropertyOp15
 70
     1
102
RTVSPropertyOp16
 70
     1
102
RTVSPropertyOp17
 70
     1
102
RTVSPropertyOp18
 70
     1
102
RTVSPropertyOp19
 70
     1
102
RTVSPropertyOp20
 70
     1
102
RTVSPropertyOp21
 70
     1
102
RTVSPropertyOp22
 70
     1
102
RTVSPropertyOp23
 70
     1
102
RTVSPropertyOp24
 70
     1
102
RTVSPropertyOp25
 70
     1
102
RTVSPropertyOp26
 70
     1
102
RTVSPropertyOp27
 70
     1
  0
ENDSEC
  0
EOF
