  0
SECTION
  2
HEADER
  9
$ACADVER
  1
AC1015
  9
$ACADMAINTVER
 70
    20
  9
$DWGCODEPAGE
  3
ANSI_1252
  9
$INSBASE
 10
0.0
 20
0.0
 30
0.0
  9
$EXTMIN
 10
102.0013184528899
 20
1065.566480701853
 30
0.0
  9
$EXTMAX
 10
104.8235739342379
 20
1066.016480701853
 30
0.0
  9
$LIMMIN
 10
0.0
 20
0.0
  9
$LIMMAX
 10
420.0
 20
297.0
  9
$ORTHOMODE
 70
     1
  9
$REGENMODE
 70
     1
  9
$FILLMODE
 70
     1
  9
$QTEXTMODE
 70
     0
  9
$MIRRTEXT
 70
     1
  9
$LTSCALE
 40
1.0
  9
$ATTMODE
 70
     1
  9
$TEXTSIZE
 40
2.5
  9
$TRACEWID
 40
1.0
  9
$TEXTSTYLE
  7
SANINDUSA
  9
$CLAYER
  8
0
  9
$CELTYPE
  6
ByLayer
  9
$CECOLOR
 62
   256
  9
$CELTSCALE
 40
1.0
  9
$DISPSILH
 70
     0
  9
$DIMSCALE
 40
1.0
  9
$DIMASZ
 40
2.0
  9
$DIMEXO
 40
1.0
  9
$DIMDLI
 40
1.0
  9
$DIMRND
 40
0.0
  9
$DIMDLE
 40
0.0
  9
$DIMEXE
 40
1.0
  9
$DIMTP
 40
0.0
  9
$DIMTM
 40
0.0
  9
$DIMTXT
 40
2.0
  9
$DIMCEN
 40
0.0
  9
$DIMTSZ
 40
0.0
  9
$DIMTOL
 70
     0
  9
$DIMLIM
 70
     0
  9
$DIMTIH
 70
     0
  9
$DIMTOH
 70
     0
  9
$DIMSE1
 70
     0
  9
$DIMSE2
 70
     0
  9
$DIMTAD
 70
     1
  9
$DIMZIN
 70
     8
  9
$DIMBLK
  1

  9
$DIMASO
 70
     1
  9
$DIMSHO
 70
     1
  9
$DIMPOST
  1

  9
$DIMAPOST
  1

  9
$DIMALT
 70
     0
  9
$DIMALTD
 70
     3
  9
$DIMALTF
 40
0.03937007874016
  9
$DIMLFAC
 40
1.0
  9
$DIMTOFL
 70
     1
  9
$DIMTVP
 40
0.0
  9
$DIMTIX
 70
     0
  9
$DIMSOXD
 70
     0
  9
$DIMSAH
 70
     0
  9
$DIMBLK1
  1

  9
$DIMBLK2
  1

  9
$DIMSTYLE
  2
SANINDUSA
  9
$DIMCLRD
 70
   256
  9
$DIMCLRE
 70
   256
  9
$DIMCLRT
 70
   256
  9
$DIMTFAC
 40
1.0
  9
$DIMGAP
 40
1.0
  9
$DIMJUST
 70
     0
  9
$DIMSD1
 70
     0
  9
$DIMSD2
 70
     0
  9
$DIMTOLJ
 70
     0
  9
$DIMTZIN
 70
     8
  9
$DIMALTZ
 70
     0
  9
$DIMALTTZ
 70
     0
  9
$DIMUPT
 70
     0
  9
$DIMDEC
 70
     1
  9
$DIMTDEC
 70
     1
  9
$DIMALTU
 70
     2
  9
$DIMALTTD
 70
     3
  9
$DIMTXSTY
  7
SANINDUSA
  9
$DIMAUNIT
 70
     0
  9
$DIMADEC
 70
     1
  9
$DIMALTRND
 40
0.0
  9
$DIMAZIN
 70
     0
  9
$DIMDSEP
 70
    44
  9
$DIMATFIT
 70
     3
  9
$DIMFRAC
 70
     0
  9
$DIMLDRBLK
  1

  9
$DIMLUNIT
 70
     2
  9
$DIMLWD
 70
    -1
  9
$DIMLWE
 70
    -1
  9
$DIMTMOVE
 70
     0
  9
$LUNITS
 70
     2
  9
$LUPREC
 70
     4
  9
$SKETCHINC
 40
1.0
  9
$FILLETRAD
 40
0.0
  9
$AUNITS
 70
     0
  9
$AUPREC
 70
     0
  9
$MENU
  1
.
  9
$ELEVATION
 40
0.0
  9
$PELEVATION
 40
0.0
  9
$THICKNESS
 40
0.0
  9
$LIMCHECK
 70
     0
  9
$CHAMFERA
 40
10.0
  9
$CHAMFERB
 40
10.0
  9
$CHAMFERC
 40
20.0
  9
$CHAMFERD
 40
0.0
  9
$SKPOLY
 70
     0
  9
$TDCREATE
 40
2453497.706398831
  9
$TDUCREATE
 40
2453497.664732164
  9
$TDUPDATE
 40
2456146.482180266
  9
$TDUUPDATE
 40
2456146.440513600
  9
$TDINDWG
 40
0.0056976852
  9
$TDUSRTIMER
 40
0.0056976852
  9
$USRTIMER
 70
     1
  9
$ANGBASE
 50
0.0
  9
$ANGDIR
 70
     0
  9
$PDMODE
 70
     0
  9
$PDSIZE
 40
0.0
  9
$PLINEWID
 40
0.0
  9
$SPLFRAME
 70
     0
  9
$SPLINETYPE
 70
     6
  9
$SPLINESEGS
 70
     8
  9
$HANDSEED
  5
13BA
  9
$SURFTAB1
 70
     6
  9
$SURFTAB2
 70
     6
  9
$SURFTYPE
 70
     6
  9
$SURFU
 70
     6
  9
$SURFV
 70
     6
  9
$UCSBASE
  2

  9
$UCSNAME
  2

  9
$UCSORG
 10
0.0
 20
0.0
 30
0.0
  9
$UCSXDIR
 10
1.0
 20
0.0
 30
0.0
  9
$UCSYDIR
 10
0.0
 20
1.0
 30
0.0
  9
$UCSORTHOREF
  2

  9
$UCSORTHOVIEW
 70
     0
  9
$UCSORGTOP
 10
0.0
 20
0.0
 30
0.0
  9
$UCSORGBOTTOM
 10
0.0
 20
0.0
 30
0.0
  9
$UCSORGLEFT
 10
0.0
 20
0.0
 30
0.0
  9
$UCSORGRIGHT
 10
0.0
 20
0.0
 30
0.0
  9
$UCSORGFRONT
 10
0.0
 20
0.0
 30
0.0
  9
$UCSORGBACK
 10
0.0
 20
0.0
 30
0.0
  9
$PUCSBASE
  2

  9
$PUCSNAME
  2

  9
$PUCSORG
 10
0.0
 20
0.0
 30
0.0
  9
$PUCSXDIR
 10
1.0
 20
0.0
 30
0.0
  9
$PUCSYDIR
 10
0.0
 20
1.0
 30
0.0
  9
$PUCSORTHOREF
  2

  9
$PUCSORTHOVIEW
 70
     0
  9
$PUCSORGTOP
 10
0.0
 20
0.0
 30
0.0
  9
$PUCSORGBOTTOM
 10
0.0
 20
0.0
 30
0.0
  9
$PUCSORGLEFT
 10
0.0
 20
0.0
 30
0.0
  9
$PUCSORGRIGHT
 10
0.0
 20
0.0
 30
0.0
  9
$PUCSORGFRONT
 10
0.0
 20
0.0
 30
0.0
  9
$PUCSORGBACK
 10
0.0
 20
0.0
 30
0.0
  9
$USERI1
 70
     0
  9
$USERI2
 70
     0
  9
$USERI3
 70
     0
  9
$USERI4
 70
     0
  9
$USERI5
 70
     0
  9
$USERR1
 40
0.0
  9
$USERR2
 40
0.0
  9
$USERR3
 40
0.0
  9
$USERR4
 40
0.0
  9
$USERR5
 40
0.0
  9
$WORLDVIEW
 70
     1
  9
$SHADEDGE
 70
     3
  9
$SHADEDIF
 70
    70
  9
$TILEMODE
 70
     1
  9
$MAXACTVP
 70
    64
  9
$PINSBASE
 10
0.0
 20
0.0
 30
0.0
  9
$PLIMCHECK
 70
     0
  9
$PEXTMIN
 10
1.000000000000000E+20
 20
1.000000000000000E+20
 30
1.000000000000000E+20
  9
$PEXTMAX
 10
-1.000000000000000E+20
 20
-1.000000000000000E+20
 30
-1.000000000000000E+20
  9
$PLIMMIN
 10
0.0
 20
0.0
  9
$PLIMMAX
 10
420.0
 20
297.0
  9
$UNITMODE
 70
     0
  9
$VISRETAIN
 70
     1
  9
$PLINEGEN
 70
     0
  9
$PSLTSCALE
 70
     1
  9
$TREEDEPTH
 70
  3020
  9
$CMLSTYLE
  2
Standard
  9
$CMLJUST
 70
     0
  9
$CMLSCALE
 40
20.0
  9
$PROXYGRAPHICS
 70
     1
  9
$MEASUREMENT
 70
     1
  9
$CELWEIGHT
370
    -1
  9
$ENDCAPS
280
     0
  9
$JOINSTYLE
280
     0
  9
$LWDISPLAY
290
     0
  9
$INSUNITS
 70
     4
  9
$HYPERLINKBASE
  1

  9
$STYLESHEET
  1
monochrome.ctb
  9
$XEDIT
290
     1
  9
$CEPSNTYPE
380
     0
  9
$PSTYLEMODE
290
     1
  9
$FINGERPRINTGUID
  2
{B98A73AA-52AA-4C10-B469-C0E7150AC31F}
  9
$VERSIONGUID
  2
{2015F422-8653-4340-86ED-BCA1B51CE793}
  9
$EXTNAMES
290
     1
  9
$PSVPSCALE
 40
0.0
  9
$OLESTARTUP
290
     0
  0
ENDSEC
  0
SECTION
  2
CLASSES
  0
CLASS
  1
ACDBDICTIONARYWDFLT
  2
AcDbDictionaryWithDefault
  3
ObjectDBX Classes
 90
        0
280
     0
281
     0
  0
CLASS
  1
ACDBPLACEHOLDER
  2
AcDbPlaceHolder
  3
ObjectDBX Classes
 90
        0
280
     0
281
     0
  0
CLASS
  1
LAYOUT
  2
AcDbLayout
  3
ObjectDBX Classes
 90
        0
280
     0
281
     0
  0
CLASS
  1
DICTIONARYVAR
  2
AcDbDictionaryVar
  3
ObjectDBX Classes
 90
        0
280
     0
281
     0
  0
CLASS
  1
DIMASSOC
  2
AcDbDimAssoc
  3
"AcDbDimAssoc|Product Desc:     AcDim ARX App For Dimension|Company:          Autodesk, Inc.|WEB Address:      www.autodesk.com"
 90
    32768
280
     0
281
     0
  0
CLASS
  1
MATERIAL
  2
AcDbMaterial
  3
ObjectDBX Classes
 90
     1153
280
     0
281
     0
  0
CLASS
  1
VISUALSTYLE
  2
AcDbVisualStyle
  3
ObjectDBX Classes
 90
     4095
280
     0
281
     0
  0
CLASS
  1
TABLESTYLE
  2
AcDbTableStyle
  3
ObjectDBX Classes
 90
     4095
280
     0
281
     0
  0
CLASS
  1
SCALE
  2
AcDbScale
  3
ObjectDBX Classes
 90
     1153
280
     0
281
     0
  0
CLASS
  1
MLEADERSTYLE
  2
AcDbMLeaderStyle
  3
ACDB_MLEADERSTYLE_CLASS
 90
     4095
280
     0
281
     0
  0
CLASS
  1
CELLSTYLEMAP
  2
AcDbCellStyleMap
  3
ObjectDBX Classes
 90
     1152
280
     0
281
     0
  0
ENDSEC
  0
SECTION
  2
TABLES
  0
TABLE
  2
VPORT
  5
8
330
0
100
AcDbSymbolTable
 70
     1
  0
VPORT
  5
1306
330
8
100
AcDbSymbolTableRecord
100
AcDbViewportTableRecord
  2
*Active
 70
     0
 10
0.0
 20
0.0
 11
1.0
 21
1.0
 12
103.4824495216414
 22
1065.796549162713
 13
0.0
 23
0.0
 14
10.0
 24
10.0
 15
10.0
 25
10.0
 16
0.0
 26
0.0
 36
1.0
 17
0.0
 27
0.0
 37
0.0
 40
2.01215042381068
 41
1.645464025026068
 42
50.0
 43
0.0
 44
0.0
 50
0.0
 51
0.0
 71
     0
 72
   100
 73
     1
 74
     2
 75
     0
 76
     0
 77
     0
 78
     0
281
     0
 65
     1
110
0.0
120
0.0
130
0.0
111
1.0
121
0.0
131
0.0
112
0.0
122
1.0
132
0.0
 79
     0
146
0.0
  0
ENDTAB
  0
TABLE
  2
LTYPE
  5
5
330
0
100
AcDbSymbolTable
 70
     3
  0
LTYPE
  5
14
330
5
100
AcDbSymbolTableRecord
100
AcDbLinetypeTableRecord
  2
ByBlock
 70
     0
  3

 72
    65
 73
     0
 40
0.0
  0
LTYPE
  5
15
330
5
100
AcDbSymbolTableRecord
100
AcDbLinetypeTableRecord
  2
ByLayer
 70
     0
  3

 72
    65
 73
     0
 40
0.0
  0
LTYPE
  5
16
330
5
100
AcDbSymbolTableRecord
100
AcDbLinetypeTableRecord
  2
Continuous
 70
     0
  3
Solid line
 72
    65
 73
     0
 40
0.0
  0
LTYPE
  5
2D
330
5
100
AcDbSymbolTableRecord
100
AcDbLinetypeTableRecord
  2
DASHDOT
 70
     0
  3
Dash dot __ . __ . __ . __ . __ . __ . __ . __
 72
    65
 73
     4
 40
25.4
 49
12.7
 74
     0
 49
-6.349999999999999
 74
     0
 49
0.0
 74
     0
 49
-6.349999999999999
 74
     0
  0
LTYPE
  5
2E
330
5
100
AcDbSymbolTableRecord
100
AcDbLinetypeTableRecord
  2
HIDDEN
 70
     0
  3
Hidden __ __ __ __ __ __ __ __ __ __ __ __ __ _
 72
    65
 73
     2
 40
9.524999999999998
 49
6.349999999999999
 74
     0
 49
-3.174999999999999
 74
     0
  0
ENDTAB
  0
TABLE
  2
LAYER
  5
2
330
0
100
AcDbSymbolTable
 70
    16
  0
LAYER
  5
10
102
{ACAD_XDICTIONARY
360
1351
102
}
330
2
100
AcDbSymbolTableRecord
100
AcDbLayerTableRecord
  2
0
 70
     0
 62
     7
  6
Continuous
370
    -3
390
F
  0
LAYER
  5
2F
102
{ACAD_XDICTIONARY
360
1353
102
}
330
2
100
AcDbSymbolTableRecord
100
AcDbLayerTableRecord
  2
1
 70
     0
 62
     1
  6
Continuous
370
    -3
390
F
  0
LAYER
  5
30
102
{ACAD_XDICTIONARY
360
1355
102
}
330
2
100
AcDbSymbolTableRecord
100
AcDbLayerTableRecord
  2
2
 70
     0
 62
     2
  6
Continuous
370
    -3
390
F
  0
LAYER
  5
31
102
{ACAD_XDICTIONARY
360
1357
102
}
330
2
100
AcDbSymbolTableRecord
100
AcDbLayerTableRecord
  2
3
 70
     0
 62
     3
  6
Continuous
370
    -3
390
F
  0
LAYER
  5
32
102
{ACAD_XDICTIONARY
360
1359
102
}
330
2
100
AcDbSymbolTableRecord
100
AcDbLayerTableRecord
  2
4
 70
     0
 62
     4
  6
Continuous
370
    -3
390
F
  0
LAYER
  5
33
102
{ACAD_XDICTIONARY
360
135B
102
}
330
2
100
AcDbSymbolTableRecord
100
AcDbLayerTableRecord
  2
5
 70
     0
 62
     5
  6
Continuous
370
    -3
390
F
  0
LAYER
  5
34
102
{ACAD_XDICTIONARY
360
135D
102
}
330
2
100
AcDbSymbolTableRecord
100
AcDbLayerTableRecord
  2
6
 70
     0
 62
     6
  6
Continuous
370
    -3
390
F
  0
LAYER
  5
35
102
{ACAD_XDICTIONARY
360
135F
102
}
330
2
100
AcDbSymbolTableRecord
100
AcDbLayerTableRecord
  2
7
 70
     0
 62
     7
  6
Continuous
370
    -3
390
F
  0
LAYER
  5
36
102
{ACAD_XDICTIONARY
360
1361
102
}
330
2
100
AcDbSymbolTableRecord
100
AcDbLayerTableRecord
  2
cen
 70
     0
 62
     7
  6
DASHDOT
370
    -3
390
F
  0
LAYER
  5
37
102
{ACAD_XDICTIONARY
360
1363
102
}
330
2
100
AcDbSymbolTableRecord
100
AcDbLayerTableRecord
  2
hid
 70
     0
 62
     7
  6
HIDDEN
370
    -3
390
F
  0
LAYER
  5
5D6
102
{ACAD_XDICTIONARY
360
1365
102
}
330
2
100
AcDbSymbolTableRecord
100
AcDbLayerTableRecord
  2
hatch
 70
     0
 62
     9
  6
Continuous
370
    -3
390
F
  0
LAYER
  5
8AF
102
{ACAD_XDICTIONARY
360
1367
102
}
330
2
100
AcDbSymbolTableRecord
100
AcDbLayerTableRecord
  2
9
 70
     0
 62
     9
  6
Continuous
370
    -3
390
F
  0
LAYER
  5
8F8
102
{ACAD_XDICTIONARY
360
1369
102
}
330
2
100
AcDbSymbolTableRecord
100
AcDbLayerTableRecord
  2
leg fin
 70
     0
 62
     9
  6
Continuous
370
    -3
390
F
  0
LAYER
  5
91D
102
{ACAD_XDICTIONARY
360
136B
102
}
330
2
100
AcDbSymbolTableRecord
100
AcDbLayerTableRecord
  2
cotas
 70
     0
 62
     1
  6
Continuous
370
    -3
390
F
  0
LAYER
  5
92F
330
2
100
AcDbSymbolTableRecord
100
AcDbLayerTableRecord
  2
Defpoints
 70
     0
 62
     7
  6
Continuous
290
     0
370
    -3
390
F
  0
LAYER
  5
BA5
102
{ACAD_XDICTIONARY
360
136D
102
}
330
2
100
AcDbSymbolTableRecord
100
AcDbLayerTableRecord
  2
SANINDUSA
 70
     0
 62
     3
  6
Continuous
370
    -3
390
F
  0
ENDTAB
  0
TABLE
  2
STYLE
  5
3
330
0
100
AcDbSymbolTable
 70
     3
  0
STYLE
  5
11
330
3
100
AcDbSymbolTableRecord
100
AcDbTextStyleTableRecord
  2
Standard
 70
     0
 40
0.0
 41
1.0
 50
0.0
 71
     0
 42
2.5
  3
Avgardn.ttf
  4

1001
ACAD
1000
AvantGarde Bk BT
1071
       34
  0
STYLE
  5
2C
330
3
100
AcDbSymbolTableRecord
100
AcDbTextStyleTableRecord
  2

 70
     1
 40
0.0
 41
1.0
 50
0.0
 71
     0
 42
2.5
  3
ltypeshp.shx
  4

  0
STYLE
  5
91F
330
3
100
AcDbSymbolTableRecord
100
AcDbTextStyleTableRecord
  2
SANINDUSA
 70
     0
 40
0.0
 41
1.0
 50
0.0
 71
     0
 42
2.5
  3
verdana.TTF
  4

1001
ACAD
1000
Verdana
1071
       34
  0
ENDTAB
  0
TABLE
  2
VIEW
  5
6
330
0
100
AcDbSymbolTable
 70
     0
  0
ENDTAB
  0
TABLE
  2
UCS
  5
7
330
0
100
AcDbSymbolTable
 70
     0
  0
ENDTAB
  0
TABLE
  2
APPID
  5
9
330
0
100
AcDbSymbolTable
 70
     3
  0
APPID
  5
12
330
9
100
AcDbSymbolTableRecord
100
AcDbRegAppTableRecord
  2
ACAD
 70
     0
  0
APPID
  5
3A
330
9
100
AcDbSymbolTableRecord
100
AcDbRegAppTableRecord
  2
DCO15
 70
     0
  0
APPID
  5
13B9
330
9
100
AcDbSymbolTableRecord
100
AcDbRegAppTableRecord
  2
ACAD_MLEADERVER
 70
     0
  0
ENDTAB
  0
TABLE
  2
DIMSTYLE
  5
A
330
0
100
AcDbSymbolTable
 70
     2
100
AcDbDimStyleTable
 71
     1
340
921
  0
DIMSTYLE
105
45
330
A
100
AcDbSymbolTableRecord
100
AcDbDimStyleTableRecord
  2
STANDARD
 70
     0
289
     0
340
11
  0
DIMSTYLE
105
921
330
A
100
AcDbSymbolTableRecord
100
AcDbDimStyleTableRecord
  2
SANINDUSA
 70
     0
 41
2.0
 42
1.0
 43
1.0
 44
1.0
 73
     0
 74
     0
 77
     1
 78
     8
140
2.0
141
0.0
143
0.03937007874016
147
1.0
171
     3
172
     1
176
   256
177
   256
178
   256
179
     1
271
     1
272
     1
274
     3
278
    44
283
     0
284
     8
340
91F
371
    -1
372
    -1
  0
ENDTAB
  0
TABLE
  2
BLOCK_RECORD
  5
1
330
0
100
AcDbSymbolTable
 70
    68
  0
BLOCK_RECORD
  5
1F
330
1
100
AcDbSymbolTableRecord
100
AcDbBlockTableRecord
  2
*Model_Space
340
22
  0
BLOCK_RECORD
  5
1B
330
1
100
AcDbSymbolTableRecord
100
AcDbBlockTableRecord
  2
*Paper_Space
340
1E
  0
BLOCK_RECORD
  5
23
330
1
100
AcDbSymbolTableRecord
100
AcDbBlockTableRecord
  2
*Paper_Space0
340
26
  0
BLOCK_RECORD
  5
919
330
1
100
AcDbSymbolTableRecord
100
AcDbBlockTableRecord
  2
_DotSmall
340
0
  0
BLOCK_RECORD
  5
922
330
1
100
AcDbSymbolTableRecord
100
AcDbBlockTableRecord
  2
base para cotas
340
0
310
2800000020000000200000000100080000000000000400000000000000000000000000000000000000000000000080000080000000808000800000008000800080800000C0C0C000C0DCC000F0CAA6000020400000206000002080000020A0000020C0000020E00000400000004020000040400000406000004080000040A0
310
000040C0000040E00000600000006020000060400000606000006080000060A0000060C0000060E00000800000008020000080400000806000008080000080A0000080C0000080E00000A0000000A0200000A0400000A0600000A0800000A0A00000A0C00000A0E00000C0000000C0200000C0400000C0600000C0800000C0
310
A00000C0C00000C0E00000E0000000E0200000E0400000E0600000E0800000E0A00000E0C00000E0E00040000000400020004000400040006000400080004000A0004000C0004000E00040200000402020004020400040206000402080004020A0004020C0004020E000404000004040200040404000404060004040800040
310
40A0004040C0004040E00040600000406020004060400040606000406080004060A0004060C0004060E00040800000408020004080400040806000408080004080A0004080C0004080E00040A0000040A0200040A0400040A0600040A0800040A0A00040A0C00040A0E00040C0000040C0200040C0400040C0600040C08000
310
40C0A00040C0C00040C0E00040E0000040E0200040E0400040E0600040E0800040E0A00040E0C00040E0E00080000000800020008000400080006000800080008000A0008000C0008000E00080200000802020008020400080206000802080008020A0008020C0008020E00080400000804020008040400080406000804080
310
008040A0008040C0008040E00080600000806020008060400080606000806080008060A0008060C0008060E00080800000808020008080400080806000808080008080A0008080C0008080E00080A0000080A0200080A0400080A0600080A0800080A0A00080A0C00080A0E00080C0000080C0200080C0400080C0600080C0
310
800080C0A00080C0C00080C0E00080E0000080E0200080E0400080E0600080E0800080E0A00080E0C00080E0E000C0000000C0002000C0004000C0006000C0008000C000A000C000C000C000E000C0200000C0202000C0204000C0206000C0208000C020A000C020C000C020E000C0400000C0402000C0404000C0406000C0
310
408000C040A000C040C000C040E000C0600000C0602000C0604000C0606000C0608000C060A000C060C000C060E000C0800000C0802000C0804000C0806000C0808000C080A000C080C000C080E000C0A00000C0A02000C0A04000C0A06000C0A08000C0A0A000C0A0C000C0A0E000C0C00000C0C02000C0C04000C0C06000
310
C0C08000C0C0A000F0FBFF00A4A0A000808080000000FF0000FF000000FFFF00FF000000FF00FF00FFFF0000FFFFFF00A4A4A4A4A4A4A4A4A4A4A4A4A4A4A4A4A4A4A4A4A4A4A4A4A4A4A4A4A4A4A4A4A4A4A4A4A4A4A4A4A4A4A4A4A4A4A4A4A4A4A4A4A4A4A4A4A4A4A4A4A4A4A4A4A4A4A4A4A4A4A4A4A4A4A4A4A4A4A4
310
A4A4A4A4A4A4A4A4A4A4A4A4A4A4A4A4A4A4A4A4A4A4A4A4A4A4A4A4A4A4A4A4A4A4A4A4A4A4A4A4A4A4A4A4A4A4A4A4A4A4A4A4A4A4A4A4A4A4A4A4A4A4A4A4A4A4A4A4A4A4A4A4A4A4A4A4A4A4A4A4A4A4A4A4A4A4A4A4A4A4A4A4A4A4A4A4A4A4A4A4A4A4A4A4A4A4A4A4A4A4A4A4A4A4A4A4A4A4A4A4A4A4A4A4A4A4A4
310
A4A4A4A4A4A4A4A4A4A4A4A4A4A4A4A4A4A4A4A4A4A4A4A4A4A4A4A4A4A4A4A4A4A4A4A4A4A4A4A4A4A4A4A4A4A4A4A4A4A4A4A4A4A4A4A4A4A4A4A4A4A4A4A4A4A4A4A4A4A4A4A4A4A4A4A4A4A4A4A4A4A4A4A4A4A4A4A4A4A4A4A4A4A4A4A4A4A4A4A4A4A4A4A4A4A4A4A4A4A4A4A4A4A4A4A4A4A4A4A4A4A4A4A4A4A4A4
310
A4A4A4A4A4A4A4A4A4A4A4A4A4A4A4A4A4A4A4A4A4A4A4A4A4A4A4A4A4A4A4A4A4A4A4A4A4A4A4A4A4A4A4A4A4A4A4A4A4A4A4A4A4A4A4A4A4A4A4A4A4A4A4A4A4A4A4A4A4A4A4A4A4A4A4A4A4A4A4A4A4A4A4A4A4A4A4A4A4A4A4A4A4A4A4A4A4A4A4A4A4A4A4A4A4A4A4A4A4A4A4A4A4A4A4A4F9F9F9F9F9F9F9F9F9F9F9
310
F9F9F9F9F9F9F9F9F9F9F9F9F9F9F9F9F9F9F9A4A4F9F9F9F9F9F9F9F9F9F9F9F9F9F9F9F9F9F9F9F9F9F9F9F9F9F9F9F9F9F9A4A4F9F9F9F9F9F9F9F9F9F9F9F9F9F9F9F9F9F9F9F9F9F9F9F9F9F9F9F9F9F9A4A4F9A4A4A4A4A4A4A4A4A4A4A4A4A4A4A4A4A4A4A4A4A4A4A4A4A4A4A4A4F9A4A4A4A4A4A4A4A4A4A4A4A4
310
A4A4A4A4A4A4A4A4A4A4A4A4A4A4A4A4A4A4A4A4A4A4A4A4A4A4A4A4A4A4A4A4A4A4A4A4A4A4A4A4A4A4A4A4A4A4A4A4A4A4A4A4A4A4A4A4A4A4A4A4A4A4A4A4A4A4A4A4A4A4A4A4A4A4A4A4A4A4A4A4A4A4A4A4A4A4A4A4A4A4A4A4A4A4A4A4A4A4A4A4A4A4A4A4A4A4A4A4A4A4A4A4A4A4A4A4A4A4A4A4A4A4A4A4A4A4A4
310
A4A4A4A4A4A4A4A4A4A4A4A4A4A4A4A4A4A4A4A4A4A4A4A4A4A4A4A4A4A4A4A4A4A4A4A4A4A4A4A4A4A4A4A4A4A4A4A4A4A4A4A4A4A4A4A4A4A4A4A4A4A4A4A4A4A4A4A4A4A4A4A4A4A4A4A4A4A4A4A4A4A4A4A4A4A4A4A4A4A4A4A4A4A4A4A4A4A4A4A4A4A4A4A4A4A4A4A4A4A4A4A4A4A4A4A4A4A4A4A4A4A4A4A4A4A4A4
310
A4A4A4A4A4A4A4A4A4A4A4A4A4A4A4A4A4A4A4A4A4A4A4A4A4A4A4A4A4A4A4A4A4A4A4A4A4A4A4A4A4A4A4A4A4A4A4A4A4A4A4A4A4A4A4A4A4A4A4A4A4A4A4A4A4A4A4A4A4A4A4A4A4A4A4A4A4A4A4A4A4A4A4A4A4A4A4A4A4A4A4A4A4A4A4A4A4A4A4A4A4A4A4A4A4A4A4A4A4A4A4A4A4A4A4A4A4A4A4A4A4A4A4A4A4A4A4
310
A4A4A4A4A4A4A4A4A4A4A4A4A4A4A4A4A4A4A4A4A4A4A4A4A4A4A4A4A4A4A4A4A4A4A4A4A4A4A4A4A4A4A4A4A4A4A4A4A4A4A4A4A4A4A4A4
1001
ACAD
1000
DesignCenter Data
1002
{
1070
     1
1070
     4
1002
}
  0
BLOCK_RECORD
  5
AA8
330
1
100
AcDbSymbolTableRecord
100
AcDbBlockTableRecord
  2
_CLOSED
340
0
  0
ENDTAB
  0
ENDSEC
  0
SECTION
  2
BLOCKS
  0
BLOCK
  5
20
330
1F
100
AcDbEntity
  8
0
100
AcDbBlockBegin
  2
*Model_Space
 70
     0
 10
0.0
 20
0.0
 30
0.0
  3
*Model_Space
  1

  0
ENDBLK
  5
21
330
1F
100
AcDbEntity
  8
0
100
AcDbBlockEnd
  0
BLOCK
  5
1C
330
1B
100
AcDbEntity
 67
     1
  8
0
100
AcDbBlockBegin
  2
*Paper_Space
 70
     0
 10
0.0
 20
0.0
 30
0.0
  3
*Paper_Space
  1

  0
ENDBLK
  5
1D
330
1B
100
AcDbEntity
 67
     1
  8
0
100
AcDbBlockEnd
  0
BLOCK
  5
24
330
23
100
AcDbEntity
 67
     1
  8
0
100
AcDbBlockBegin
  2
*Paper_Space0
 70
     0
 10
0.0
 20
0.0
 30
0.0
  3
*Paper_Space0
  1

  0
ENDBLK
  5
25
330
23
100
AcDbEntity
 67
     1
  8
0
100
AcDbBlockEnd
  0
BLOCK
  5
91B
330
919
100
AcDbEntity
  8
0
100
AcDbBlockBegin
  2
_DotSmall
 70
     0
 10
0.0
 20
0.0
 30
0.0
  3
_DotSmall
  1

  0
LWPOLYLINE
  5
91A
330
919
100
AcDbEntity
  8
0
  6
ByBlock
 62
     0
100
AcDbPolyline
 90
        2
 70
     1
 43
0.5
 10
-0.0625
 20
0.0
 42
1.0
 10
0.0625
 20
0.0
 42
1.0
  0
ENDBLK
  5
91C
330
919
100
AcDbEntity
  8
0
100
AcDbBlockEnd
  0
BLOCK
  5
92A
330
922
100
AcDbEntity
  8
0
100
AcDbBlockBegin
  2
base para cotas
 70
     0
 10
0.0
 20
0.0
 30
0.0
  3
base para cotas
  1

  0
LINE
  5
B36
330
922
100
AcDbEntity
  8
cotas
100
AcDbLine
 10
0.0
 20
-30.0
 30
0.0
 11
327.1260136525398
 21
-30.0
 31
0.0
  0
LINE
  5
B37
330
922
100
AcDbEntity
  8
cotas
100
AcDbLine
 10
0.0
 20
-25.0
 30
0.0
 11
327.1260136525398
 21
-25.0
 31
0.0
  0
LINE
  5
B38
330
922
100
AcDbEntity
  8
cotas
100
AcDbLine
 10
0.0
 20
-20.0
 30
0.0
 11
327.1260136525398
 21
-20.0
 31
0.0
  0
LINE
  5
B39
330
922
100
AcDbEntity
  8
cotas
100
AcDbLine
 10
0.0
 20
-15.0
 30
0.0
 11
327.1260136525398
 21
-15.0
 31
0.0
  0
LINE
  5
B3A
330
922
100
AcDbEntity
  8
cotas
100
AcDbLine
 10
0.0
 20
-10.0
 30
0.0
 11
327.1260136525398
 21
-10.0
 31
0.0
  0
LINE
  5
B3B
330
922
100
AcDbEntity
  8
cotas
100
AcDbLine
 10
0.0
 20
0.0
 30
0.0
 11
0.0
 21
-30.0
 31
0.0
  0
LINE
  5
B3C
330
922
100
AcDbEntity
  8
cotas
100
AcDbLine
 10
327.1260136525398
 20
-30.0
 30
0.0
 11
327.1260136525398
 21
0.0
 31
0.0
  0
ENDBLK
  5
92B
330
922
100
AcDbEntity
  8
0
100
AcDbBlockEnd
  0
BLOCK
  5
AAD
330
AA8
100
AcDbEntity
  8
0
100
AcDbBlockBegin
  2
_CLOSED
 70
     0
 10
0.0
 20
0.0
 30
0.0
  3
_CLOSED
  1

  0
LINE
  5
AA9
330
AA8
100
AcDbEntity
  8
0
100
AcDbLine
 10
-1.0
 20
0.166667
 30
0.0
 11
0.0
 21
0.0
 31
0.0
  0
LINE
  5
AAA
330
AA8
100
AcDbEntity
  8
0
100
AcDbLine
 10
0.0
 20
0.0
 30
0.0
 11
-1.0
 21
-0.166667
 31
0.0
  0
LINE
  5
AAB
330
AA8
100
AcDbEntity
  8
0
100
AcDbLine
 10
-1.0
 20
0.166667
 30
0.0
 11
-1.0
 21
-0.166667
 31
0.0
  0
LINE
  5
AAC
330
AA8
100
AcDbEntity
  8
0
100
AcDbLine
 10
0.0
 20
0.0
 30
0.0
 11
-1.0
 21
0.0
 31
0.0
  0
ENDBLK
  5
AAE
330
AA8
100
AcDbEntity
  8
0
100
AcDbBlockEnd
  0
ENDSEC
  0
SECTION
  2
ENTITIES
  0
LINE
  5
F49
330
1F
100
AcDbEntity
  8
SANINDUSA
100
AcDbLine
 10
103.4820325300926
 20
1065.844338022173
 30
0.0
 11
104.1700325300926
 21
1065.844338022173
 31
0.0
  0
LINE
  5
F4B
330
1F
100
AcDbEntity
  8
SANINDUSA
100
AcDbLine
 10
104.1700325300926
 20
1065.764338022173
 30
0.0
 11
103.4820325300926
 21
1065.764338022173
 31
0.0
  0
LINE
  5
F4D
330
1F
100
AcDbEntity
  8
SANINDUSA
100
AcDbLine
 10
104.0680325300926
 20
1065.704338022173
 30
0.0
 11
103.5840325300926
 21
1065.704338022173
 31
0.0
  0
LINE
  5
F51
330
1F
100
AcDbEntity
  8
SANINDUSA
100
AcDbLine
 10
102.5863184528899
 20
1065.586860202501
 30
0.0
 11
102.1163184528899
 21
1065.586860195594
 31
0.0
  0
LINE
  5
F53
330
1F
100
AcDbEntity
  8
SANINDUSA
100
AcDbLine
 10
102.4093272636336
 20
1065.886480701853
 30
0.0
 11
102.1163184528899
 21
1065.886480701853
 31
0.0
  0
LINE
  5
F54
330
1F
100
AcDbEntity
  8
SANINDUSA
100
AcDbLine
 10
102.0073184528899
 20
1066.016480701853
 30
0.0
 11
102.6953184528899
 21
1066.016480701853
 31
0.0
  0
LINE
  5
F55
330
1F
100
AcDbEntity
  8
SANINDUSA
100
AcDbLine
 10
102.6953184528899
 20
1065.566480701853
 30
0.0
 11
102.0073184528899
 21
1065.566480701853
 31
0.0
  0
LINE
  5
F5F
330
1F
100
AcDbEntity
  8
SANINDUSA
100
AcDbLine
 10
102.1113184528899
 20
1065.881480701853
 30
0.0
 11
102.1113184528899
 21
1065.633250438485
 31
0.0
  0
LINE
  5
F60
330
1F
100
AcDbEntity
  8
SANINDUSA
100
AcDbLine
 10
102.0013184528899
 20
1066.010480701853
 30
0.0
 11
102.0013184528899
 21
1065.572480701853
 31
0.0
  0
ARC
  5
F66
330
1F
100
AcDbEntity
  8
SANINDUSA
100
AcDbCircle
 10
102.0073184528899
 20
1065.572480701853
 30
0.0
 40
0.0059999999999998
100
AcDbArc
 50
180.0
 51
270.0000000000033
  0
ARC
  5
F69
330
1F
100
AcDbEntity
  8
SANINDUSA
100
AcDbCircle
 10
102.3043026941946
 20
1065.63058595989
 30
0.0
 40
0.1930026342776726
100
AcDbArc
 50
179.2089837094536
 51
193.0943485100941
  0
ARC
  5
F79
330
1F
100
AcDbEntity
  8
SANINDUSA
100
AcDbCircle
 10
102.0073184528899
 20
1066.010480701853
 30
0.0
 40
0.0059999999999995
100
AcDbArc
 50
89.99999999999186
 51
180.0
  0
ARC
  5
F7C
330
1F
100
AcDbEntity
  8
SANINDUSA
100
AcDbCircle
 10
102.1163184528899
 20
1065.881480701853
 30
0.0
 40
0.0049999999999999
100
AcDbArc
 50
90.00000000019378
 51
180.0
  0
LINE
  5
F82
330
1F
100
AcDbEntity
  8
SANINDUSA
100
AcDbLine
 10
103.4760325300926
 20
1065.838338022173
 30
0.0
 11
103.4760325300926
 21
1065.765338022173
 31
0.0
  0
LINE
  5
F84
330
1F
100
AcDbEntity
  8
SANINDUSA
100
AcDbLine
 10
103.4820325300926
 20
1065.764338022173
 30
0.0
 11
103.4770325300926
 21
1065.764338022173
 31
0.0
  0
ARC
  5
F85
330
1F
100
AcDbEntity
  8
SANINDUSA
100
AcDbCircle
 10
103.4770325300926
 20
1065.765338022173
 30
0.0
 40
0.0010000000000001
100
AcDbArc
 50
180.0
 51
270.0
  0
ARC
  5
F88
330
1F
100
AcDbEntity
  8
SANINDUSA
100
AcDbCircle
 10
103.4820325300926
 20
1065.838338022173
 30
0.0
 40
0.0059999999999998
100
AcDbArc
 50
89.99999999999349
 51
180.0
  0
LINE
  5
F8A
330
1F
100
AcDbEntity
  8
SANINDUSA
100
AcDbLine
 10
103.5760325300923
 20
1065.764338022173
 30
0.0
 11
103.5760325300926
 21
1065.719754941226
 31
0.0
  0
LINE
  5
F8D
330
1F
100
AcDbEntity
  8
SANINDUSA
100
AcDbLine
 10
103.5760325300926
 20
1065.719754941226
 30
0.0
 11
103.5760325300926
 21
1065.712338022173
 31
0.0
  0
ARC
  5
F8F
330
1F
100
AcDbEntity
  8
SANINDUSA
100
AcDbCircle
 10
103.5840325300926
 20
1065.712338022173
 30
0.0
 40
0.008
100
AcDbArc
 50
180.0
 51
270.0
  0
LINE
  5
F94
330
1F
100
AcDbEntity
  8
SANINDUSA
100
AcDbLine
 10
103.8591394680954
 20
1065.670217290196
 30
0.0
 11
103.8627545968352
 21
1065.699941682056
 31
0.0
  0
LINE
  5
F95
330
1F
100
AcDbEntity
  8
SANINDUSA
100
AcDbLine
 10
103.78931046335
 20
1065.699941682056
 30
0.0
 11
103.7929255920898
 21
1065.670217290196
 31
0.0
  0
LINE
  5
F9B
330
1F
100
AcDbEntity
  8
SANINDUSA
100
AcDbLine
 10
102.5913184528899
 20
1065.633250438485
 30
0.0
 11
102.5913184528899
 21
1065.951480701853
 31
0.0
  0
LINE
  5
F9C
330
1F
100
AcDbEntity
  8
SANINDUSA
100
AcDbLine
 10
102.7013184528899
 20
1066.010480701853
 30
0.0
 11
102.7013184528899
 21
1065.572480701853
 31
0.0
  0
ARC
  5
F9F
330
1F
100
AcDbEntity
  8
SANINDUSA
100
AcDbCircle
 10
102.3983342115852
 20
1065.63058595989
 30
0.0
 40
0.1930026342776726
100
AcDbArc
 50
346.9056514899059
 51
0.791016290546334
  0
ARC
  5
FA3
330
1F
100
AcDbEntity
  8
SANINDUSA
100
AcDbCircle
 10
102.6953184528899
 20
1065.572480701853
 30
0.0
 40
0.0060000000000013
100
AcDbArc
 50
270.0000000000033
 51
0.0
  0
LINE
  5
FB6
330
1F
100
AcDbEntity
  8
SANINDUSA
100
AcDbLine
 10
102.5863184528898
 20
1065.956480701853
 30
0.0
 11
102.4715175718155
 21
1065.956480701853
 31
0.0
  0
LINE
  5
FB9
330
1F
100
AcDbEntity
  8
SANINDUSA
100
AcDbLine
 10
102.5863184528899
 20
1065.886480701853
 30
0.0
 11
102.4876459123941
 21
1065.886480701853
 31
0.0
  0
LINE
  5
FBB
330
1F
100
AcDbEntity
  8
SANINDUSA
100
AcDbLine
 10
102.4093272636336
 20
1065.891480701853
 30
0.0
 11
102.4093272636336
 21
1065.961480701853
 31
0.0
  0
CIRCLE
  5
FBE
330
1F
100
AcDbEntity
  8
SANINDUSA
100
AcDbCircle
 10
102.3513184528899
 20
1065.941480701853
 30
0.0
 40
0.0149999999999998
  0
LINE
  5
FC2
330
1F
100
AcDbEntity
  8
SANINDUSA
100
AcDbLine
 10
102.4126313566358
 20
1065.886480701853
 30
0.0
 11
102.4093272636336
 21
1065.886480701853
 31
0.0
  0
CIRCLE
  5
FC5
330
1F
100
AcDbEntity
  8
SANINDUSA
100
AcDbCircle
 10
102.3513184528899
 20
1065.836480701853
 30
0.0
 40
0.0224999999999999
  0
LINE
  5
FCA
330
1F
100
AcDbEntity
  8
SANINDUSA
100
AcDbLine
 10
102.4093272636336
 20
1065.891480701853
 30
0.0
 11
102.4093272636336
 21
1065.886480701853
 31
0.0
  0
LINE
  5
FCC
330
1F
100
AcDbEntity
  8
SANINDUSA
100
AcDbLine
 10
102.4843418193919
 20
1065.886480701853
 30
0.0
 11
102.4126313566358
 21
1065.886480701853
 31
0.0
  0
LINE
  5
FCF
330
1F
100
AcDbEntity
  8
SANINDUSA
100
AcDbLine
 10
102.4876459123941
 20
1065.886480701853
 30
0.0
 11
102.4843418193919
 21
1065.886480701853
 31
0.0
  0
LINE
  5
FD3
330
1F
100
AcDbEntity
  8
SANINDUSA
100
AcDbLine
 10
102.4136886648133
 20
1065.960147843826
 30
0.0
 11
102.4093272636396
 21
1065.961480701853
 31
0.0
  0
LWPOLYLINE
  5
FD6
330
1F
100
AcDbEntity
  8
SANINDUSA
100
AcDbPolyline
 90
       14
 70
   128
 43
0.0
 10
102.4715175718155
 20
1065.956480701853
 10
102.4677877688931
 20
1065.956490380172
 10
102.4650586988381
 20
1065.956509760151
 10
102.4622558171362
 20
1065.956540631406
 10
102.4591966325438
 20
1065.956587260658
 10
102.4562498328482
 20
1065.956645290357
 10
102.4528751174948
 20
1065.956728223659
 10
102.4479856143196
 20
1065.956881399863
 10
102.4436016478631
 20
1065.957054854103
 10
102.4388788514466
 20
1065.957285216865
 10
102.4324859422588
 20
1065.957683286267
 10
102.4260912201024
 20
1065.958214246462
 10
102.4199322738397
 20
1065.958927380795
 10
102.4136886663966
 20
1065.960147843349
  0
LWPOLYLINE
  5
FE0
330
1F
100
AcDbEntity
  8
SANINDUSA
100
AcDbPolyline
 90
        6
 70
   128
 43
0.0
 10
102.5873184528899
 20
1065.886379681339
 10
102.5885841729945
 20
1065.886001237935
 10
102.5895552867344
 20
1065.885304417245
 10
102.590184386168
 20
1065.884651611164
 10
102.5905173117943
 20
1065.884197484272
 10
102.5906712374762
 20
1065.883934512516
  0
LWPOLYLINE
  5
FE1
330
1F
100
AcDbEntity
  8
SANINDUSA
100
AcDbPolyline
 90
        4
 70
   128
 43
0.0
 10
102.5913184528899
 20
1065.88192681423
 10
102.5911395400994
 20
1065.882806265174
 10
102.5909075252751
 20
1065.883465749622
 10
102.5906635429582
 20
1065.883931912034
  0
ARC
  5
FE2
330
1F
100
AcDbEntity
  8
SANINDUSA
100
AcDbCircle
 10
102.5863184528899
 20
1065.881480701853
 30
0.0
 40
0.0049999999999976
100
AcDbArc
 50
78.46304096709627
 51
90.00000000011725
  0
ARC
  5
FF1
330
1F
100
AcDbEntity
  8
SANINDUSA
100
AcDbCircle
 10
102.5863184528899
 20
1065.951480701853
 30
0.0
 40
0.0050000000000097
100
AcDbArc
 50
0.0
 51
90.00000000072628
  0
ARC
  5
FF6
330
1F
100
AcDbEntity
  8
SANINDUSA
100
AcDbCircle
 10
102.6953184528899
 20
1066.010480701853
 30
0.0
 40
0.0059999999999997
100
AcDbArc
 50
0.0
 51
90.00000000010748
  0
LINE
  5
FFD
330
1F
100
AcDbEntity
  8
SANINDUSA
100
AcDbLine
 10
103.8581467829541
 20
1065.669338022173
 30
0.0
 11
103.8260325300926
 21
1065.669338022173
 31
0.0
  0
LINE
  5
FFF
330
1F
100
AcDbEntity
  8
SANINDUSA
100
AcDbLine
 10
103.8260325300926
 20
1065.669338022173
 30
0.0
 11
103.7939182772311
 21
1065.669338022173
 31
0.0
  0
ARC
  5
1000
330
1F
100
AcDbEntity
  8
SANINDUSA
100
AcDbCircle
 10
103.7939182772311
 20
1065.670338022173
 30
0.0
 40
0.0010000000000001
100
AcDbArc
 50
186.934348901325
 51
270.0
  0
ARC
  5
1001
330
1F
100
AcDbEntity
  8
SANINDUSA
100
AcDbCircle
 10
103.8581467829541
 20
1065.670338022173
 30
0.0
 40
0.0010000000000001
100
AcDbArc
 50
270.0
 51
353.0656510986749
  0
ARC
  5
1004
330
1F
100
AcDbEntity
  8
SANINDUSA
100
AcDbCircle
 10
103.7843470376434
 20
1065.699338022173
 30
0.0
 40
0.005
100
AcDbArc
 50
6.934348901272683
 51
90.0
  0
ARC
  5
1008
330
1F
100
AcDbEntity
  8
SANINDUSA
100
AcDbCircle
 10
103.8677180225418
 20
1065.699338022173
 30
0.0
 40
0.005
100
AcDbArc
 50
90.0
 51
173.0656510987273
  0
LINE
  5
100A
330
1F
100
AcDbEntity
  8
SANINDUSA
100
AcDbLine
 10
104.0760325300926
 20
1065.764338022173
 30
0.0
 11
104.0760325300926
 21
1065.719754941226
 31
0.0
  0
LINE
  5
100B
330
1F
100
AcDbEntity
  8
SANINDUSA
100
AcDbLine
 10
104.0760325300926
 20
1065.719754941226
 30
0.0
 11
104.0760325300926
 21
1065.712338022173
 31
0.0
  0
ARC
  5
100E
330
1F
100
AcDbEntity
  8
SANINDUSA
100
AcDbCircle
 10
104.0680325300926
 20
1065.712338022173
 30
0.0
 40
0.008
100
AcDbArc
 50
270.0
 51
0.0
  0
LINE
  5
1013
330
1F
100
AcDbEntity
  8
SANINDUSA
100
AcDbLine
 10
104.1760325300926
 20
1065.838338022173
 30
0.0
 11
104.1760325300926
 21
1065.765338022173
 31
0.0
  0
ARC
  5
1015
330
1F
100
AcDbEntity
  8
SANINDUSA
100
AcDbCircle
 10
104.1750325300926
 20
1065.765338022173
 30
0.0
 40
0.0010000000000001
100
AcDbArc
 50
270.0
 51
0.0
  0
LINE
  5
1016
330
1F
100
AcDbEntity
  8
SANINDUSA
100
AcDbLine
 10
104.1750325300926
 20
1065.764338022173
 30
0.0
 11
104.1700325300926
 21
1065.764338022173
 31
0.0
  0
ARC
  5
1019
330
1F
100
AcDbEntity
  8
SANINDUSA
100
AcDbCircle
 10
104.1700325300926
 20
1065.838338022173
 30
0.0
 40
0.0059999999999999
100
AcDbArc
 50
0.0
 51
90.00000000000488
  0
LINE
  5
101B
330
1F
100
AcDbEntity
  8
SANINDUSA
100
AcDbLine
 10
103.1019621005899
 20
1065.670217290196
 30
0.0
 11
103.1060288930541
 21
1065.703655361569
 31
0.0
  0
LINE
  5
101C
330
1F
100
AcDbEntity
  8
SANINDUSA
100
AcDbLine
 10
103.0395302767546
 20
1065.675246938946
 30
0.0
 11
103.0371179868161
 21
1065.7034291054
 31
0.0
  0
ARC
  5
101E
330
1F
100
AcDbEntity
  8
SANINDUSA
100
AcDbCircle
 10
102.993855162587
 20
1065.694338022173
 30
0.0
 40
0.0200000000000004
100
AcDbArc
 50
180.0
 51
270.0
  0
LINE
  5
1020
330
1F
100
AcDbEntity
  8
SANINDUSA
100
AcDbLine
 10
103.1009694154485
 20
1065.669338022173
 30
0.0
 11
103.0367409097255
 21
1065.669338022173
 31
0.0
  0
LINE
  5
1028
330
1F
100
AcDbEntity
  8
SANINDUSA
100
AcDbLine
 10
104.5068026907932
 20
1065.844338022173
 30
0.0
 11
104.7468480578432
 21
1065.844338022173
 31
0.0
  0
LINE
  5
102B
330
1F
100
AcDbEntity
  8
SANINDUSA
100
AcDbLine
 10
104.5920739342379
 20
1065.669338022173
 30
0.0
 11
104.5450739342379
 21
1065.669338022173
 31
0.0
  0
LINE
  5
102C
330
1F
100
AcDbEntity
  8
SANINDUSA
100
AcDbLine
 10
104.5308314033708
 20
1065.714338022173
 30
0.0
 11
104.6011919346628
 21
1065.714338022173
 31
0.0
  0
ARC
  5
1043
330
1F
100
AcDbEntity
  8
SANINDUSA
100
AcDbCircle
 10
104.4935739342379
 20
1065.694338022173
 30
0.0
 40
0.01
100
AcDbArc
 50
180.0
 51
270.0
  0
ARC
  5
1044
330
1F
100
AcDbEntity
  8
SANINDUSA
100
AcDbCircle
 10
104.4935739342379
 20
1065.694338022173
 30
0.0
 40
0.02
100
AcDbArc
 50
180.0
 51
270.0
  0
LINE
  5
104A
330
1F
100
AcDbEntity
  8
SANINDUSA
100
AcDbLine
 10
104.4935739342379
 20
1065.684338022172
 30
0.0
 11
104.5450739342379
 21
1065.684338022172
 31
0.0
  0
LINE
  5
104B
330
1F
100
AcDbEntity
  8
SANINDUSA
100
AcDbLine
 10
104.5340800789913
 20
1065.674338022173
 30
0.0
 11
104.4935739342379
 21
1065.674338022173
 31
0.0
  0
ARC
  5
104D
330
1F
100
AcDbEntity
  8
SANINDUSA
100
AcDbCircle
 10
104.5364596813764
 20
1065.670338022173
 30
0.0
 40
0.0010000000000001
100
AcDbArc
 50
186.9343489013316
 51
270.0
  0
ARC
  5
104E
330
1F
100
AcDbEntity
  8
SANINDUSA
100
AcDbCircle
 10
104.5340800789913
 20
1065.673338022173
 30
0.0
 40
0.0009999999999999
100
AcDbArc
 50
6.934348901266118
 51
90.0
  0
LINE
  5
104F
330
1F
100
AcDbEntity
  8
SANINDUSA
100
AcDbLine
 10
104.5350727641326
 20
1065.673458754149
 30
0.0
 11
104.5354669962351
 21
1065.670217290196
 31
0.0
  0
ARC
  5
1054
330
1F
100
AcDbEntity
  8
SANINDUSA
100
AcDbCircle
 10
104.5450739342379
 20
1065.683338022173
 30
0.0
 40
0.0009999999999999
100
AcDbArc
 50
0.0
 51
90.0
  0
LINE
  5
1057
330
1F
100
AcDbEntity
  8
SANINDUSA
100
AcDbLine
 10
104.5364596813764
 20
1065.669338022173
 30
0.0
 11
104.5450739342379
 21
1065.669338022173
 31
0.0
  0
ARC
  5
1058
330
1F
100
AcDbEntity
  8
SANINDUSA
100
AcDbCircle
 10
104.5450739342379
 20
1065.670338022173
 30
0.0
 40
0.0010000000000001
100
AcDbArc
 50
270.0
 51
0.0
  0
LINE
  5
1059
330
1F
100
AcDbEntity
  8
SANINDUSA
100
AcDbLine
 10
104.5460739342379
 20
1065.670338022173
 30
0.0
 11
104.5460739342379
 21
1065.683338022173
 31
0.0
  0
LINE
  5
105E
330
1F
100
AcDbEntity
  8
SANINDUSA
100
AcDbLine
 10
104.4685739342379
 20
1065.834338022173
 30
0.0
 11
104.4325739342379
 21
1065.834338022173
 31
0.0
  0
LINE
  5
1060
330
1F
100
AcDbEntity
  8
SANINDUSA
100
AcDbLine
 10
104.4325739342379
 20
1065.844338022173
 30
0.0
 11
104.4695739342379
 21
1065.844338022173
 31
0.0
  0
LINE
  5
1062
330
1F
100
AcDbEntity
  8
SANINDUSA
100
AcDbLine
 10
104.4735739342379
 20
1065.724338022173
 30
0.0
 11
104.403827394278
 21
1065.724338022173
 31
0.0
  0
LINE
  5
1068
330
1F
100
AcDbEntity
  8
SANINDUSA
100
AcDbLine
 10
104.390337204045
 20
1065.734338022173
 30
0.0
 11
104.4079699021158
 21
1065.834338022173
 31
0.0
  0
LINE
  5
1069
330
1F
100
AcDbEntity
  8
SANINDUSA
100
AcDbLine
 10
104.3835739342379
 20
1065.734338022173
 30
0.0
 11
104.3835739342379
 21
1065.834338022173
 31
0.0
  0
LINE
  5
106A
330
1F
100
AcDbEntity
  8
SANINDUSA
100
AcDbLine
 10
104.3735739342379
 20
1065.834338022173
 30
0.0
 11
104.3735739342379
 21
1065.724338022173
 31
0.0
  0
LINE
  5
106B
330
1F
100
AcDbEntity
  8
SANINDUSA
100
AcDbLine
 10
104.3987196423597
 20
1065.725164373995
 30
0.0
 11
104.4172413615066
 21
1065.830206263061
 31
0.0
  0
LINE
  5
106E
330
1F
100
AcDbEntity
  8
SANINDUSA
100
AcDbLine
 10
104.3977348346067
 20
1065.724338022173
 30
0.0
 11
104.3735739342379
 21
1065.724338022173
 31
0.0
  0
LINE
  5
1072
330
1F
100
AcDbEntity
  8
SANINDUSA
100
AcDbLine
 10
104.3835739342379
 20
1065.734338022173
 30
0.0
 11
104.390337204045
 21
1065.734338022173
 31
0.0
  0
LINE
  5
1073
330
1F
100
AcDbEntity
  8
SANINDUSA
100
AcDbLine
 10
104.403827394278
 20
1065.724338022173
 30
0.0
 11
104.3977348346067
 21
1065.724338022173
 31
0.0
  0
ARC
  5
1076
330
1F
100
AcDbEntity
  8
SANINDUSA
100
AcDbCircle
 10
104.3977348346067
 20
1065.725338022173
 30
0.0
 40
0.0010000000000001
100
AcDbArc
 50
270.0
 51
350.0000000000014
  0
LINE
  5
1079
330
1F
100
AcDbEntity
  8
SANINDUSA
100
AcDbLine
 10
104.3835739342379
 20
1065.834338022173
 30
0.0
 11
104.4079699021158
 21
1065.834338022173
 31
0.0
  0
LINE
  5
107A
330
1F
100
AcDbEntity
  8
SANINDUSA
100
AcDbLine
 10
104.4325739342379
 20
1065.844338022173
 30
0.0
 11
104.3835739342379
 21
1065.844338022173
 31
0.0
  0
ARC
  5
107B
330
1F
100
AcDbEntity
  8
SANINDUSA
100
AcDbCircle
 10
104.3835739342379
 20
1065.834338022173
 30
0.0
 40
0.0100000000000003
100
AcDbArc
 50
90.0
 51
180.0
  0
ARC
  5
107D
330
1F
100
AcDbEntity
  8
SANINDUSA
100
AcDbCircle
 10
104.4221654002717
 20
1065.829338022173
 30
0.0
 40
0.005
100
AcDbArc
 50
90.0
 51
170.0000000000014
  0
ARC
  5
1084
330
1F
100
AcDbEntity
  8
SANINDUSA
100
AcDbCircle
 10
104.4325739342379
 20
1065.835338022173
 30
0.0
 40
0.0010000000000002
100
AcDbArc
 50
270.0
 51
0.0
  0
LINE
  5
1086
330
1F
100
AcDbEntity
  8
SANINDUSA
100
AcDbLine
 10
104.4221654002717
 20
1065.834338022173
 30
0.0
 11
104.4325739342379
 21
1065.834338022173
 31
0.0
  0
LINE
  5
1087
330
1F
100
AcDbEntity
  8
SANINDUSA
100
AcDbLine
 10
104.4335739342379
 20
1065.835338022173
 30
0.0
 11
104.4335739342379
 21
1065.843338022173
 31
0.0
  0
ARC
  5
1088
330
1F
100
AcDbEntity
  8
SANINDUSA
100
AcDbCircle
 10
104.4325739342379
 20
1065.843338022173
 30
0.0
 40
0.0010000000000002
100
AcDbArc
 50
0.0
 51
90.0
  0
LINE
  5
108B
330
1F
100
AcDbEntity
  8
SANINDUSA
100
AcDbLine
 10
104.4935739342379
 20
1065.800838022173
 30
0.0
 11
104.4935739342379
 21
1065.724338022173
 31
0.0
  0
LINE
  5
108C
330
1F
100
AcDbEntity
  8
SANINDUSA
100
AcDbLine
 10
104.5035739342379
 20
1065.724338022173
 30
0.0
 11
104.5035739342379
 21
1065.800838022173
 31
0.0
  0
LINE
  5
108D
330
1F
100
AcDbEntity
  8
SANINDUSA
100
AcDbLine
 10
104.4835739342379
 20
1065.834338022173
 30
0.0
 11
104.4835739342379
 21
1065.694338022173
 31
0.0
  0
LINE
  5
108F
330
1F
100
AcDbEntity
  8
SANINDUSA
100
AcDbLine
 10
104.4735739342379
 20
1065.694338022173
 30
0.0
 11
104.4735739342379
 21
1065.82942194239
 31
0.0
  0
ARC
  5
1091
330
1F
100
AcDbEntity
  8
SANINDUSA
100
AcDbCircle
 10
104.5135739342379
 20
1065.724338022173
 30
0.0
 40
0.0200000000000002
100
AcDbArc
 50
180.0
 51
270.0
  0
ARC
  5
1092
330
1F
100
AcDbEntity
  8
SANINDUSA
100
AcDbCircle
 10
104.5135739342379
 20
1065.724338022173
 30
0.0
 40
0.0100000000000002
100
AcDbArc
 50
180.0
 51
270.0
  0
LINE
  5
1098
330
1F
100
AcDbEntity
  8
SANINDUSA
100
AcDbLine
 10
104.5450739342379
 20
1065.696257054381
 30
0.0
 11
104.5360739342379
 21
1065.696257054381
 31
0.0
  0
ARC
  5
1099
330
1F
100
AcDbEntity
  8
SANINDUSA
100
AcDbCircle
 10
104.5308314033708
 20
1065.704338022173
 30
0.0
 40
0.01
100
AcDbArc
 50
48.99999999999955
 51
90.0
  0
LINE
  5
109A
330
1F
100
AcDbEntity
  8
SANINDUSA
100
AcDbLine
 10
104.5360739342379
 20
1065.696257054381
 30
0.0
 11
104.5360739342379
 21
1065.699325033362
 31
0.0
  0
ARC
  5
109C
330
1F
100
AcDbEntity
  8
SANINDUSA
100
AcDbCircle
 10
104.5350739342379
 20
1065.699325033362
 30
0.0
 40
0.001
100
AcDbArc
 50
0.0
 51
48.99999999999955
  0
LINE
  5
109D
330
1F
100
AcDbEntity
  8
SANINDUSA
100
AcDbLine
 10
104.5135739342379
 20
1065.704338022173
 30
0.0
 11
104.5304575186914
 21
1065.704338022173
 31
0.0
  0
LINE
  5
109E
330
1F
100
AcDbEntity
  8
SANINDUSA
100
AcDbLine
 10
104.5308314033708
 20
1065.714338022173
 30
0.0
 11
104.5135739342379
 21
1065.714338022173
 31
0.0
  0
ARC
  5
109F
330
1F
100
AcDbEntity
  8
SANINDUSA
100
AcDbCircle
 10
104.5304575186914
 20
1065.703338022172
 30
0.0
 40
0.001
100
AcDbArc
 50
48.99999999999955
 51
90.0
  0
LINE
  5
10A1
330
1F
100
AcDbEntity
  8
SANINDUSA
100
AcDbLine
 10
104.5357299932669
 20
1065.700079742942
 30
0.0
 11
104.5311135777204
 21
1065.704092731753
 31
0.0
  0
LINE
  5
10AA
330
1F
100
AcDbEntity
  8
SANINDUSA
100
AcDbLine
 10
104.5460739342379
 20
1065.703426569662
 30
0.0
 11
104.5460739342379
 21
1065.697257054381
 31
0.0
  0
ARC
  5
10AB
330
1F
100
AcDbEntity
  8
SANINDUSA
100
AcDbCircle
 10
104.5450739342379
 20
1065.697257054381
 30
0.0
 40
0.001
100
AcDbArc
 50
270.0
 51
359.9999999999935
  0
ARC
  5
10AD
330
1F
100
AcDbEntity
  8
SANINDUSA
100
AcDbCircle
 10
104.5440739342379
 20
1065.703426569662
 30
0.0
 40
0.002
100
AcDbArc
 50
359.9999999999935
 51
48.99999999999955
  0
LINE
  5
10AE
330
1F
100
AcDbEntity
  8
SANINDUSA
100
AcDbLine
 10
104.5453860522959
 20
1065.704935988822
 30
0.0
 11
104.5373919936608
 21
1065.711885117975
 31
0.0
  0
LINE
  5
10B2
330
1F
100
AcDbEntity
  8
SANINDUSA
100
AcDbLine
 10
104.4935739342379
 20
1065.800838022173
 30
0.0
 11
104.4935739342379
 21
1065.827838022173
 31
0.0
  0
LINE
  5
10B4
330
1F
100
AcDbEntity
  8
SANINDUSA
100
AcDbLine
 10
104.5035739342379
 20
1065.827838022173
 30
0.0
 11
104.5035739342379
 21
1065.800838022173
 31
0.0
  0
LINE
  5
10B6
330
1F
100
AcDbEntity
  8
SANINDUSA
100
AcDbLine
 10
104.5025739342379
 20
1065.801838022173
 30
0.0
 11
104.4945739342379
 21
1065.801838022173
 31
0.0
  0
ARC
  5
10B7
330
1F
100
AcDbEntity
  8
SANINDUSA
100
AcDbCircle
 10
104.4945739342379
 20
1065.800838022173
 30
0.0
 40
0.0010000000000002
100
AcDbArc
 50
90.0
 51
180.0
  0
ARC
  5
10B8
330
1F
100
AcDbEntity
  8
SANINDUSA
100
AcDbCircle
 10
104.5025739342379
 20
1065.800838022173
 30
0.0
 40
0.0010000000000001
100
AcDbArc
 50
0.0
 51
90.0
  0
LINE
  5
10B9
330
1F
100
AcDbEntity
  8
SANINDUSA
100
AcDbLine
 10
104.4935739342379
 20
1065.844338022173
 30
0.0
 11
104.4695739342379
 21
1065.844338022173
 31
0.0
  0
ARC
  5
10BA
330
1F
100
AcDbEntity
  8
SANINDUSA
100
AcDbCircle
 10
104.4685739342379
 20
1065.82942194239
 30
0.0
 40
0.005
100
AcDbArc
 50
0.0
 51
80.40593177313521
  0
ARC
  5
10BC
330
1F
100
AcDbEntity
  8
SANINDUSA
100
AcDbCircle
 10
104.4695739342379
 20
1065.835338022173
 30
0.0
 40
0.0010000000000001
100
AcDbArc
 50
180.0
 51
260.4059317731352
  0
LINE
  5
10BE
330
1F
100
AcDbEntity
  8
SANINDUSA
100
AcDbLine
 10
104.4685739342379
 20
1065.843338022173
 30
0.0
 11
104.4685739342379
 21
1065.835338022173
 31
0.0
  0
ARC
  5
10BF
330
1F
100
AcDbEntity
  8
SANINDUSA
100
AcDbCircle
 10
104.4695739342379
 20
1065.843338022173
 30
0.0
 40
0.0009999999999999
100
AcDbArc
 50
90.0
 51
180.0
  0
LINE
  5
10C1
330
1F
100
AcDbEntity
  8
SANINDUSA
100
AcDbLine
 10
104.4945739342379
 20
1065.826838022173
 30
0.0
 11
104.5025739342379
 21
1065.826838022173
 31
0.0
  0
LINE
  5
10C2
330
1F
100
AcDbEntity
  8
SANINDUSA
100
AcDbLine
 10
104.4835739342379
 20
1065.834338022173
 30
0.0
 11
104.4935739342379
 21
1065.834338022173
 31
0.0
  0
LINE
  5
10C3
330
1F
100
AcDbEntity
  8
SANINDUSA
100
AcDbLine
 10
104.4935739342379
 20
1065.834338022173
 30
0.0
 11
104.4935739342379
 21
1065.827838022173
 31
0.0
  0
ARC
  5
10C4
330
1F
100
AcDbEntity
  8
SANINDUSA
100
AcDbCircle
 10
104.4945739342379
 20
1065.827838022173
 30
0.0
 40
0.0010000000000002
100
AcDbArc
 50
180.0
 51
270.0
  0
ARC
  5
10C5
330
1F
100
AcDbEntity
  8
SANINDUSA
100
AcDbCircle
 10
104.5025739342379
 20
1065.827838022173
 30
0.0
 40
0.0010000000000001
100
AcDbArc
 50
270.0
 51
0.0
  0
LINE
  5
10C6
330
1F
100
AcDbEntity
  8
SANINDUSA
100
AcDbLine
 10
104.5035739342379
 20
1065.827838022173
 30
0.0
 11
104.5035739342379
 21
1065.834338022173
 31
0.0
  0
LINE
  5
10C8
330
1F
100
AcDbEntity
  8
SANINDUSA
100
AcDbLine
 10
104.4935739342379
 20
1065.844338022173
 30
0.0
 11
104.5068026907932
 21
1065.844338022173
 31
0.0
  0
ARC
  5
10C9
330
1F
100
AcDbEntity
  8
SANINDUSA
100
AcDbCircle
 10
104.4935739342379
 20
1065.834338022173
 30
0.0
 40
0.01
100
AcDbArc
 50
0.0
 51
90.0
  0
LINE
  5
10CA
330
1F
100
AcDbEntity
  8
SANINDUSA
100
AcDbLine
 10
103.0386113552562
 20
1065.674338022173
 30
0.0
 11
102.993855162587
 21
1065.674338022173
 31
0.0
  0
LWPOLYLINE
  5
10CD
330
1F
100
AcDbEntity
  8
SANINDUSA
100
AcDbPolyline
 90
        7
 70
   128
 43
0.0
 10
103.0386113552563
 20
1065.674338022173
 10
103.0389387451049
 20
1065.674385100826
 10
103.039224199633
 20
1065.674523149164
 10
103.0394185794564
 20
1065.674719025657
 10
103.0395255509029
 20
1065.674965199366
 10
103.0395399549433
 20
1065.675166142483
 10
103.0395302767546
 20
1065.675246938946
  0
ARC
  5
10D2
330
1F
100
AcDbEntity
  8
SANINDUSA
100
AcDbCircle
 10
103.0343613073404
 20
1065.673338022173
 30
0.0
 40
0.0010000000000002
100
AcDbArc
 50
6.934348901272683
 51
90.0
  0
ARC
  5
10D3
330
1F
100
AcDbEntity
  8
SANINDUSA
100
AcDbCircle
 10
103.0367409097255
 20
1065.670338022173
 30
0.0
 40
0.0010000000000001
100
AcDbArc
 50
186.934348901325
 51
270.0
  0
LINE
  5
10D4
330
1F
100
AcDbEntity
  8
SANINDUSA
100
AcDbLine
 10
103.0353539924818
 20
1065.673458754149
 30
0.0
 11
103.0357482245842
 21
1065.670217290196
 31
0.0
  0
LINE
  5
10D9
330
1F
100
AcDbEntity
  8
SANINDUSA
100
AcDbLine
 10
104.8135739342379
 20
1065.774338022173
 30
0.0
 11
104.7834166003381
 21
1065.774338022173
 31
0.0
  0
LINE
  5
10DD
330
1F
100
AcDbEntity
  8
SANINDUSA
100
AcDbLine
 10
104.7468480578432
 20
1065.844338022173
 30
0.0
 11
104.8034166003381
 21
1065.844338022173
 31
0.0
  0
ARC
  5
10DE
330
1F
100
AcDbEntity
  8
SANINDUSA
100
AcDbCircle
 10
104.8034166003381
 20
1065.764338022173
 30
0.0
 40
0.0699999999999999
100
AcDbArc
 50
90.0
 51
130.9143832200271
  0
LINE
  5
10E0
330
1F
100
AcDbEntity
  8
SANINDUSA
100
AcDbLine
 10
104.7744166003381
 20
1065.764338022173
 30
0.0
 11
104.8235739342379
 21
1065.764338022173
 31
0.0
  0
ARC
  5
10E7
330
1F
100
AcDbEntity
  8
SANINDUSA
100
AcDbCircle
 10
104.8034166003381
 20
1065.764338022173
 30
0.0
 40
0.0799999999999999
100
AcDbArc
 50
90.0
 51
130.9143832200271
  0
LINE
  5
10E9
330
1F
100
AcDbEntity
  8
SANINDUSA
100
AcDbLine
 10
104.6016808722407
 20
1065.670217290196
 30
0.0
 11
104.6053639206678
 21
1065.700500132819
 31
0.0
  0
LINE
  5
10EA
330
1F
100
AcDbEntity
  8
SANINDUSA
100
AcDbLine
 10
104.5910739342379
 20
1065.703426569662
 30
0.0
 11
104.5910739342379
 21
1065.670338022173
 31
0.0
  0
LINE
  5
10EC
330
1F
100
AcDbEntity
  8
SANINDUSA
100
AcDbLine
 10
104.5920739342379
 20
1065.669338022173
 30
0.0
 11
104.6006881870994
 21
1065.669338022173
 31
0.0
  0
ARC
  5
10ED
330
1F
100
AcDbEntity
  8
SANINDUSA
100
AcDbCircle
 10
104.5920739342379
 20
1065.670338022173
 30
0.0
 40
0.0010000000000002
100
AcDbArc
 50
180.0
 51
270.0
  0
ARC
  5
10EE
330
1F
100
AcDbEntity
  8
SANINDUSA
100
AcDbCircle
 10
104.6006881870994
 20
1065.670338022173
 30
0.0
 40
0.0010000000000001
100
AcDbArc
 50
270.0
 51
353.0656510986684
  0
LINE
  5
10F0
330
1F
100
AcDbEntity
  8
SANINDUSA
100
AcDbLine
 10
104.647037072352
 20
1065.721439786377
 30
0.0
 11
104.7193300625959
 21
1065.784093711256
 31
0.0
  0
LINE
  5
10F1
330
1F
100
AcDbEntity
  8
SANINDUSA
100
AcDbLine
 10
104.7510221572647
 20
1065.824793148796
 30
0.0
 11
104.6404877669678
 21
1065.728996677205
 31
0.0
  0
ARC
  5
10F5
330
1F
100
AcDbEntity
  8
SANINDUSA
100
AcDbCircle
 10
104.6011919346628
 20
1065.774338022173
 30
0.0
 40
0.0700000000000001
100
AcDbArc
 50
276.9963139795164
 51
310.914383220027
  0
ARC
  5
10F6
330
1F
100
AcDbEntity
  8
SANINDUSA
100
AcDbCircle
 10
104.6011919346628
 20
1065.774338022173
 30
0.0
 40
0.06
100
AcDbArc
 50
274.3923702849202
 51
310.914383220027
  0
LINE
  5
10F8
330
1F
100
AcDbEntity
  8
SANINDUSA
100
AcDbLine
 10
104.5917618161799
 20
1065.704935988822
 30
0.0
 11
104.5999923823114
 21
1065.712090710805
 31
0.0
  0
ARC
  5
10FB
330
1F
100
AcDbEntity
  8
SANINDUSA
100
AcDbCircle
 10
104.5930739342379
 20
1065.703426569662
 30
0.0
 40
0.002
100
AcDbArc
 50
131.0000000000004
 51
180.0
  0
LINE
  5
10FC
330
1F
100
AcDbEntity
  8
SANINDUSA
100
AcDbLine
 10
104.6011919346628
 20
1065.714338022173
 30
0.0
 11
104.6016388140278
 21
1065.714339686372
 31
0.0
  0
LWPOLYLINE
  5
10FD
330
1F
100
AcDbEntity
  8
SANINDUSA
100
AcDbPolyline
 90
        4
 70
   128
 43
0.0
 10
104.6016377491353
 20
1065.71433967845
 10
104.6036447823366
 20
1065.714388180319
 10
104.6053409468586
 20
1065.714481646591
 10
104.6059277854398
 20
1065.714525216542
  0
ARC
  5
1100
330
1F
100
AcDbEntity
  8
SANINDUSA
100
AcDbCircle
 10
104.6065529726013
 20
1065.704543615002
 30
0.0
 40
0.01
100
AcDbArc
 50
94.39237028492019
 51
131.0000000000004
  0
ARC
  5
1101
330
1F
100
AcDbEntity
  8
SANINDUSA
100
AcDbCircle
 10
104.6103273463744
 20
1065.699896472935
 30
0.0
 40
0.005
100
AcDbArc
 50
96.99631397951648
 51
173.0656510987273
  0
LINE
  5
1105
330
1F
100
AcDbEntity
  8
SANINDUSA
100
AcDbLine
 10
104.7734166003381
 20
1065.765338022173
 30
0.0
 11
104.7734166003381
 21
1065.783338022173
 31
0.0
  0
LINE
  5
1106
330
1F
100
AcDbEntity
  8
SANINDUSA
100
AcDbLine
 10
104.7724166003381
 20
1065.764338022173
 30
0.0
 11
104.6965350367312
 21
1065.764338022173
 31
0.0
  0
LINE
  5
1108
330
1F
100
AcDbEntity
  8
SANINDUSA
100
AcDbLine
 10
104.7744166003381
 20
1065.764338022173
 30
0.0
 11
104.7724166003381
 21
1065.764338022173
 31
0.0
  0
ARC
  5
110B
330
1F
100
AcDbEntity
  8
SANINDUSA
100
AcDbCircle
 10
104.7744166003381
 20
1065.765338022173
 30
0.0
 40
0.0009999999999999
100
AcDbArc
 50
180.0
 51
270.0
  0
LINE
  5
110C
330
1F
100
AcDbEntity
  8
SANINDUSA
100
AcDbLine
 10
104.7311504213466
 20
1065.794338022173
 30
0.0
 11
104.7575714626488
 21
1065.817236257968
 31
0.0
  0
LINE
  5
110E
330
1F
100
AcDbEntity
  8
SANINDUSA
100
AcDbLine
 10
104.7311504213466
 20
1065.794338022173
 30
0.0
 11
104.7724166003381
 21
1065.794338022173
 31
0.0
  0
LINE
  5
110F
330
1F
100
AcDbEntity
  8
SANINDUSA
100
AcDbLine
 10
104.7724166003381
 20
1065.784338022173
 30
0.0
 11
104.7199849931344
 21
1065.784338022173
 31
0.0
  0
ARC
  5
1110
330
1F
100
AcDbEntity
  8
SANINDUSA
100
AcDbCircle
 10
104.7199849931344
 20
1065.783338022173
 30
0.0
 40
0.0010000000000001
100
AcDbArc
 50
90.0
 51
130.9143832199959
  0
LINE
  5
1111
330
1F
100
AcDbEntity
  8
SANINDUSA
100
AcDbLine
 10
104.7834166003381
 20
1065.783338022173
 30
0.0
 11
104.7834166003381
 21
1065.774338022173
 31
0.0
  0
ARC
  5
1113
330
1F
100
AcDbEntity
  8
SANINDUSA
100
AcDbCircle
 10
104.7724166003381
 20
1065.783338022173
 30
0.0
 40
0.0010000000000002
100
AcDbArc
 50
0.0
 51
90.0
  0
ARC
  5
1115
330
1F
100
AcDbEntity
  8
SANINDUSA
100
AcDbCircle
 10
104.7724166003381
 20
1065.783338022173
 30
0.0
 40
0.0110000000000002
100
AcDbArc
 50
0.0
 51
90.0
  0
LINE
  5
111A
330
1F
100
AcDbEntity
  8
SANINDUSA
100
AcDbLine
 10
104.8235739342379
 20
1065.764338022173
 30
0.0
 11
104.8235739342379
 21
1065.834338022173
 31
0.0
  0
LINE
  5
111C
330
1F
100
AcDbEntity
  8
SANINDUSA
100
AcDbLine
 10
104.8135739342379
 20
1065.829338022173
 30
0.0
 11
104.8135739342379
 21
1065.774338022173
 31
0.0
  0
ARC
  5
111D
330
1F
100
AcDbEntity
  8
SANINDUSA
100
AcDbCircle
 10
104.8085739342379
 20
1065.829338022173
 30
0.0
 40
0.0050000000000003
100
AcDbArc
 50
0.0
 51
89.99999999998697
  0
LINE
  5
1120
330
1F
100
AcDbEntity
  8
SANINDUSA
100
AcDbLine
 10
104.8034166003381
 20
1065.834338022173
 30
0.0
 11
104.8085739342379
 21
1065.834338022173
 31
0.0
  0
LINE
  5
1121
330
1F
100
AcDbEntity
  8
SANINDUSA
100
AcDbLine
 10
104.8135739342379
 20
1065.844338022173
 30
0.0
 11
104.8034166003381
 21
1065.844338022173
 31
0.0
  0
ARC
  5
1122
330
1F
100
AcDbEntity
  8
SANINDUSA
100
AcDbCircle
 10
104.8135739342379
 20
1065.834338022173
 30
0.0
 40
0.01
100
AcDbArc
 50
0.0
 51
90.0
  0
ARC
  5
1124
330
1F
100
AcDbEntity
  8
SANINDUSA
100
AcDbCircle
 10
103.1009694154485
 20
1065.670338022173
 30
0.0
 40
0.0010000000000001
100
AcDbArc
 50
270.0
 51
353.0656510986749
  0
LINE
  5
1125
330
1F
100
AcDbEntity
  8
SANINDUSA
100
AcDbLine
 10
102.878855162587
 20
1065.764338022173
 30
0.0
 11
103.313855162587
 21
1065.764338022173
 31
0.0
  0
LINE
  5
1127
330
1F
100
AcDbEntity
  8
SANINDUSA
100
AcDbLine
 10
102.883855162587
 20
1065.844338022173
 30
0.0
 11
103.313855162587
 21
1065.844338022173
 31
0.0
  0
LINE
  5
112C
330
1F
100
AcDbEntity
  8
SANINDUSA
100
AcDbLine
 10
103.1014731630119
 20
1065.704338022173
 30
0.0
 11
103.013855162587
 21
1065.704338022173
 31
0.0
  0
LINE
  5
1134
330
1F
100
AcDbEntity
  8
SANINDUSA
100
AcDbLine
 10
102.9893602651592
 20
1065.724338022173
 30
0.0
 11
102.873855162587
 21
1065.724338022173
 31
0.0
  0
LINE
  5
1137
330
1F
100
AcDbEntity
  8
SANINDUSA
100
AcDbLine
 10
102.873855162587
 20
1065.764338022173
 30
0.0
 11
102.873855162587
 21
1065.834338022173
 31
0.0
  0
LINE
  5
1138
330
1F
100
AcDbEntity
  8
SANINDUSA
100
AcDbLine
 10
102.873855162587
 20
1065.729338022173
 30
0.0
 11
102.873855162587
 21
1065.759338022173
 31
0.0
  0
LINE
  5
1139
330
1F
100
AcDbEntity
  8
SANINDUSA
100
AcDbLine
 10
102.873855162587
 20
1065.724338022173
 30
0.0
 11
102.873855162587
 21
1065.729338022173
 31
0.0
  0
LINE
  5
113B
330
1F
100
AcDbEntity
  8
SANINDUSA
100
AcDbLine
 10
102.873855162587
 20
1065.759338022173
 30
0.0
 11
102.873855162587
 21
1065.764338022173
 31
0.0
  0
LINE
  5
113C
330
1F
100
AcDbEntity
  8
SANINDUSA
100
AcDbLine
 10
102.878855162587
 20
1065.764338022173
 30
0.0
 11
102.873855162587
 21
1065.764338022173
 31
0.0
  0
LINE
  5
1140
330
1F
100
AcDbEntity
  8
SANINDUSA
100
AcDbLine
 10
102.8739823838554
 20
1065.835928066234
 30
0.0
 11
102.873855162587
 21
1065.834338022173
 31
0.0
  0
LWPOLYLINE
  5
1143
330
1F
100
AcDbEntity
  8
SANINDUSA
100
AcDbPolyline
 90
        9
 70
   128
 43
0.0
 10
102.883855162587
 20
1065.844338022173
 10
102.8821129059787
 20
1065.844178292628
 10
102.8803467004578
 20
1065.84368338296
 10
102.8786174540451
 20
1065.842829338631
 10
102.8770188346609
 20
1065.841608935173
 10
102.875664554986
 20
1065.840055359739
 10
102.8746574442599
 20
1065.838253543479
 10
102.8740534621882
 20
1065.836318045349
 10
102.8740139765133
 20
1065.835923780555
  0
ARC
  5
1146
330
1F
100
AcDbEntity
  8
SANINDUSA
100
AcDbCircle
 10
102.9893602651592
 20
1065.719338022173
 30
0.0
 40
0.005
100
AcDbArc
 50
11.53695903280488
 51
90.0
  0
LINE
  5
114A
330
1F
100
AcDbEntity
  8
SANINDUSA
100
AcDbLine
 10
102.973855162587
 20
1065.694338022173
 30
0.0
 11
102.973855162587
 21
1065.724338022173
 31
0.0
  0
ARC
  5
114F
330
1F
100
AcDbEntity
  8
SANINDUSA
100
AcDbCircle
 10
103.013855162587
 20
1065.724338022173
 30
0.0
 40
0.0199999999999999
100
AcDbArc
 50
191.5369590328048
 51
270.0
  0
LINE
  5
1152
330
1F
100
AcDbEntity
  8
SANINDUSA
100
AcDbLine
 10
103.0371179868161
 20
1065.7034291054
 30
0.0
 11
103.0371179868161
 21
1065.704338022173
 31
0.0
  0
LINE
  5
1154
330
1F
100
AcDbEntity
  8
SANINDUSA
100
AcDbLine
 10
103.1968162650803
 20
1065.764338022173
 30
0.0
 11
103.1473183007012
 21
1065.721439786377
 31
0.0
  0
ARC
  5
1155
330
1F
100
AcDbEntity
  8
SANINDUSA
100
AcDbCircle
 10
103.1014731630119
 20
1065.774338022173
 30
0.0
 40
0.0700000000000001
100
AcDbArc
 50
270.0
 51
310.9143832200178
  0
LWPOLYLINE
  5
115A
330
1F
100
AcDbEntity
  8
SANINDUSA
100
AcDbPolyline
 90
        6
 70
   128
 43
0.0
 10
103.1060440731167
 20
1065.703665543035
 10
103.1060451894425
 20
1065.703759647813
 10
103.1061493147617
 20
1065.704039861869
 10
103.1062954110021
 20
1065.70424019388
 10
103.1064540111664
 20
1065.704376931232
 10
103.1065214775363
 20
1065.704415607331
  0
LINE
  5
115D
330
1F
100
AcDbEntity
  8
SANINDUSA
100
AcDbLine
 10
103.323855162587
 20
1065.834338022173
 30
0.0
 11
103.323855162587
 21
1065.764338022173
 31
0.0
  0
LINE
  5
115F
330
1F
100
AcDbEntity
  8
SANINDUSA
100
AcDbLine
 10
103.323855162587
 20
1065.764338022173
 30
0.0
 11
103.313855162587
 21
1065.764338022173
 31
0.0
  0
ARC
  5
1161
330
1F
100
AcDbEntity
  8
SANINDUSA
100
AcDbCircle
 10
103.313855162587
 20
1065.834338022173
 30
0.0
 40
0.01
100
AcDbArc
 50
0.0
 51
90.0
  0
CIRCLE
  5
1304
330
1F
100
AcDbEntity
  8
SANINDUSA
100
AcDbCircle
 10
102.3513184528899
 20
1065.836480701853
 30
0.0
 40
0.0340995286112218
  0
ENDSEC
  0
SECTION
  2
OBJECTS
  0
DICTIONARY
  5
C
330
0
100
AcDbDictionary
281
     1
  3
ACAD_COLOR
350
1335
  3
ACAD_GROUP
350
D
  3
ACAD_LAYOUT
350
1A
  3
ACAD_MATERIAL
350
1308
  3
ACAD_MLEADERSTYLE
350
134A
  3
ACAD_MLINESTYLE
350
17
  3
ACAD_PLOTSETTINGS
350
19
  3
ACAD_PLOTSTYLENAME
350
E
  3
ACAD_SCALELIST
350
1338
  3
ACAD_TABLESTYLE
350
1336
  3
ACAD_VISUALSTYLE
350
1321
  3
ACDB_RECOMPOSE_DATA
350
1377
  3
AcDbVariableDictionary
350
3D
  3
ASE_INDEX_DICTIONARY
350
1301
  3
DWGPROPS
350
1378
  0
DICTIONARY
  5
1351
330
10
100
AcDbDictionary
280
     1
281
     1
  3
ADSK_XREC_LAYER_RECONCILED
360
1352
  0
DICTIONARY
  5
1353
330
2F
100
AcDbDictionary
280
     1
281
     1
  3
ADSK_XREC_LAYER_RECONCILED
360
1354
  0
DICTIONARY
  5
1355
330
30
100
AcDbDictionary
280
     1
281
     1
  3
ADSK_XREC_LAYER_RECONCILED
360
1356
  0
DICTIONARY
  5
1357
330
31
100
AcDbDictionary
280
     1
281
     1
  3
ADSK_XREC_LAYER_RECONCILED
360
1358
  0
DICTIONARY
  5
1359
330
32
100
AcDbDictionary
280
     1
281
     1
  3
ADSK_XREC_LAYER_RECONCILED
360
135A
  0
DICTIONARY
  5
135B
330
33
100
AcDbDictionary
280
     1
281
     1
  3
ADSK_XREC_LAYER_RECONCILED
360
135C
  0
DICTIONARY
  5
135D
330
34
100
AcDbDictionary
280
     1
281
     1
  3
ADSK_XREC_LAYER_RECONCILED
360
135E
  0
DICTIONARY
  5
135F
330
35
100
AcDbDictionary
280
     1
281
     1
  3
ADSK_XREC_LAYER_RECONCILED
360
1360
  0
DICTIONARY
  5
1361
330
36
100
AcDbDictionary
280
     1
281
     1
  3
ADSK_XREC_LAYER_RECONCILED
360
1362
  0
DICTIONARY
  5
1363
330
37
100
AcDbDictionary
280
     1
281
     1
  3
ADSK_XREC_LAYER_RECONCILED
360
1364
  0
DICTIONARY
  5
1365
330
5D6
100
AcDbDictionary
280
     1
281
     1
  3
ADSK_XREC_LAYER_RECONCILED
360
1366
  0
DICTIONARY
  5
1367
330
8AF
100
AcDbDictionary
280
     1
281
     1
  3
ADSK_XREC_LAYER_RECONCILED
360
1368
  0
DICTIONARY
  5
1369
330
8F8
100
AcDbDictionary
280
     1
281
     1
  3
ADSK_XREC_LAYER_RECONCILED
360
136A
  0
DICTIONARY
  5
136B
330
91D
100
AcDbDictionary
280
     1
281
     1
  3
ADSK_XREC_LAYER_RECONCILED
360
136C
  0
DICTIONARY
  5
136D
330
BA5
100
AcDbDictionary
280
     1
281
     1
  3
ADSK_XREC_LAYER_RECONCILED
360
136E
  0
DICTIONARY
  5
1335
102
{ACAD_REACTORS
330
C
102
}
330
C
100
AcDbDictionary
281
     1
  0
DICTIONARY
  5
D
102
{ACAD_REACTORS
330
C
102
}
330
C
100
AcDbDictionary
281
     1
  0
DICTIONARY
  5
1A
102
{ACAD_REACTORS
330
C
102
}
330
C
100
AcDbDictionary
281
     1
  3
Layout1
350
1E
  3
Layout2
350
26
  3
Model
350
22
  0
DICTIONARY
  5
1308
102
{ACAD_REACTORS
330
C
102
}
330
C
100
AcDbDictionary
281
     1
  3
ByBlock
350
1311
  3
ByLayer
350
1309
  3
Global
350
1319
  0
DICTIONARY
  5
134A
102
{ACAD_REACTORS
330
C
102
}
330
C
100
AcDbDictionary
281
     1
  3
Standard
350
134B
  0
DICTIONARY
  5
17
102
{ACAD_REACTORS
330
C
102
}
330
C
100
AcDbDictionary
281
     1
  3
Standard
350
18
  0
DICTIONARY
  5
19
102
{ACAD_REACTORS
330
C
102
}
330
C
100
AcDbDictionary
281
     1
  0
ACDBDICTIONARYWDFLT
  5
E
102
{ACAD_REACTORS
330
C
102
}
330
C
100
AcDbDictionary
281
     1
  3
Normal
350
F
100
AcDbDictionaryWithDefault
340
F
  0
DICTIONARY
  5
1338
102
{ACAD_REACTORS
330
C
102
}
330
C
100
AcDbDictionary
281
     1
  3
A0
350
1339
  3
A1
350
133A
  3
A2
350
133B
  3
A3
350
133C
  3
A4
350
133D
  3
A5
350
133E
  3
A6
350
133F
  3
A7
350
1340
  3
A8
350
1341
  3
A9
350
1342
  3
B0
350
1343
  3
B1
350
1344
  3
B2
350
1345
  3
B3
350
1346
  3
B4
350
1347
  3
B5
350
1348
  3
B6
350
1349
  0
DICTIONARY
  5
1336
102
{ACAD_REACTORS
330
C
102
}
330
C
100
AcDbDictionary
281
     1
  3
Standard
350
1337
  0
DICTIONARY
  5
1321
102
{ACAD_REACTORS
330
C
102
}
330
C
100
AcDbDictionary
281
     1
  3
2dWireframe
350
1327
  3
3D Hidden
350
1329
  3
3dWireframe
350
1328
  3
Basic
350
1326
  3
Brighten
350
132D
  3
ColorChange
350
1331
  3
Conceptual
350
132A
  3
Dim
350
132C
  3
EdgeColorOff
350
1334
  3
Facepattern
350
1330
  3
Flat
350
1322
  3
FlatWithEdges
350
1323
  3
Gouraud
350
1324
  3
GouraudWithEdges
350
1325
  3
JitterOff
350
1332
  3
Linepattern
350
132F
  3
OverhangOff
350
1333
  3
Realistic
350
132B
  3
Thicken
350
132E
  0
XRECORD
  5
1377
102
{ACAD_REACTORS
330
C
102
}
330
C
100
AcDbXrecord
280
     1
 90
        1
330
1337
  0
DICTIONARY
  5
3D
102
{ACAD_REACTORS
330
C
102
}
330
C
100
AcDbDictionary
281
     1
  3
CANNOSCALE
350
1371
  3
CMLEADERSTYLE
350
1370
  3
CTABLESTYLE
350
136F
  3
DIMASSOC
350
3F
  3
HIDETEXT
350
3E
  3
INDEXCTL
350
1373
  3
SORTENTS
350
1372
  3
XCLIPFRAME
350
1374
  0
DICTIONARY
  5
1301
102
{ACAD_REACTORS
330
C
102
}
330
C
100
AcDbDictionary
281
     1
  3
ASEBlockHierarchyIndexRecord
350
1302
1001
DCO15
1040
1528804807.921
  0
XRECORD
  5
1378
102
{ACAD_REACTORS
330
C
102
}
330
C
100
AcDbXrecord
280
     1
  1
DWGPROPS COOKIE
  2

  3

  4

  6

  7

  8
Julio
  9

300
=
301
=
302
=
303
=
304
=
305
=
306
=
307
=
308
=
309
=
 40
0.0056973263888889
 41
2453497.706398831
 42
2456146.482180266
  1

 90
        0
  0
XRECORD
  5
1352
102
{ACAD_REACTORS
330
1351
102
}
330
1351
100
AcDbXrecord
280
     1
290
     1
  0
XRECORD
  5
1354
102
{ACAD_REACTORS
330
1353
102
}
330
1353
100
AcDbXrecord
280
     1
290
     1
  0
XRECORD
  5
1356
102
{ACAD_REACTORS
330
1355
102
}
330
1355
100
AcDbXrecord
280
     1
290
     1
  0
XRECORD
  5
1358
102
{ACAD_REACTORS
330
1357
102
}
330
1357
100
AcDbXrecord
280
     1
290
     1
  0
XRECORD
  5
135A
102
{ACAD_REACTORS
330
1359
102
}
330
1359
100
AcDbXrecord
280
     1
290
     1
  0
XRECORD
  5
135C
102
{ACAD_REACTORS
330
135B
102
}
330
135B
100
AcDbXrecord
280
     1
290
     1
  0
XRECORD
  5
135E
102
{ACAD_REACTORS
330
135D
102
}
330
135D
100
AcDbXrecord
280
     1
290
     1
  0
XRECORD
  5
1360
102
{ACAD_REACTORS
330
135F
102
}
330
135F
100
AcDbXrecord
280
     1
290
     1
  0
XRECORD
  5
1362
102
{ACAD_REACTORS
330
1361
102
}
330
1361
100
AcDbXrecord
280
     1
290
     1
  0
XRECORD
  5
1364
102
{ACAD_REACTORS
330
1363
102
}
330
1363
100
AcDbXrecord
280
     1
290
     1
  0
XRECORD
  5
1366
102
{ACAD_REACTORS
330
1365
102
}
330
1365
100
AcDbXrecord
280
     1
290
     1
  0
XRECORD
  5
1368
102
{ACAD_REACTORS
330
1367
102
}
330
1367
100
AcDbXrecord
280
     1
290
     1
  0
XRECORD
  5
136A
102
{ACAD_REACTORS
330
1369
102
}
330
1369
100
AcDbXrecord
280
     1
290
     1
  0
XRECORD
  5
136C
102
{ACAD_REACTORS
330
136B
102
}
330
136B
100
AcDbXrecord
280
     1
290
     1
  0
XRECORD
  5
136E
102
{ACAD_REACTORS
330
136D
102
}
330
136D
100
AcDbXrecord
280
     1
290
     1
  0
LAYOUT
  5
1E
102
{ACAD_XDICTIONARY
360
1379
102
}
102
{ACAD_REACTORS
330
1A
102
}
330
1A
100
AcDbPlotSettings
  1

  2
Ploter HP500
  4

  6

 40
0.0
 41
0.0
 42
0.0
 43
0.0
 44
0.0
 45
0.0
 46
0.0
 47
0.0
 48
0.0
 49
0.0
140
0.0
141
0.0
142
1.0
143
1.0
 70
   688
 72
     0
 73
     0
 74
     5
  7
monochrome.ctb
 75
    16
147
1.0
148
0.0
149
0.0
100
AcDbLayout
  1
Layout1
 70
     1
 71
     1
 10
0.0
 20
0.0
 11
420.0
 21
297.0
 12
0.0
 22
0.0
 32
0.0
 14
1.000000000000000E+20
 24
1.000000000000000E+20
 34
1.000000000000000E+20
 15
-1.000000000000000E+20
 25
-1.000000000000000E+20
 35
-1.000000000000000E+20
146
0.0
 13
0.0
 23
0.0
 33
0.0
 16
1.0
 26
0.0
 36
0.0
 17
0.0
 27
1.0
 37
0.0
 76
     0
330
1B
  0
LAYOUT
  5
26
102
{ACAD_XDICTIONARY
360
137D
102
}
102
{ACAD_REACTORS
330
1A
102
}
330
1A
100
AcDbPlotSettings
  1

  2
Ploter HP500
  4

  6

 40
0.0
 41
0.0
 42
0.0
 43
0.0
 44
0.0
 45
0.0
 46
0.0
 47
0.0
 48
0.0
 49
0.0
140
0.0
141
0.0
142
1.0
143
1.0
 70
   688
 72
     0
 73
     0
 74
     5
  7
monochrome.ctb
 75
    16
147
1.0
148
0.0
149
0.0
100
AcDbLayout
  1
Layout2
 70
     1
 71
     2
 10
0.0
 20
0.0
 11
12.0
 21
9.0
 12
0.0
 22
0.0
 32
0.0
 14
0.0
 24
0.0
 34
0.0
 15
0.0
 25
0.0
 35
0.0
146
0.0
 13
0.0
 23
0.0
 33
0.0
 16
1.0
 26
0.0
 36
0.0
 17
0.0
 27
1.0
 37
0.0
 76
     0
330
23
  0
LAYOUT
  5
22
102
{ACAD_XDICTIONARY
360
137B
102
}
102
{ACAD_REACTORS
330
1A
102
}
330
1A
100
AcDbPlotSettings
  1

  2
Ploter HP500
  4
User268
  6

 40
4.995333194732666
 41
16.97565841674804
 42
4.995330810546875
 43
16.97567749023437
 44
209.9733276367187
 45
296.9259948730469
 46
0.0
 47
0.0
 48
0.0
 49
0.0
140
0.0
141
0.0
142
1.0
143
1.0
 70
 11952
 72
     1
 73
     1
 74
     0
  7

 75
     0
147
1.0
148
-427.5957866592534
149
7.362384574453926
100
AcDbLayout
  1
Model
 70
     1
 71
     0
 10
0.0
 20
0.0
 11
12.0
 21
9.0
 12
0.0
 22
0.0
 32
0.0
 14
0.0
 24
0.0
 34
0.0
 15
0.0
 25
0.0
 35
0.0
146
0.0
 13
0.0
 23
0.0
 33
0.0
 16
1.0
 26
0.0
 36
0.0
 17
0.0
 27
1.0
 37
0.0
 76
     0
330
1F
331
1306
  0
MATERIAL
  5
1311
102
{ACAD_XDICTIONARY
360
1312
102
}
102
{ACAD_REACTORS
330
1308
102
}
330
1308
100
AcDbMaterial
  1
ByBlock
 72
     0
 43
0.0008202099737533
 43
0.0
 43
0.0
 43
0.0
 43
0.0
 43
0.0008202099737533
 43
0.0
 43
0.0
 43
0.0
 43
0.0
 43
1.0
 43
0.0
 43
0.0
 43
0.0
 43
0.0
 43
1.0
 77
     0
 47
0.0008202099737533
 47
0.0
 47
0.0
 47
0.0
 47
0.0
 47
0.0008202099737533
 47
0.0
 47
0.0
 47
0.0
 47
0.0
 47
1.0
 47
0.0
 47
0.0
 47
0.0
 47
0.0
 47
1.0
171
     0
 49
0.0008202099737533
 49
0.0
 49
0.0
 49
0.0
 49
0.0
 49
0.0008202099737533
 49
0.0
 49
0.0
 49
0.0
 49
0.0
 49
1.0
 49
0.0
 49
0.0
 49
0.0
 49
0.0
 49
1.0
175
     0
142
0.0008202099737533
142
0.0
142
0.0
142
0.0
142
0.0
142
0.0008202099737533
142
0.0
142
0.0
142
0.0
142
0.0
142
1.0
142
0.0
142
0.0
142
0.0
142
0.0
142
1.0
179
     0
144
0.0008202099737533
144
0.0
144
0.0
144
0.0
144
0.0
144
0.0008202099737533
144
0.0
144
0.0
144
0.0
144
0.0
144
1.0
144
0.0
144
0.0
144
0.0
144
0.0
144
1.0
147
0.0008202099737533
147
0.0
147
0.0
147
0.0
147
0.0
147
0.0008202099737533
147
0.0
147
0.0
147
0.0
147
0.0
147
1.0
147
0.0
147
0.0
147
0.0
147
0.0
147
1.0
  0
MATERIAL
  5
1309
102
{ACAD_XDICTIONARY
360
130A
102
}
102
{ACAD_REACTORS
330
1308
102
}
330
1308
100
AcDbMaterial
  1
ByLayer
 72
     0
 43
0.0008202099737533
 43
0.0
 43
0.0
 43
0.0
 43
0.0
 43
0.0008202099737533
 43
0.0
 43
0.0
 43
0.0
 43
0.0
 43
1.0
 43
0.0
 43
0.0
 43
0.0
 43
0.0
 43
1.0
 77
     0
 47
0.0008202099737533
 47
0.0
 47
0.0
 47
0.0
 47
0.0
 47
0.0008202099737533
 47
0.0
 47
0.0
 47
0.0
 47
0.0
 47
1.0
 47
0.0
 47
0.0
 47
0.0
 47
0.0
 47
1.0
171
     0
 49
0.0008202099737533
 49
0.0
 49
0.0
 49
0.0
 49
0.0
 49
0.0008202099737533
 49
0.0
 49
0.0
 49
0.0
 49
0.0
 49
1.0
 49
0.0
 49
0.0
 49
0.0
 49
0.0
 49
1.0
175
     0
142
0.0008202099737533
142
0.0
142
0.0
142
0.0
142
0.0
142
0.0008202099737533
142
0.0
142
0.0
142
0.0
142
0.0
142
1.0
142
0.0
142
0.0
142
0.0
142
0.0
142
1.0
179
     0
144
0.0008202099737533
144
0.0
144
0.0
144
0.0
144
0.0
144
0.0008202099737533
144
0.0
144
0.0
144
0.0
144
0.0
144
1.0
144
0.0
144
0.0
144
0.0
144
0.0
144
1.0
147
0.0008202099737533
147
0.0
147
0.0
147
0.0
147
0.0
147
0.0008202099737533
147
0.0
147
0.0
147
0.0
147
0.0
147
1.0
147
0.0
147
0.0
147
0.0
147
0.0
147
1.0
  0
MATERIAL
  5
1319
102
{ACAD_XDICTIONARY
360
131A
102
}
102
{ACAD_REACTORS
330
1308
102
}
330
1308
100
AcDbMaterial
  1
Global
 72
     0
 43
0.0008202099737533
 43
0.0
 43
0.0
 43
0.0
 43
0.0
 43
0.0008202099737533
 43
0.0
 43
0.0
 43
0.0
 43
0.0
 43
1.0
 43
0.0
 43
0.0
 43
0.0
 43
0.0
 43
1.0
 77
     0
 47
0.0008202099737533
 47
0.0
 47
0.0
 47
0.0
 47
0.0
 47
0.0008202099737533
 47
0.0
 47
0.0
 47
0.0
 47
0.0
 47
1.0
 47
0.0
 47
0.0
 47
0.0
 47
0.0
 47
1.0
171
     0
 49
0.0008202099737533
 49
0.0
 49
0.0
 49
0.0
 49
0.0
 49
0.0008202099737533
 49
0.0
 49
0.0
 49
0.0
 49
0.0
 49
1.0
 49
0.0
 49
0.0
 49
0.0
 49
0.0
 49
1.0
175
     0
142
0.0008202099737533
142
0.0
142
0.0
142
0.0
142
0.0
142
0.0008202099737533
142
0.0
142
0.0
142
0.0
142
0.0
142
1.0
142
0.0
142
0.0
142
0.0
142
0.0
142
1.0
179
     0
144
0.0008202099737533
144
0.0
144
0.0
144
0.0
144
0.0
144
0.0008202099737533
144
0.0
144
0.0
144
0.0
144
0.0
144
1.0
144
0.0
144
0.0
144
0.0
144
0.0
144
1.0
147
0.0008202099737533
147
0.0
147
0.0
147
0.0
147
0.0
147
0.0008202099737533
147
0.0
147
0.0
147
0.0
147
0.0
147
1.0
147
0.0
147
0.0
147
0.0
147
0.0
147
1.0
  0
MLEADERSTYLE
  5
134B
102
{ACAD_REACTORS
330
134A
102
}
330
134A
100
AcDbMLeaderStyle
170
     2
171
     1
172
     0
 90
        2
 40
0.0
 41
0.0
173
     1
 91
-1056964608
340
14
 92
       -2
290
     1
 42
2.0
291
     1
 43
0.36
  3
Standard
 44
4.0
300

342
11
174
     1
178
     6
175
     1
176
     0
 93
-1056964608
 45
4.0
292
     0
297
     0
 46
4.0
 94
-1056964608
 47
1.0
 49
1.0
140
1.0
293
     1
141
0.0
294
     1
177
     0
142
1.0
295
     0
296
     0
143
0.125
1001
ACAD_MLEADERVER
1070
     2
  0
MLINESTYLE
  5
18
102
{ACAD_REACTORS
330
17
102
}
330
17
100
AcDbMlineStyle
  2
STANDARD
 70
     0
  3

 62
   256
 51
90.0
 52
90.0
 71
     2
 49
0.5
 62
   256
  6
BYLAYER
 49
-0.5
 62
   256
  6
BYLAYER
  0
ACDBPLACEHOLDER
  5
F
102
{ACAD_REACTORS
330
E
102
}
330
E
  0
SCALE
  5
1339
102
{ACAD_REACTORS
330
1338
102
}
330
1338
100
AcDbScale
 70
     0
300
1:1
140
1.0
141
1.0
290
     1
  0
SCALE
  5
133A
102
{ACAD_REACTORS
330
1338
102
}
330
1338
100
AcDbScale
 70
     0
300
1:2
140
1.0
141
2.0
290
     0
  0
SCALE
  5
133B
102
{ACAD_REACTORS
330
1338
102
}
330
1338
100
AcDbScale
 70
     0
300
1:4
140
1.0
141
4.0
290
     0
  0
SCALE
  5
133C
102
{ACAD_REACTORS
330
1338
102
}
330
1338
100
AcDbScale
 70
     0
300
1:5
140
1.0
141
5.0
290
     0
  0
SCALE
  5
133D
102
{ACAD_REACTORS
330
1338
102
}
330
1338
100
AcDbScale
 70
     0
300
1:8
140
1.0
141
8.0
290
     0
  0
SCALE
  5
133E
102
{ACAD_REACTORS
330
1338
102
}
330
1338
100
AcDbScale
 70
     0
300
1:10
140
1.0
141
10.0
290
     0
  0
SCALE
  5
133F
102
{ACAD_REACTORS
330
1338
102
}
330
1338
100
AcDbScale
 70
     0
300
1:16
140
1.0
141
16.0
290
     0
  0
SCALE
  5
1340
102
{ACAD_REACTORS
330
1338
102
}
330
1338
100
AcDbScale
 70
     0
300
1:20
140
1.0
141
20.0
290
     0
  0
SCALE
  5
1341
102
{ACAD_REACTORS
330
1338
102
}
330
1338
100
AcDbScale
 70
     0
300
1:30
140
1.0
141
30.0
290
     0
  0
SCALE
  5
1342
102
{ACAD_REACTORS
330
1338
102
}
330
1338
100
AcDbScale
 70
     0
300
1:40
140
1.0
141
40.0
290
     0
  0
SCALE
  5
1343
102
{ACAD_REACTORS
330
1338
102
}
330
1338
100
AcDbScale
 70
     0
300
1:50
140
1.0
141
50.0
290
     0
  0
SCALE
  5
1344
102
{ACAD_REACTORS
330
1338
102
}
330
1338
100
AcDbScale
 70
     0
300
1:100
140
1.0
141
100.0
290
     0
  0
SCALE
  5
1345
102
{ACAD_REACTORS
330
1338
102
}
330
1338
100
AcDbScale
 70
     0
300
2:1
140
2.0
141
1.0
290
     0
  0
SCALE
  5
1346
102
{ACAD_REACTORS
330
1338
102
}
330
1338
100
AcDbScale
 70
     0
300
4:1
140
4.0
141
1.0
290
     0
  0
SCALE
  5
1347
102
{ACAD_REACTORS
330
1338
102
}
330
1338
100
AcDbScale
 70
     0
300
8:1
140
8.0
141
1.0
290
     0
  0
SCALE
  5
1348
102
{ACAD_REACTORS
330
1338
102
}
330
1338
100
AcDbScale
 70
     0
300
10:1
140
10.0
141
1.0
290
     0
  0
SCALE
  5
1349
102
{ACAD_REACTORS
330
1338
102
}
330
1338
100
AcDbScale
 70
     0
300
100:1
140
100.0
141
1.0
290
     0
  0
TABLESTYLE
  5
1337
102
{ACAD_XDICTIONARY
360
1375
102
}
102
{ACAD_REACTORS
330
1336
102
}
330
1336
100
AcDbTableStyle
  3
Standard
 70
     0
 71
     0
 40
1.5
 41
1.5
280
     0
281
     0
  7
Standard
140
4.5
170
     2
 62
     0
 63
     7
283
     0
274
    -2
284
     1
 64
     0
275
    -2
285
     1
 65
     0
276
    -2
286
     1
 66
     0
277
    -2
287
     1
 67
     0
278
    -2
288
     1
 68
     0
279
    -2
289
     1
 69
     0
  7
Standard
140
6.0
170
     5
 62
     0
 63
     7
283
     0
274
    -2
284
     1
 64
     0
275
    -2
285
     1
 65
     0
276
    -2
286
     1
 66
     0
277
    -2
287
     1
 67
     0
278
    -2
288
     1
 68
     0
279
    -2
289
     1
 69
     0
  7
Standard
140
4.5
170
     5
 62
     0
 63
     7
283
     0
274
    -2
284
     1
 64
     0
275
    -2
285
     1
 65
     0
276
    -2
286
     1
 66
     0
277
    -2
287
     1
 67
     0
278
    -2
288
     1
 68
     0
279
    -2
289
     1
 69
     0
  0
VISUALSTYLE
  5
1327
102
{ACAD_XDICTIONARY
360
139C
102
}
102
{ACAD_REACTORS
330
1321
102
}
330
1321
100
AcDbVisualStyle
  2
2dWireframe
 70
     4
 71
     0
 72
     2
 73
     0
 90
        0
 40
-0.6
 41
-30.0
 62
     5
 63
     7
 74
     1
 91
        4
 64
     7
 65
   257
 75
     1
175
     1
 42
1.0
 92
        0
 66
   257
 43
1.0
 76
     1
 77
     6
 78
     2
 67
     7
 79
     5
170
     0
171
     0
290
     0
174
     0
 93
        1
 44
0.0
173
     0
291
     0
 45
0.0
1001
ACAD
1000
AcDbSavedByObjectVersion
1070
     0
  0
VISUALSTYLE
  5
1329
102
{ACAD_XDICTIONARY
360
13A0
102
}
102
{ACAD_REACTORS
330
1321
102
}
330
1321
100
AcDbVisualStyle
  2
3D Hidden
 70
     6
 71
     1
 72
     2
 73
     2
 90
        0
 40
-0.6
 41
-30.0
 62
     5
 63
     7
 74
     2
 91
        2
 64
     7
 65
   257
 75
     2
175
     1
 42
179.0
 92
        0
 66
   257
 43
1.0
 76
     1
 77
     6
 78
     2
 67
     7
 79
     3
170
     0
171
     0
290
     0
174
     0
 93
        1
 44
0.0
173
     0
291
     0
 45
0.0
1001
ACAD
1000
AcDbSavedByObjectVersion
1070
     0
  0
VISUALSTYLE
  5
1328
102
{ACAD_XDICTIONARY
360
139E
102
}
102
{ACAD_REACTORS
330
1321
102
}
330
1321
100
AcDbVisualStyle
  2
3dWireframe
 70
     5
 71
     0
 72
     2
 73
     0
 90
        0
 40
-0.6
 41
-30.0
 62
     5
 63
     7
 74
     1
 91
        4
 64
     7
 65
   257
 75
     1
175
     1
 42
1.0
 92
        0
 66
   257
 43
1.0
 76
     1
 77
     6
 78
     2
 67
     7
 79
     5
170
     0
171
     0
290
     0
174
     0
 93
        1
 44
0.0
173
     0
291
     0
 45
0.0
1001
ACAD
1000
AcDbSavedByObjectVersion
1070
     0
  0
VISUALSTYLE
  5
1326
102
{ACAD_XDICTIONARY
360
139A
102
}
102
{ACAD_REACTORS
330
1321
102
}
330
1321
100
AcDbVisualStyle
  2
Basic
 70
     7
 71
     1
 72
     0
 73
     1
 90
        0
 40
-0.6
 41
-30.0
 62
     5
 63
     7
 74
     0
 91
        4
 64
     7
 65
   257
 75
     1
175
     1
 42
1.0
 92
        8
 66
     7
 43
1.0
 76
     1
 77
     6
 78
     2
 67
     7
 79
     5
170
     0
171
     0
290
     0
174
     0
 93
        1
 44
0.0
173
     0
291
     1
 45
0.0
1001
ACAD
1000
AcDbSavedByObjectVersion
1070
     0
  0
VISUALSTYLE
  5
132D
102
{ACAD_XDICTIONARY
360
13A8
102
}
102
{ACAD_REACTORS
330
1321
102
}
330
1321
100
AcDbVisualStyle
  2
Brighten
 70
    12
 71
     2
 72
     2
 73
     0
 90
        0
 40
-0.6
 41
-30.0
 62
     5
 63
     7
 74
     1
 91
        4
 64
     7
 65
   257
 75
     1
175
     1
 42
1.0
 92
        8
 66
     7
 43
1.0
 76
     1
 77
     6
 78
     2
 67
     7
 79
     5
170
     0
171
     0
290
     0
174
     0
 93
        1
 44
50.0
173
     0
291
     1
 45
0.0
1001
ACAD
1000
AcDbSavedByObjectVersion
1070
     0
  0
VISUALSTYLE
  5
1331
102
{ACAD_XDICTIONARY
360
13B0
102
}
102
{ACAD_REACTORS
330
1321
102
}
330
1321
100
AcDbVisualStyle
  2
ColorChange
 70
    16
 71
     2
 72
     2
 73
     3
 90
        0
 40
-0.6
 41
-30.0
 62
     5
 63
     8
 74
     1
 91
        4
 64
     7
 65
   257
 75
     1
175
     1
 42
1.0
 92
        8
 66
     8
 43
1.0
 76
     1
 77
     6
 78
     2
 67
     7
 79
     5
170
     0
171
     0
290
     0
174
     0
 93
        1
 44
0.0
173
     0
291
     1
 45
0.0
1001
ACAD
1000
AcDbSavedByObjectVersion
1070
     0
  0
VISUALSTYLE
  5
132A
102
{ACAD_XDICTIONARY
360
13A2
102
}
102
{ACAD_REACTORS
330
1321
102
}
330
1321
100
AcDbVisualStyle
  2
Conceptual
 70
     9
 71
     3
 72
     2
 73
     0
 90
        0
 40
-0.6
 41
-30.0
 62
     5
 63
     7
 74
     2
 91
        2
 64
     7
 65
   257
 75
     1
175
     1
 42
179.0
 92
        8
 66
     7
 43
1.0
 76
     1
 77
     6
 78
     2
 67
     7
 79
     3
170
     0
171
     0
290
     0
174
     0
 93
        1
 44
0.0
173
     0
291
     0
 45
0.0
1001
ACAD
1000
AcDbSavedByObjectVersion
1070
     0
  0
VISUALSTYLE
  5
132C
102
{ACAD_XDICTIONARY
360
13A6
102
}
102
{ACAD_REACTORS
330
1321
102
}
330
1321
100
AcDbVisualStyle
  2
Dim
 70
    11
 71
     2
 72
     2
 73
     0
 90
        0
 40
-0.6
 41
-30.0
 62
     5
 63
     7
 74
     1
 91
        4
 64
     7
 65
   257
 75
     1
175
     1
 42
1.0
 92
        8
 66
     7
 43
1.0
 76
     1
 77
     6
 78
     2
 67
     7
 79
     5
170
     0
171
     0
290
     0
174
     0
 93
        1
 44
-50.0
173
     0
291
     1
 45
0.0
1001
ACAD
1000
AcDbSavedByObjectVersion
1070
     0
  0
VISUALSTYLE
  5
1334
102
{ACAD_XDICTIONARY
360
13B6
102
}
102
{ACAD_REACTORS
330
1321
102
}
330
1321
100
AcDbVisualStyle
  2
EdgeColorOff
 70
    22
 71
     2
 72
     2
 73
     0
 90
        0
 40
-0.6
 41
-30.0
 62
     5
 63
     7
 74
     1
 91
        4
 64
     7
 65
   257
 75
     1
175
     1
 42
1.0
 92
        8
 66
     7
 43
1.0
 76
     1
 77
     6
 78
     2
 67
     7
 79
     5
170
     0
171
     0
290
     0
174
     0
 93
        1
 44
0.0
173
     0
291
     1
 45
0.0
1001
ACAD
1000
AcDbSavedByObjectVersion
1070
     0
  0
VISUALSTYLE
  5
1330
102
{ACAD_XDICTIONARY
360
13AE
102
}
102
{ACAD_REACTORS
330
1321
102
}
330
1321
100
AcDbVisualStyle
  2
Facepattern
 70
    15
 71
     2
 72
     2
 73
     0
 90
        0
 40
-0.6
 41
-30.0
 62
     5
 63
     7
 74
     1
 91
        4
 64
     7
 65
   257
 75
     1
175
     1
 42
1.0
 92
        8
 66
     7
 43
1.0
 76
     1
 77
     6
 78
     2
 67
     7
 79
     5
170
     0
171
     0
290
     0
174
     0
 93
        1
 44
0.0
173
     0
291
     1
 45
0.0
1001
ACAD
1000
AcDbSavedByObjectVersion
1070
     0
  0
VISUALSTYLE
  5
1322
102
{ACAD_XDICTIONARY
360
1392
102
}
102
{ACAD_REACTORS
330
1321
102
}
330
1321
100
AcDbVisualStyle
  2
Flat
 70
     0
 71
     2
 72
     1
 73
     1
 90
        2
 40
-0.6
 41
30.0
 62
     5
 63
     7
 74
     0
 91
        4
 64
     7
 65
   257
 75
     1
175
     1
 42
1.0
 92
        8
 66
     7
 43
1.0
 76
     1
 77
     6
 78
     2
 67
     7
 79
     5
170
     0
171
     0
290
     0
174
     0
 93
       13
 44
0.0
173
     0
291
     1
 45
0.0
1001
ACAD
1000
AcDbSavedByObjectVersion
1070
     0
  0
VISUALSTYLE
  5
1323
102
{ACAD_XDICTIONARY
360
1394
102
}
102
{ACAD_REACTORS
330
1321
102
}
330
1321
100
AcDbVisualStyle
  2
FlatWithEdges
 70
     1
 71
     2
 72
     1
 73
     1
 90
        2
 40
-0.6
 41
30.0
 62
     5
 63
     7
 74
     1
 91
        4
 64
     7
 65
   257
 75
     1
175
     1
 42
1.0
 92
        0
 66
   257
 43
1.0
 76
     1
 77
     6
 78
     2
 67
     7
 79
     5
170
     0
171
     0
290
     0
174
     0
 93
       13
 44
0.0
173
     0
291
     1
 45
0.0
1001
ACAD
1000
AcDbSavedByObjectVersion
1070
     0
  0
VISUALSTYLE
  5
1324
102
{ACAD_XDICTIONARY
360
1396
102
}
102
{ACAD_REACTORS
330
1321
102
}
330
1321
100
AcDbVisualStyle
  2
Gouraud
 70
     2
 71
     2
 72
     2
 73
     1
 90
        2
 40
-0.6
 41
30.0
 62
     5
 63
     7
 74
     0
 91
        4
 64
     7
 65
   257
 75
     1
175
     1
 42
1.0
 92
        0
 66
     7
 43
1.0
 76
     1
 77
     6
 78
     2
 67
     7
 79
     5
170
     0
171
     0
290
     0
174
     0
 93
       13
 44
0.0
173
     0
291
     1
 45
0.0
1001
ACAD
1000
AcDbSavedByObjectVersion
1070
     0
  0
VISUALSTYLE
  5
1325
102
{ACAD_XDICTIONARY
360
1398
102
}
102
{ACAD_REACTORS
330
1321
102
}
330
1321
100
AcDbVisualStyle
  2
GouraudWithEdges
 70
     3
 71
     2
 72
     2
 73
     1
 90
        2
 40
-0.6
 41
30.0
 62
     5
 63
     7
 74
     1
 91
        4
 64
     7
 65
   257
 75
     1
175
     1
 42
1.0
 92
        0
 66
   257
 43
1.0
 76
     1
 77
     6
 78
     2
 67
     7
 79
     5
170
     0
171
     0
290
     0
174
     0
 93
       13
 44
0.0
173
     0
291
     1
 45
0.0
1001
ACAD
1000
AcDbSavedByObjectVersion
1070
     0
  0
VISUALSTYLE
  5
1332
102
{ACAD_XDICTIONARY
360
13B2
102
}
102
{ACAD_REACTORS
330
1321
102
}
330
1321
100
AcDbVisualStyle
  2
JitterOff
 70
    20
 71
     2
 72
     2
 73
     0
 90
        0
 40
-0.6
 41
-30.0
 62
     5
 63
     7
 74
     1
 91
        4
 64
     7
 65
   257
 75
     1
175
     1
 42
1.0
 92
       10
 66
     7
 43
1.0
 76
     1
 77
     6
 78
     2
 67
     7
 79
     5
170
     0
171
     0
290
     0
174
     0
 93
        1
 44
0.0
173
     0
291
     1
 45
0.0
1001
ACAD
1000
AcDbSavedByObjectVersion
1070
     0
  0
VISUALSTYLE
  5
132F
102
{ACAD_XDICTIONARY
360
13AC
102
}
102
{ACAD_REACTORS
330
1321
102
}
330
1321
100
AcDbVisualStyle
  2
Linepattern
 70
    14
 71
     2
 72
     2
 73
     0
 90
        0
 40
-0.6
 41
-30.0
 62
     5
 63
     7
 74
     1
 91
        4
 64
     7
 65
   257
 75
     7
175
     7
 42
1.0
 92
        8
 66
     7
 43
1.0
 76
     1
 77
     6
 78
     2
 67
     7
 79
     5
170
     0
171
     0
290
     0
174
     0
 93
        1
 44
0.0
173
     0
291
     1
 45
0.0
1001
ACAD
1000
AcDbSavedByObjectVersion
1070
     0
  0
VISUALSTYLE
  5
1333
102
{ACAD_XDICTIONARY
360
13B4
102
}
102
{ACAD_REACTORS
330
1321
102
}
330
1321
100
AcDbVisualStyle
  2
OverhangOff
 70
    21
 71
     2
 72
     2
 73
     0
 90
        0
 40
-0.6
 41
-30.0
 62
     5
 63
     7
 74
     1
 91
        4
 64
     7
 65
   257
 75
     1
175
     1
 42
1.0
 92
        9
 66
     7
 43
1.0
 76
     1
 77
     6
 78
     2
 67
     7
 79
     5
170
     0
171
     0
290
     0
174
     0
 93
        1
 44
0.0
173
     0
291
     1
 45
0.0
1001
ACAD
1000
AcDbSavedByObjectVersion
1070
     0
  0
VISUALSTYLE
  5
132B
102
{ACAD_XDICTIONARY
360
13A4
102
}
102
{ACAD_REACTORS
330
1321
102
}
330
1321
100
AcDbVisualStyle
  2
Realistic
 70
     8
 71
     2
 72
     2
 73
     0
 90
        0
 40
-0.6
 41
-30.0
 62
     5
 63
     7
 74
     1
 91
        0
 64
     7
 65
   257
 75
     1
175
     1
 42
1.0
 92
        8
 66
     8
 43
1.0
 76
     1
 77
     6
 78
     2
 67
     7
 79
     5
170
     0
171
     0
290
     0
174
     0
 93
       13
 44
0.0
173
     0
291
     0
 45
0.0
1001
ACAD
1000
AcDbSavedByObjectVersion
1070
     0
  0
VISUALSTYLE
  5
132E
102
{ACAD_XDICTIONARY
360
13AA
102
}
102
{ACAD_REACTORS
330
1321
102
}
330
1321
100
AcDbVisualStyle
  2
Thicken
 70
    13
 71
     2
 72
     2
 73
     0
 90
        0
 40
-0.6
 41
-30.0
 62
     5
 63
     7
 74
     1
 91
        4
 64
     7
 65
   257
 75
     1
175
     1
 42
1.0
 92
       12
 66
     7
 43
1.0
 76
     1
 77
     6
 78
     2
 67
     7
 79
     5
170
     0
171
     0
290
     0
174
     0
 93
        1
 44
0.0
173
     0
291
     1
 45
0.0
1001
ACAD
1000
AcDbSavedByObjectVersion
1070
     0
  0
DICTIONARYVAR
  5
1371
102
{ACAD_REACTORS
330
3D
102
}
330
3D
100
DictionaryVariables
280
     0
  1
1:1
  0
DICTIONARYVAR
  5
1370
102
{ACAD_REACTORS
330
3D
102
}
330
3D
100
DictionaryVariables
280
     0
  1
STANDARD
  0
DICTIONARYVAR
  5
136F
102
{ACAD_REACTORS
330
3D
102
}
330
3D
100
DictionaryVariables
280
     0
  1
STANDARD
  0
DICTIONARYVAR
  5
3F
102
{ACAD_REACTORS
330
3D
102
}
330
3D
100
DictionaryVariables
280
     0
  1
2
  0
DICTIONARYVAR
  5
3E
102
{ACAD_REACTORS
330
3D
102
}
330
3D
100
DictionaryVariables
280
     0
  1
1
  0
DICTIONARYVAR
  5
1373
102
{ACAD_REACTORS
330
3D
102
}
330
3D
100
DictionaryVariables
280
     0
  1
0
  0
DICTIONARYVAR
  5
1372
102
{ACAD_REACTORS
330
3D
102
}
330
3D
100
DictionaryVariables
280
     0
  1
127
  0
DICTIONARYVAR
  5
1374
102
{ACAD_REACTORS
330
3D
102
}
330
3D
100
DictionaryVariables
280
     0
  1
2
  0
XRECORD
  5
1302
102
{ACAD_REACTORS
330
1301
102
}
330
1301
100
AcDbXrecord
280
     1
  0
DICTIONARY
  5
1379
330
1E
100
AcDbDictionary
280
     1
281
     1
  3
ACAD_XREC_ROUNDTRIP
360
137A
  0
DICTIONARY
  5
137D
330
26
100
AcDbDictionary
280
     1
281
     1
  3
ACAD_XREC_ROUNDTRIP
360
137E
  0
DICTIONARY
  5
137B
330
22
100
AcDbDictionary
280
     1
281
     1
  3
ACAD_XREC_ROUNDTRIP
360
137C
  0
DICTIONARY
  5
1312
330
1311
100
AcDbDictionary
280
     1
281
     1
  3
ACAD_XREC_ROUNDTRIP
360
1390
  3
BUMPTILE
360
1314
  3
DIFFUSETILE
360
1313
  3
OPACITYTILE
360
1317
  3
REFLECTIONTILE
360
1316
  3
REFRACTIONTILE
360
1318
  3
SPECULARTILE
360
1315
  0
DICTIONARY
  5
130A
330
1309
100
AcDbDictionary
280
     1
281
     1
  3
ACAD_XREC_ROUNDTRIP
360
138F
  3
BUMPTILE
360
130C
  3
DIFFUSETILE
360
130B
  3
OPACITYTILE
360
130F
  3
REFLECTIONTILE
360
130E
  3
REFRACTIONTILE
360
1310
  3
SPECULARTILE
360
130D
  0
DICTIONARY
  5
131A
330
1319
100
AcDbDictionary
280
     1
281
     1
  3
ACAD_XREC_ROUNDTRIP
360
1391
  3
BUMPTILE
360
131C
  3
DIFFUSETILE
360
131B
  3
OPACITYTILE
360
131F
  3
REFLECTIONTILE
360
131E
  3
REFRACTIONTILE
360
1320
  3
SPECULARTILE
360
131D
  0
DICTIONARY
  5
1375
330
1337
100
AcDbDictionary
280
     1
281
     1
  3
ACAD_ROUNDTRIP_2008_TABLESTYLE_CELLSTYLEMAP
360
1376
  3
ACAD_XREC_ROUNDTRIP
360
13B8
  0
DICTIONARY
  5
139C
330
1327
100
AcDbDictionary
280
     1
281
     1
  3
ACAD_XREC_ROUNDTRIP
360
139D
  0
DICTIONARY
  5
13A0
330
1329
100
AcDbDictionary
280
     1
281
     1
  3
ACAD_XREC_ROUNDTRIP
360
13A1
  0
DICTIONARY
  5
139E
330
1328
100
AcDbDictionary
280
     1
281
     1
  3
ACAD_XREC_ROUNDTRIP
360
139F
  0
DICTIONARY
  5
139A
330
1326
100
AcDbDictionary
280
     1
281
     1
  3
ACAD_XREC_ROUNDTRIP
360
139B
  0
DICTIONARY
  5
13A8
330
132D
100
AcDbDictionary
280
     1
281
     1
  3
ACAD_XREC_ROUNDTRIP
360
13A9
  0
DICTIONARY
  5
13B0
330
1331
100
AcDbDictionary
280
     1
281
     1
  3
ACAD_XREC_ROUNDTRIP
360
13B1
  0
DICTIONARY
  5
13A2
330
132A
100
AcDbDictionary
280
     1
281
     1
  3
ACAD_XREC_ROUNDTRIP
360
13A3
  0
DICTIONARY
  5
13A6
330
132C
100
AcDbDictionary
280
     1
281
     1
  3
ACAD_XREC_ROUNDTRIP
360
13A7
  0
DICTIONARY
  5
13B6
330
1334
100
AcDbDictionary
280
     1
281
     1
  3
ACAD_XREC_ROUNDTRIP
360
13B7
  0
DICTIONARY
  5
13AE
330
1330
100
AcDbDictionary
280
     1
281
     1
  3
ACAD_XREC_ROUNDTRIP
360
13AF
  0
DICTIONARY
  5
1392
330
1322
100
AcDbDictionary
280
     1
281
     1
  3
ACAD_XREC_ROUNDTRIP
360
1393
  0
DICTIONARY
  5
1394
330
1323
100
AcDbDictionary
280
     1
281
     1
  3
ACAD_XREC_ROUNDTRIP
360
1395
  0
DICTIONARY
  5
1396
330
1324
100
AcDbDictionary
280
     1
281
     1
  3
ACAD_XREC_ROUNDTRIP
360
1397
  0
DICTIONARY
  5
1398
330
1325
100
AcDbDictionary
280
     1
281
     1
  3
ACAD_XREC_ROUNDTRIP
360
1399
  0
DICTIONARY
  5
13B2
330
1332
100
AcDbDictionary
280
     1
281
     1
  3
ACAD_XREC_ROUNDTRIP
360
13B3
  0
DICTIONARY
  5
13AC
330
132F
100
AcDbDictionary
280
     1
281
     1
  3
ACAD_XREC_ROUNDTRIP
360
13AD
  0
DICTIONARY
  5
13B4
330
1333
100
AcDbDictionary
280
     1
281
     1
  3
ACAD_XREC_ROUNDTRIP
360
13B5
  0
DICTIONARY
  5
13A4
330
132B
100
AcDbDictionary
280
     1
281
     1
  3
ACAD_XREC_ROUNDTRIP
360
13A5
  0
DICTIONARY
  5
13AA
330
132E
100
AcDbDictionary
280
     1
281
     1
  3
ACAD_XREC_ROUNDTRIP
360
13AB
  0
XRECORD
  5
137A
102
{ACAD_REACTORS
330
1379
102
}
330
1379
100
AcDbXrecord
280
     1
102
SHADEPLOT
 70
     0
102
SHADEPLOTRESLEVEL
 70
     2
102
SHADEPLOTCUSTOMDPI
 70
   300
  0
XRECORD
  5
137E
102
{ACAD_REACTORS
330
137D
102
}
330
137D
100
AcDbXrecord
280
     1
102
SHADEPLOT
 70
     0
102
SHADEPLOTRESLEVEL
 70
     2
102
SHADEPLOTCUSTOMDPI
 70
   300
  0
XRECORD
  5
137C
102
{ACAD_REACTORS
330
137B
102
}
330
137B
100
AcDbXrecord
280
     1
102
SHADEPLOT
 70
     0
102
SHADEPLOTRESLEVEL
 70
     2
102
SHADEPLOTCUSTOMDPI
 70
   300
  0
XRECORD
  5
1390
102
{ACAD_REACTORS
330
1312
102
}
330
1312
100
AcDbXrecord
280
     1
102
MATERIAL
148
0.0
149
0.0
149
0.0
 93
        0
 94
      127
282
     0
 72
     0
 77
     0
171
     0
175
     0
179
     0
273
     0
  0
XRECORD
  5
1314
102
{ACAD_REACTORS
330
1312
102
}
330
1312
100
AcDbXrecord
280
     1
270
     1
271
     1
  0
XRECORD
  5
1313
102
{ACAD_REACTORS
330
1312
102
}
330
1312
100
AcDbXrecord
280
     1
270
     1
271
     1
  0
XRECORD
  5
1317
102
{ACAD_REACTORS
330
1312
102
}
330
1312
100
AcDbXrecord
280
     1
270
     1
271
     1
  0
XRECORD
  5
1316
102
{ACAD_REACTORS
330
1312
102
}
330
1312
100
AcDbXrecord
280
     1
270
     1
271
     1
  0
XRECORD
  5
1318
102
{ACAD_REACTORS
330
1312
102
}
330
1312
100
AcDbXrecord
280
     1
270
     1
271
     1
  0
XRECORD
  5
1315
102
{ACAD_REACTORS
330
1312
102
}
330
1312
100
AcDbXrecord
280
     1
270
     1
271
     1
  0
XRECORD
  5
138F
102
{ACAD_REACTORS
330
130A
102
}
330
130A
100
AcDbXrecord
280
     1
102
MATERIAL
148
0.0
149
0.0
149
0.0
 93
        0
 94
      127
282
     0
 72
     0
 77
     0
171
     0
175
     0
179
     0
273
     0
  0
XRECORD
  5
130C
102
{ACAD_REACTORS
330
130A
102
}
330
130A
100
AcDbXrecord
280
     1
270
     1
271
     1
  0
XRECORD
  5
130B
102
{ACAD_REACTORS
330
130A
102
}
330
130A
100
AcDbXrecord
280
     1
270
     1
271
     1
  0
XRECORD
  5
130F
102
{ACAD_REACTORS
330
130A
102
}
330
130A
100
AcDbXrecord
280
     1
270
     1
271
     1
  0
XRECORD
  5
130E
102
{ACAD_REACTORS
330
130A
102
}
330
130A
100
AcDbXrecord
280
     1
270
     1
271
     1
  0
XRECORD
  5
1310
102
{ACAD_REACTORS
330
130A
102
}
330
130A
100
AcDbXrecord
280
     1
270
     1
271
     1
  0
XRECORD
  5
130D
102
{ACAD_REACTORS
330
130A
102
}
330
130A
100
AcDbXrecord
280
     1
270
     1
271
     1
  0
XRECORD
  5
1391
102
{ACAD_REACTORS
330
131A
102
}
330
131A
100
AcDbXrecord
280
     1
102
MATERIAL
148
0.0
149
0.0
149
0.0
 93
        0
 94
      127
282
     0
 72
     0
 77
     0
171
     0
175
     0
179
     0
273
     0
  0
XRECORD
  5
131C
102
{ACAD_REACTORS
330
131A
102
}
330
131A
100
AcDbXrecord
280
     1
270
     1
271
     1
  0
XRECORD
  5
131B
102
{ACAD_REACTORS
330
131A
102
}
330
131A
100
AcDbXrecord
280
     1
270
     1
271
     1
  0
XRECORD
  5
131F
102
{ACAD_REACTORS
330
131A
102
}
330
131A
100
AcDbXrecord
280
     1
270
     1
271
     1
  0
XRECORD
  5
131E
102
{ACAD_REACTORS
330
131A
102
}
330
131A
100
AcDbXrecord
280
     1
270
     1
271
     1
  0
XRECORD
  5
1320
102
{ACAD_REACTORS
330
131A
102
}
330
131A
100
AcDbXrecord
280
     1
270
     1
271
     1
  0
XRECORD
  5
131D
102
{ACAD_REACTORS
330
131A
102
}
330
131A
100
AcDbXrecord
280
     1
270
     1
271
     1
  0
CELLSTYLEMAP
  5
1376
102
{ACAD_REACTORS
330
1375
102
}
330
1375
100
AcDbCellStyleMap
 90
        3
300
CELLSTYLE
  1
TABLEFORMAT_BEGIN
 90
        5
170
     1
 91
        0
 92
    32768
 62
   257
 93
        1
300
CONTENTFORMAT
  1
CONTENTFORMAT_BEGIN
 90
        0
 91
        0
 92
      512
 93
        0
300

 40
0.0
140
1.0
 94
        5
 62
     0
340
11
144
6.0
309
CONTENTFORMAT_END
171
     1
301
MARGIN
  1
CELLMARGIN_BEGIN
 40
1.5
 40
1.5
 40
1.5
 40
1.5
 40
4.5
 40
4.5
309
CELLMARGIN_END
 94
        6
 95
        1
302
GRIDFORMAT
  1
GRIDFORMAT_BEGIN
 90
        0
 91
        1
 62
     0
 92
       -2
340
0
 93
        0
 40
1.125
309
GRIDFORMAT_END
 95
        2
302
GRIDFORMAT
  1
GRIDFORMAT_BEGIN
 90
        0
 91
        1
 62
     0
 92
       -2
340
0
 93
        0
 40
1.125
309
GRIDFORMAT_END
 95
        4
302
GRIDFORMAT
  1
GRIDFORMAT_BEGIN
 90
        0
 91
        1
 62
     0
 92
       -2
340
0
 93
        0
 40
1.125
309
GRIDFORMAT_END
 95
        8
302
GRIDFORMAT
  1
GRIDFORMAT_BEGIN
 90
        0
 91
        1
 62
     0
 92
       -2
340
0
 93
        0
 40
1.125
309
GRIDFORMAT_END
 95
       16
302
GRIDFORMAT
  1
GRIDFORMAT_BEGIN
 90
        0
 91
        1
 62
     0
 92
       -2
340
0
 93
        0
 40
1.125
309
GRIDFORMAT_END
 95
       32
302
GRIDFORMAT
  1
GRIDFORMAT_BEGIN
 90
        0
 91
        1
 62
     0
 92
       -2
340
0
 93
        0
 40
1.125
309
GRIDFORMAT_END
309
TABLEFORMAT_END
  1
CELLSTYLE_BEGIN
 90
        1
 91
        1
300
_TITLE
309
CELLSTYLE_END
300
CELLSTYLE
  1
TABLEFORMAT_BEGIN
 90
        5
170
     1
 91
        0
 92
        0
 62
   257
 93
        1
300
CONTENTFORMAT
  1
CONTENTFORMAT_BEGIN
 90
        0
 91
        0
 92
      512
 93
        0
300

 40
0.0
140
1.0
 94
        5
 62
     0
340
11
144
4.5
309
CONTENTFORMAT_END
171
     1
301
MARGIN
  1
CELLMARGIN_BEGIN
 40
1.5
 40
1.5
 40
1.5
 40
1.5
 40
4.5
 40
4.5
309
CELLMARGIN_END
 94
        6
 95
        1
302
GRIDFORMAT
  1
GRIDFORMAT_BEGIN
 90
        0
 91
        1
 62
     0
 92
       -2
340
0
 93
        0
 40
1.125
309
GRIDFORMAT_END
 95
        2
302
GRIDFORMAT
  1
GRIDFORMAT_BEGIN
 90
        0
 91
        1
 62
     0
 92
       -2
340
0
 93
        0
 40
1.125
309
GRIDFORMAT_END
 95
        4
302
GRIDFORMAT
  1
GRIDFORMAT_BEGIN
 90
        0
 91
        1
 62
     0
 92
       -2
340
0
 93
        0
 40
1.125
309
GRIDFORMAT_END
 95
        8
302
GRIDFORMAT
  1
GRIDFORMAT_BEGIN
 90
        0
 91
        1
 62
     0
 92
       -2
340
0
 93
        0
 40
1.125
309
GRIDFORMAT_END
 95
       16
302
GRIDFORMAT
  1
GRIDFORMAT_BEGIN
 90
        0
 91
        1
 62
     0
 92
       -2
340
0
 93
        0
 40
1.125
309
GRIDFORMAT_END
 95
       32
302
GRIDFORMAT
  1
GRIDFORMAT_BEGIN
 90
        0
 91
        1
 62
     0
 92
       -2
340
0
 93
        0
 40
1.125
309
GRIDFORMAT_END
309
TABLEFORMAT_END
  1
CELLSTYLE_BEGIN
 90
        2
 91
        1
300
_HEADER
309
CELLSTYLE_END
300
CELLSTYLE
  1
TABLEFORMAT_BEGIN
 90
        5
170
     1
 91
        0
 92
        0
 62
   257
 93
        1
300
CONTENTFORMAT
  1
CONTENTFORMAT_BEGIN
 90
        0
 91
        0
 92
      512
 93
        0
300

 40
0.0
140
1.0
 94
        2
 62
     0
340
11
144
4.5
309
CONTENTFORMAT_END
171
     1
301
MARGIN
  1
CELLMARGIN_BEGIN
 40
1.5
 40
1.5
 40
1.5
 40
1.5
 40
4.5
 40
4.5
309
CELLMARGIN_END
 94
        6
 95
        1
302
GRIDFORMAT
  1
GRIDFORMAT_BEGIN
 90
        0
 91
        1
 62
     0
 92
       -2
340
0
 93
        0
 40
1.125
309
GRIDFORMAT_END
 95
        2
302
GRIDFORMAT
  1
GRIDFORMAT_BEGIN
 90
        0
 91
        1
 62
     0
 92
       -2
340
0
 93
        0
 40
1.125
309
GRIDFORMAT_END
 95
        4
302
GRIDFORMAT
  1
GRIDFORMAT_BEGIN
 90
        0
 91
        1
 62
     0
 92
       -2
340
0
 93
        0
 40
1.125
309
GRIDFORMAT_END
 95
        8
302
GRIDFORMAT
  1
GRIDFORMAT_BEGIN
 90
        0
 91
        1
 62
     0
 92
       -2
340
0
 93
        0
 40
1.125
309
GRIDFORMAT_END
 95
       16
302
GRIDFORMAT
  1
GRIDFORMAT_BEGIN
 90
        0
 91
        1
 62
     0
 92
       -2
340
0
 93
        0
 40
1.125
309
GRIDFORMAT_END
 95
       32
302
GRIDFORMAT
  1
GRIDFORMAT_BEGIN
 90
        0
 91
        1
 62
     0
 92
       -2
340
0
 93
        0
 40
1.125
309
GRIDFORMAT_END
309
TABLEFORMAT_END
  1
CELLSTYLE_BEGIN
 90
        3
 91
        2
300
_DATA
309
CELLSTYLE_END
  0
XRECORD
  5
13B8
102
{ACAD_REACTORS
330
1375
102
}
330
1375
100
AcDbXrecord
280
     1
102
ACAD_ROUNDTRIP_PRE2007_TABLESTYLE
 90
      512
 91
        0
  1

 92
      512
 93
        0
  2

 94
      512
 95
        0
  3

  0
XRECORD
  5
139D
102
{ACAD_REACTORS
330
139C
102
}
330
139C
100
AcDbXrecord
280
     1
102
RTVSPropertyOp0
 70
     1
102
RTVSPropertyOp1
 70
     1
102
RTVSPropertyOp2
 70
     1
102
RTVSPropertyOp3
 70
     1
102
RTVSPropertyOp4
 70
     1
102
RTVSPropertyOp5
 70
     1
102
RTVSPropertyOp6
 70
     1
102
RTVSPropertyOp7
 70
     1
102
RTVSPropertyOp8
 70
     1
102
RTVSPropertyOp9
 70
     1
102
RTVSPropertyOp10
 70
     1
102
RTVSPropertyOp11
 70
     1
102
RTVSPropertyOp12
 70
     1
102
RTVSPropertyOp13
 70
     1
102
RTVSPropertyOp14
 70
     1
102
RTVSPropertyOp15
 70
     1
102
RTVSPropertyOp16
 70
     1
102
RTVSPropertyOp17
 70
     1
102
RTVSPropertyOp18
 70
     1
102
RTVSPropertyOp19
 70
     1
102
RTVSPropertyOp20
 70
     1
102
RTVSPropertyOp21
 70
     1
102
RTVSPropertyOp22
 70
     1
102
RTVSPropertyOp23
 70
     1
102
RTVSPropertyOp24
 70
     1
102
RTVSPropertyOp25
 70
     1
102
RTVSPropertyOp26
 70
     1
102
RTVSPropertyOp27
 70
     1
  0
XRECORD
  5
13A1
102
{ACAD_REACTORS
330
13A0
102
}
330
13A0
100
AcDbXrecord
280
     1
102
RTVSPropertyOp0
 70
     1
102
RTVSPropertyOp1
 70
     1
102
RTVSPropertyOp2
 70
     1
102
RTVSPropertyOp3
 70
     1
102
RTVSPropertyOp4
 70
     1
102
RTVSPropertyOp5
 70
     1
102
RTVSPropertyOp6
 70
     1
102
RTVSPropertyOp7
 70
     1
102
RTVSPropertyOp8
 70
     1
102
RTVSPropertyOp9
 70
     1
102
RTVSPropertyOp10
 70
     1
102
RTVSPropertyOp11
 70
     1
102
RTVSPropertyOp12
 70
     1
102
RTVSPropertyOp13
 70
     1
102
RTVSPropertyOp14
 70
     1
102
RTVSPropertyOp15
 70
     1
102
RTVSPropertyOp16
 70
     1
102
RTVSPropertyOp17
 70
     1
102
RTVSPropertyOp18
 70
     1
102
RTVSPropertyOp19
 70
     1
102
RTVSPropertyOp20
 70
     1
102
RTVSPropertyOp21
 70
     1
102
RTVSPropertyOp22
 70
     1
102
RTVSPropertyOp23
 70
     1
102
RTVSPropertyOp24
 70
     1
102
RTVSPropertyOp25
 70
     1
102
RTVSPropertyOp26
 70
     1
102
RTVSPropertyOp27
 70
     1
  0
XRECORD
  5
139F
102
{ACAD_REACTORS
330
139E
102
}
330
139E
100
AcDbXrecord
280
     1
102
RTVSPropertyOp0
 70
     1
102
RTVSPropertyOp1
 70
     1
102
RTVSPropertyOp2
 70
     1
102
RTVSPropertyOp3
 70
     1
102
RTVSPropertyOp4
 70
     1
102
RTVSPropertyOp5
 70
     1
102
RTVSPropertyOp6
 70
     1
102
RTVSPropertyOp7
 70
     1
102
RTVSPropertyOp8
 70
     1
102
RTVSPropertyOp9
 70
     1
102
RTVSPropertyOp10
 70
     1
102
RTVSPropertyOp11
 70
     1
102
RTVSPropertyOp12
 70
     1
102
RTVSPropertyOp13
 70
     1
102
RTVSPropertyOp14
 70
     1
102
RTVSPropertyOp15
 70
     1
102
RTVSPropertyOp16
 70
     1
102
RTVSPropertyOp17
 70
     1
102
RTVSPropertyOp18
 70
     1
102
RTVSPropertyOp19
 70
     1
102
RTVSPropertyOp20
 70
     1
102
RTVSPropertyOp21
 70
     1
102
RTVSPropertyOp22
 70
     1
102
RTVSPropertyOp23
 70
     1
102
RTVSPropertyOp24
 70
     1
102
RTVSPropertyOp25
 70
     1
102
RTVSPropertyOp26
 70
     1
102
RTVSPropertyOp27
 70
     1
  0
XRECORD
  5
139B
102
{ACAD_REACTORS
330
139A
102
}
330
139A
100
AcDbXrecord
280
     1
102
RTVSPropertyOp0
 70
     1
102
RTVSPropertyOp1
 70
     1
102
RTVSPropertyOp2
 70
     1
102
RTVSPropertyOp3
 70
     1
102
RTVSPropertyOp4
 70
     1
102
RTVSPropertyOp5
 70
     1
102
RTVSPropertyOp6
 70
     1
102
RTVSPropertyOp7
 70
     1
102
RTVSPropertyOp8
 70
     1
102
RTVSPropertyOp9
 70
     1
102
RTVSPropertyOp10
 70
     1
102
RTVSPropertyOp11
 70
     1
102
RTVSPropertyOp12
 70
     1
102
RTVSPropertyOp13
 70
     1
102
RTVSPropertyOp14
 70
     1
102
RTVSPropertyOp15
 70
     1
102
RTVSPropertyOp16
 70
     1
102
RTVSPropertyOp17
 70
     1
102
RTVSPropertyOp18
 70
     1
102
RTVSPropertyOp19
 70
     1
102
RTVSPropertyOp20
 70
     1
102
RTVSPropertyOp21
 70
     1
102
RTVSPropertyOp22
 70
     1
102
RTVSPropertyOp23
 70
     1
102
RTVSPropertyOp24
 70
     1
102
RTVSPropertyOp25
 70
     1
102
RTVSPropertyOp26
 70
     1
102
RTVSPropertyOp27
 70
     1
  0
XRECORD
  5
13A9
102
{ACAD_REACTORS
330
13A8
102
}
330
13A8
100
AcDbXrecord
280
     1
102
RTVSPropertyOp0
 70
     1
102
RTVSPropertyOp1
 70
     1
102
RTVSPropertyOp2
 70
     1
102
RTVSPropertyOp3
 70
     1
102
RTVSPropertyOp4
 70
     1
102
RTVSPropertyOp5
 70
     1
102
RTVSPropertyOp6
 70
     1
102
RTVSPropertyOp7
 70
     1
102
RTVSPropertyOp8
 70
     1
102
RTVSPropertyOp9
 70
     1
102
RTVSPropertyOp10
 70
     1
102
RTVSPropertyOp11
 70
     1
102
RTVSPropertyOp12
 70
     1
102
RTVSPropertyOp13
 70
     1
102
RTVSPropertyOp14
 70
     1
102
RTVSPropertyOp15
 70
     1
102
RTVSPropertyOp16
 70
     1
102
RTVSPropertyOp17
 70
     1
102
RTVSPropertyOp18
 70
     1
102
RTVSPropertyOp19
 70
     1
102
RTVSPropertyOp20
 70
     1
102
RTVSPropertyOp21
 70
     1
102
RTVSPropertyOp22
 70
     1
102
RTVSPropertyOp23
 70
     1
102
RTVSPropertyOp24
 70
     1
102
RTVSPropertyOp25
 70
     1
102
RTVSPropertyOp26
 70
     1
102
RTVSPropertyOp27
 70
     1
  0
XRECORD
  5
13B1
102
{ACAD_REACTORS
330
13B0
102
}
330
13B0
100
AcDbXrecord
280
     1
102
RTVSPropertyOp0
 70
     1
102
RTVSPropertyOp1
 70
     1
102
RTVSPropertyOp2
 70
     1
102
RTVSPropertyOp3
 70
     1
102
RTVSPropertyOp4
 70
     1
102
RTVSPropertyOp5
 70
     1
102
RTVSPropertyOp6
 70
     1
102
RTVSPropertyOp7
 70
     1
102
RTVSPropertyOp8
 70
     1
102
RTVSPropertyOp9
 70
     1
102
RTVSPropertyOp10
 70
     1
102
RTVSPropertyOp11
 70
     1
102
RTVSPropertyOp12
 70
     1
102
RTVSPropertyOp13
 70
     1
102
RTVSPropertyOp14
 70
     1
102
RTVSPropertyOp15
 70
     1
102
RTVSPropertyOp16
 70
     1
102
RTVSPropertyOp17
 70
     1
102
RTVSPropertyOp18
 70
     1
102
RTVSPropertyOp19
 70
     1
102
RTVSPropertyOp20
 70
     1
102
RTVSPropertyOp21
 70
     1
102
RTVSPropertyOp22
 70
     1
102
RTVSPropertyOp23
 70
     1
102
RTVSPropertyOp24
 70
     1
102
RTVSPropertyOp25
 70
     1
102
RTVSPropertyOp26
 70
     1
102
RTVSPropertyOp27
 70
     1
  0
XRECORD
  5
13A3
102
{ACAD_REACTORS
330
13A2
102
}
330
13A2
100
AcDbXrecord
280
     1
102
RTVSPropertyOp0
 70
     1
102
RTVSPropertyOp1
 70
     1
102
RTVSPropertyOp2
 70
     1
102
RTVSPropertyOp3
 70
     1
102
RTVSPropertyOp4
 70
     1
102
RTVSPropertyOp5
 70
     1
102
RTVSPropertyOp6
 70
     1
102
RTVSPropertyOp7
 70
     1
102
RTVSPropertyOp8
 70
     1
102
RTVSPropertyOp9
 70
     1
102
RTVSPropertyOp10
 70
     1
102
RTVSPropertyOp11
 70
     1
102
RTVSPropertyOp12
 70
     1
102
RTVSPropertyOp13
 70
     1
102
RTVSPropertyOp14
 70
     1
102
RTVSPropertyOp15
 70
     1
102
RTVSPropertyOp16
 70
     1
102
RTVSPropertyOp17
 70
     1
102
RTVSPropertyOp18
 70
     1
102
RTVSPropertyOp19
 70
     1
102
RTVSPropertyOp20
 70
     1
102
RTVSPropertyOp21
 70
     1
102
RTVSPropertyOp22
 70
     1
102
RTVSPropertyOp23
 70
     1
102
RTVSPropertyOp24
 70
     1
102
RTVSPropertyOp25
 70
     1
102
RTVSPropertyOp26
 70
     1
102
RTVSPropertyOp27
 70
     1
  0
XRECORD
  5
13A7
102
{ACAD_REACTORS
330
13A6
102
}
330
13A6
100
AcDbXrecord
280
     1
102
RTVSPropertyOp0
 70
     1
102
RTVSPropertyOp1
 70
     1
102
RTVSPropertyOp2
 70
     1
102
RTVSPropertyOp3
 70
     1
102
RTVSPropertyOp4
 70
     1
102
RTVSPropertyOp5
 70
     1
102
RTVSPropertyOp6
 70
     1
102
RTVSPropertyOp7
 70
     1
102
RTVSPropertyOp8
 70
     1
102
RTVSPropertyOp9
 70
     1
102
RTVSPropertyOp10
 70
     1
102
RTVSPropertyOp11
 70
     1
102
RTVSPropertyOp12
 70
     1
102
RTVSPropertyOp13
 70
     1
102
RTVSPropertyOp14
 70
     1
102
RTVSPropertyOp15
 70
     1
102
RTVSPropertyOp16
 70
     1
102
RTVSPropertyOp17
 70
     1
102
RTVSPropertyOp18
 70
     1
102
RTVSPropertyOp19
 70
     1
102
RTVSPropertyOp20
 70
     1
102
RTVSPropertyOp21
 70
     1
102
RTVSPropertyOp22
 70
     1
102
RTVSPropertyOp23
 70
     1
102
RTVSPropertyOp24
 70
     1
102
RTVSPropertyOp25
 70
     1
102
RTVSPropertyOp26
 70
     1
102
RTVSPropertyOp27
 70
     1
  0
XRECORD
  5
13B7
102
{ACAD_REACTORS
330
13B6
102
}
330
13B6
100
AcDbXrecord
280
     1
102
RTVSPropertyOp0
 70
     0
102
RTVSPropertyOp1
 70
     0
102
RTVSPropertyOp2
 70
     0
102
RTVSPropertyOp3
 70
     0
102
RTVSPropertyOp4
 70
     0
102
RTVSPropertyOp5
 70
     0
102
RTVSPropertyOp6
 70
     0
102
RTVSPropertyOp7
 70
     0
102
RTVSPropertyOp8
 70
     0
102
RTVSPropertyOp9
 70
     0
102
RTVSPropertyOp10
 70
     0
102
RTVSPropertyOp11
 70
     0
102
RTVSPropertyOp12
 70
     0
102
RTVSPropertyOp13
 70
     0
102
RTVSPropertyOp14
 70
     2
102
RTVSPropertyOp15
 70
     0
102
RTVSPropertyOp16
 70
     0
102
RTVSPropertyOp17
 70
     0
102
RTVSPropertyOp18
 70
     0
102
RTVSPropertyOp19
 70
     0
102
RTVSPropertyOp20
 70
     0
102
RTVSPropertyOp21
 70
     0
102
RTVSPropertyOp22
 70
     0
102
RTVSPropertyOp23
 70
     0
102
RTVSPropertyOp24
 70
     0
102
RTVSPropertyOp25
 70
     0
102
RTVSPropertyOp26
 70
     0
102
RTVSPropertyOp27
 70
     0
  0
XRECORD
  5
13AF
102
{ACAD_REACTORS
330
13AE
102
}
330
13AE
100
AcDbXrecord
280
     1
102
RTVSPropertyOp0
 70
     1
102
RTVSPropertyOp1
 70
     1
102
RTVSPropertyOp2
 70
     1
102
RTVSPropertyOp3
 70
     1
102
RTVSPropertyOp4
 70
     1
102
RTVSPropertyOp5
 70
     1
102
RTVSPropertyOp6
 70
     1
102
RTVSPropertyOp7
 70
     1
102
RTVSPropertyOp8
 70
     1
102
RTVSPropertyOp9
 70
     1
102
RTVSPropertyOp10
 70
     1
102
RTVSPropertyOp11
 70
     1
102
RTVSPropertyOp12
 70
     1
102
RTVSPropertyOp13
 70
     1
102
RTVSPropertyOp14
 70
     1
102
RTVSPropertyOp15
 70
     1
102
RTVSPropertyOp16
 70
     1
102
RTVSPropertyOp17
 70
     1
102
RTVSPropertyOp18
 70
     1
102
RTVSPropertyOp19
 70
     1
102
RTVSPropertyOp20
 70
     1
102
RTVSPropertyOp21
 70
     1
102
RTVSPropertyOp22
 70
     1
102
RTVSPropertyOp23
 70
     1
102
RTVSPropertyOp24
 70
     1
102
RTVSPropertyOp25
 70
     1
102
RTVSPropertyOp26
 70
     1
102
RTVSPropertyOp27
 70
     1
  0
XRECORD
  5
1393
102
{ACAD_REACTORS
330
1392
102
}
330
1392
100
AcDbXrecord
280
     1
102
RTVSPropertyOp0
 70
     1
102
RTVSPropertyOp1
 70
     1
102
RTVSPropertyOp2
 70
     1
102
RTVSPropertyOp3
 70
     1
102
RTVSPropertyOp4
 70
     1
102
RTVSPropertyOp5
 70
     1
102
RTVSPropertyOp6
 70
     1
102
RTVSPropertyOp7
 70
     1
102
RTVSPropertyOp8
 70
     1
102
RTVSPropertyOp9
 70
     1
102
RTVSPropertyOp10
 70
     1
102
RTVSPropertyOp11
 70
     1
102
RTVSPropertyOp12
 70
     1
102
RTVSPropertyOp13
 70
     1
102
RTVSPropertyOp14
 70
     1
102
RTVSPropertyOp15
 70
     1
102
RTVSPropertyOp16
 70
     1
102
RTVSPropertyOp17
 70
     1
102
RTVSPropertyOp18
 70
     1
102
RTVSPropertyOp19
 70
     1
102
RTVSPropertyOp20
 70
     1
102
RTVSPropertyOp21
 70
     1
102
RTVSPropertyOp22
 70
     1
102
RTVSPropertyOp23
 70
     1
102
RTVSPropertyOp24
 70
     1
102
RTVSPropertyOp25
 70
     1
102
RTVSPropertyOp26
 70
     1
102
RTVSPropertyOp27
 70
     1
  0
XRECORD
  5
1395
102
{ACAD_REACTORS
330
1394
102
}
330
1394
100
AcDbXrecord
280
     1
102
RTVSPropertyOp0
 70
     1
102
RTVSPropertyOp1
 70
     1
102
RTVSPropertyOp2
 70
     1
102
RTVSPropertyOp3
 70
     1
102
RTVSPropertyOp4
 70
     1
102
RTVSPropertyOp5
 70
     1
102
RTVSPropertyOp6
 70
     1
102
RTVSPropertyOp7
 70
     1
102
RTVSPropertyOp8
 70
     1
102
RTVSPropertyOp9
 70
     1
102
RTVSPropertyOp10
 70
     1
102
RTVSPropertyOp11
 70
     1
102
RTVSPropertyOp12
 70
     1
102
RTVSPropertyOp13
 70
     1
102
RTVSPropertyOp14
 70
     1
102
RTVSPropertyOp15
 70
     1
102
RTVSPropertyOp16
 70
     1
102
RTVSPropertyOp17
 70
     1
102
RTVSPropertyOp18
 70
     1
102
RTVSPropertyOp19
 70
     1
102
RTVSPropertyOp20
 70
     1
102
RTVSPropertyOp21
 70
     1
102
RTVSPropertyOp22
 70
     1
102
RTVSPropertyOp23
 70
     1
102
RTVSPropertyOp24
 70
     1
102
RTVSPropertyOp25
 70
     1
102
RTVSPropertyOp26
 70
     1
102
RTVSPropertyOp27
 70
     1
  0
XRECORD
  5
1397
102
{ACAD_REACTORS
330
1396
102
}
330
1396
100
AcDbXrecord
280
     1
102
RTVSPropertyOp0
 70
     1
102
RTVSPropertyOp1
 70
     1
102
RTVSPropertyOp2
 70
     1
102
RTVSPropertyOp3
 70
     1
102
RTVSPropertyOp4
 70
     1
102
RTVSPropertyOp5
 70
     1
102
RTVSPropertyOp6
 70
     1
102
RTVSPropertyOp7
 70
     1
102
RTVSPropertyOp8
 70
     1
102
RTVSPropertyOp9
 70
     1
102
RTVSPropertyOp10
 70
     1
102
RTVSPropertyOp11
 70
     1
102
RTVSPropertyOp12
 70
     1
102
RTVSPropertyOp13
 70
     1
102
RTVSPropertyOp14
 70
     1
102
RTVSPropertyOp15
 70
     1
102
RTVSPropertyOp16
 70
     1
102
RTVSPropertyOp17
 70
     1
102
RTVSPropertyOp18
 70
     1
102
RTVSPropertyOp19
 70
     1
102
RTVSPropertyOp20
 70
     1
102
RTVSPropertyOp21
 70
     1
102
RTVSPropertyOp22
 70
     1
102
RTVSPropertyOp23
 70
     1
102
RTVSPropertyOp24
 70
     1
102
RTVSPropertyOp25
 70
     1
102
RTVSPropertyOp26
 70
     1
102
RTVSPropertyOp27
 70
     1
  0
XRECORD
  5
1399
102
{ACAD_REACTORS
330
1398
102
}
330
1398
100
AcDbXrecord
280
     1
102
RTVSPropertyOp0
 70
     1
102
RTVSPropertyOp1
 70
     1
102
RTVSPropertyOp2
 70
     1
102
RTVSPropertyOp3
 70
     1
102
RTVSPropertyOp4
 70
     1
102
RTVSPropertyOp5
 70
     1
102
RTVSPropertyOp6
 70
     1
102
RTVSPropertyOp7
 70
     1
102
RTVSPropertyOp8
 70
     1
102
RTVSPropertyOp9
 70
     1
102
RTVSPropertyOp10
 70
     1
102
RTVSPropertyOp11
 70
     1
102
RTVSPropertyOp12
 70
     1
102
RTVSPropertyOp13
 70
     1
102
RTVSPropertyOp14
 70
     1
102
RTVSPropertyOp15
 70
     1
102
RTVSPropertyOp16
 70
     1
102
RTVSPropertyOp17
 70
     1
102
RTVSPropertyOp18
 70
     1
102
RTVSPropertyOp19
 70
     1
102
RTVSPropertyOp20
 70
     1
102
RTVSPropertyOp21
 70
     1
102
RTVSPropertyOp22
 70
     1
102
RTVSPropertyOp23
 70
     1
102
RTVSPropertyOp24
 70
     1
102
RTVSPropertyOp25
 70
     1
102
RTVSPropertyOp26
 70
     1
102
RTVSPropertyOp27
 70
     1
  0
XRECORD
  5
13B3
102
{ACAD_REACTORS
330
13B2
102
}
330
13B2
100
AcDbXrecord
280
     1
102
RTVSPropertyOp0
 70
     0
102
RTVSPropertyOp1
 70
     0
102
RTVSPropertyOp2
 70
     0
102
RTVSPropertyOp3
 70
     0
102
RTVSPropertyOp4
 70
     0
102
RTVSPropertyOp5
 70
     0
102
RTVSPropertyOp6
 70
     0
102
RTVSPropertyOp7
 70
     0
102
RTVSPropertyOp8
 70
     0
102
RTVSPropertyOp9
 70
     0
102
RTVSPropertyOp10
 70
     0
102
RTVSPropertyOp11
 70
     0
102
RTVSPropertyOp12
 70
     0
102
RTVSPropertyOp13
 70
     0
102
RTVSPropertyOp14
 70
     2
102
RTVSPropertyOp15
 70
     0
102
RTVSPropertyOp16
 70
     0
102
RTVSPropertyOp17
 70
     0
102
RTVSPropertyOp18
 70
     0
102
RTVSPropertyOp19
 70
     0
102
RTVSPropertyOp20
 70
     0
102
RTVSPropertyOp21
 70
     0
102
RTVSPropertyOp22
 70
     0
102
RTVSPropertyOp23
 70
     0
102
RTVSPropertyOp24
 70
     0
102
RTVSPropertyOp25
 70
     0
102
RTVSPropertyOp26
 70
     0
102
RTVSPropertyOp27
 70
     0
  0
XRECORD
  5
13AD
102
{ACAD_REACTORS
330
13AC
102
}
330
13AC
100
AcDbXrecord
280
     1
102
RTVSPropertyOp0
 70
     1
102
RTVSPropertyOp1
 70
     1
102
RTVSPropertyOp2
 70
     1
102
RTVSPropertyOp3
 70
     1
102
RTVSPropertyOp4
 70
     1
102
RTVSPropertyOp5
 70
     1
102
RTVSPropertyOp6
 70
     1
102
RTVSPropertyOp7
 70
     1
102
RTVSPropertyOp8
 70
     1
102
RTVSPropertyOp9
 70
     1
102
RTVSPropertyOp10
 70
     1
102
RTVSPropertyOp11
 70
     1
102
RTVSPropertyOp12
 70
     1
102
RTVSPropertyOp13
 70
     1
102
RTVSPropertyOp14
 70
     1
102
RTVSPropertyOp15
 70
     1
102
RTVSPropertyOp16
 70
     1
102
RTVSPropertyOp17
 70
     1
102
RTVSPropertyOp18
 70
     1
102
RTVSPropertyOp19
 70
     1
102
RTVSPropertyOp20
 70
     1
102
RTVSPropertyOp21
 70
     1
102
RTVSPropertyOp22
 70
     1
102
RTVSPropertyOp23
 70
     1
102
RTVSPropertyOp24
 70
     1
102
RTVSPropertyOp25
 70
     1
102
RTVSPropertyOp26
 70
     1
102
RTVSPropertyOp27
 70
     1
  0
XRECORD
  5
13B5
102
{ACAD_REACTORS
330
13B4
102
}
330
13B4
100
AcDbXrecord
280
     1
102
RTVSPropertyOp0
 70
     0
102
RTVSPropertyOp1
 70
     0
102
RTVSPropertyOp2
 70
     0
102
RTVSPropertyOp3
 70
     0
102
RTVSPropertyOp4
 70
     0
102
RTVSPropertyOp5
 70
     0
102
RTVSPropertyOp6
 70
     0
102
RTVSPropertyOp7
 70
     0
102
RTVSPropertyOp8
 70
     0
102
RTVSPropertyOp9
 70
     0
102
RTVSPropertyOp10
 70
     0
102
RTVSPropertyOp11
 70
     0
102
RTVSPropertyOp12
 70
     0
102
RTVSPropertyOp13
 70
     0
102
RTVSPropertyOp14
 70
     2
102
RTVSPropertyOp15
 70
     0
102
RTVSPropertyOp16
 70
     0
102
RTVSPropertyOp17
 70
     0
102
RTVSPropertyOp18
 70
     0
102
RTVSPropertyOp19
 70
     0
102
RTVSPropertyOp20
 70
     0
102
RTVSPropertyOp21
 70
     0
102
RTVSPropertyOp22
 70
     0
102
RTVSPropertyOp23
 70
     0
102
RTVSPropertyOp24
 70
     0
102
RTVSPropertyOp25
 70
     0
102
RTVSPropertyOp26
 70
     0
102
RTVSPropertyOp27
 70
     0
  0
XRECORD
  5
13A5
102
{ACAD_REACTORS
330
13A4
102
}
330
13A4
100
AcDbXrecord
280
     1
102
RTVSPropertyOp0
 70
     1
102
RTVSPropertyOp1
 70
     1
102
RTVSPropertyOp2
 70
     1
102
RTVSPropertyOp3
 70
     1
102
RTVSPropertyOp4
 70
     1
102
RTVSPropertyOp5
 70
     1
102
RTVSPropertyOp6
 70
     1
102
RTVSPropertyOp7
 70
     1
102
RTVSPropertyOp8
 70
     1
102
RTVSPropertyOp9
 70
     1
102
RTVSPropertyOp10
 70
     1
102
RTVSPropertyOp11
 70
     1
102
RTVSPropertyOp12
 70
     1
102
RTVSPropertyOp13
 70
     1
102
RTVSPropertyOp14
 70
     1
102
RTVSPropertyOp15
 70
     1
102
RTVSPropertyOp16
 70
     1
102
RTVSPropertyOp17
 70
     1
102
RTVSPropertyOp18
 70
     1
102
RTVSPropertyOp19
 70
     1
102
RTVSPropertyOp20
 70
     1
102
RTVSPropertyOp21
 70
     1
102
RTVSPropertyOp22
 70
     1
102
RTVSPropertyOp23
 70
     1
102
RTVSPropertyOp24
 70
     1
102
RTVSPropertyOp25
 70
     1
102
RTVSPropertyOp26
 70
     1
102
RTVSPropertyOp27
 70
     1
  0
XRECORD
  5
13AB
102
{ACAD_REACTORS
330
13AA
102
}
330
13AA
100
AcDbXrecord
280
     1
102
RTVSPropertyOp0
 70
     1
102
RTVSPropertyOp1
 70
     1
102
RTVSPropertyOp2
 70
     1
102
RTVSPropertyOp3
 70
     1
102
RTVSPropertyOp4
 70
     1
102
RTVSPropertyOp5
 70
     1
102
RTVSPropertyOp6
 70
     1
102
RTVSPropertyOp7
 70
     1
102
RTVSPropertyOp8
 70
     1
102
RTVSPropertyOp9
 70
     1
102
RTVSPropertyOp10
 70
     1
102
RTVSPropertyOp11
 70
     1
102
RTVSPropertyOp12
 70
     1
102
RTVSPropertyOp13
 70
     1
102
RTVSPropertyOp14
 70
     1
102
RTVSPropertyOp15
 70
     1
102
RTVSPropertyOp16
 70
     1
102
RTVSPropertyOp17
 70
     1
102
RTVSPropertyOp18
 70
     1
102
RTVSPropertyOp19
 70
     1
102
RTVSPropertyOp20
 70
     1
102
RTVSPropertyOp21
 70
     1
102
RTVSPropertyOp22
 70
     1
102
RTVSPropertyOp23
 70
     1
102
RTVSPropertyOp24
 70
     1
102
RTVSPropertyOp25
 70
     1
102
RTVSPropertyOp26
 70
     1
102
RTVSPropertyOp27
 70
     1
  0
ENDSEC
  0
EOF
