  0
SECTION
  2
HEADER
  9
$ACADVER
  1
AC1015
  9
$ACADMAINTVER
 70
    20
  9
$DWGCODEPAGE
  3
ANSI_1252
  9
$INSBASE
 10
0.0
 20
0.0
 30
0.0
  9
$EXTMIN
 10
3805.149675568955
 20
1723.541773628107
 30
0.0
  9
$EXTMAX
 10
3807.701525948099
 20
1723.891773622147
 30
0.0
  9
$LIMMIN
 10
0.0
 20
0.0
  9
$LIMMAX
 10
420.0
 20
297.0
  9
$ORTHOMODE
 70
     0
  9
$REGENMODE
 70
     1
  9
$FILLMODE
 70
     1
  9
$QTEXTMODE
 70
     0
  9
$MIRRTEXT
 70
     1
  9
$LTSCALE
 40
1.0
  9
$ATTMODE
 70
     1
  9
$TEXTSIZE
 40
2.5
  9
$TRACEWID
 40
1.0
  9
$TEXTSTYLE
  7
SANINDUSA
  9
$CLAYER
  8
cotas
  9
$CELTYPE
  6
ByLayer
  9
$CECOLOR
 62
   256
  9
$CELTSCALE
 40
1.0
  9
$DISPSILH
 70
     0
  9
$DIMSCALE
 40
1.0
  9
$DIMASZ
 40
2.0
  9
$DIMEXO
 40
1.0
  9
$DIMDLI
 40
1.0
  9
$DIMRND
 40
0.0
  9
$DIMDLE
 40
0.0
  9
$DIMEXE
 40
1.0
  9
$DIMTP
 40
0.0
  9
$DIMTM
 40
0.0
  9
$DIMTXT
 40
2.0
  9
$DIMCEN
 40
0.0
  9
$DIMTSZ
 40
0.0
  9
$DIMTOL
 70
     0
  9
$DIMLIM
 70
     0
  9
$DIMTIH
 70
     0
  9
$DIMTOH
 70
     0
  9
$DIMSE1
 70
     0
  9
$DIMSE2
 70
     0
  9
$DIMTAD
 70
     1
  9
$DIMZIN
 70
     8
  9
$DIMBLK
  1

  9
$DIMASO
 70
     1
  9
$DIMSHO
 70
     1
  9
$DIMPOST
  1

  9
$DIMAPOST
  1

  9
$DIMALT
 70
     0
  9
$DIMALTD
 70
     3
  9
$DIMALTF
 40
0.03937007874016
  9
$DIMLFAC
 40
1.0
  9
$DIMTOFL
 70
     1
  9
$DIMTVP
 40
0.0
  9
$DIMTIX
 70
     0
  9
$DIMSOXD
 70
     0
  9
$DIMSAH
 70
     0
  9
$DIMBLK1
  1

  9
$DIMBLK2
  1

  9
$DIMSTYLE
  2
SANINDUSA
  9
$DIMCLRD
 70
   256
  9
$DIMCLRE
 70
   256
  9
$DIMCLRT
 70
   256
  9
$DIMTFAC
 40
1.0
  9
$DIMGAP
 40
1.0
  9
$DIMJUST
 70
     0
  9
$DIMSD1
 70
     0
  9
$DIMSD2
 70
     0
  9
$DIMTOLJ
 70
     0
  9
$DIMTZIN
 70
     8
  9
$DIMALTZ
 70
     0
  9
$DIMALTTZ
 70
     0
  9
$DIMUPT
 70
     0
  9
$DIMDEC
 70
     1
  9
$DIMTDEC
 70
     1
  9
$DIMALTU
 70
     2
  9
$DIMALTTD
 70
     3
  9
$DIMTXSTY
  7
SANINDUSA
  9
$DIMAUNIT
 70
     0
  9
$DIMADEC
 70
     1
  9
$DIMALTRND
 40
0.0
  9
$DIMAZIN
 70
     0
  9
$DIMDSEP
 70
    44
  9
$DIMATFIT
 70
     3
  9
$DIMFRAC
 70
     0
  9
$DIMLDRBLK
  1

  9
$DIMLUNIT
 70
     2
  9
$DIMLWD
 70
    -1
  9
$DIMLWE
 70
    -1
  9
$DIMTMOVE
 70
     0
  9
$LUNITS
 70
     2
  9
$LUPREC
 70
     4
  9
$SKETCHINC
 40
1.0
  9
$FILLETRAD
 40
3.0
  9
$AUNITS
 70
     0
  9
$AUPREC
 70
     0
  9
$MENU
  1
.
  9
$ELEVATION
 40
0.0
  9
$PELEVATION
 40
0.0
  9
$THICKNESS
 40
0.0
  9
$LIMCHECK
 70
     0
  9
$CHAMFERA
 40
10.0
  9
$CHAMFERB
 40
10.0
  9
$CHAMFERC
 40
20.0
  9
$CHAMFERD
 40
0.0
  9
$SKPOLY
 70
     0
  9
$TDCREATE
 40
2454208.460944363
  9
$TDUCREATE
 40
2454208.419277697
  9
$TDUPDATE
 40
2454208.464446794
  9
$TDUUPDATE
 40
2454208.422780127
  9
$TDINDWG
 40
0.0035031481
  9
$TDUSRTIMER
 40
0.0035029745
  9
$USRTIMER
 70
     1
  9
$ANGBASE
 50
0.0
  9
$ANGDIR
 70
     0
  9
$PDMODE
 70
     0
  9
$PDSIZE
 40
0.0
  9
$PLINEWID
 40
0.0
  9
$SPLFRAME
 70
     0
  9
$SPLINETYPE
 70
     6
  9
$SPLINESEGS
 70
     8
  9
$HANDSEED
  5
123B
  9
$SURFTAB1
 70
     6
  9
$SURFTAB2
 70
     6
  9
$SURFTYPE
 70
     6
  9
$SURFU
 70
     6
  9
$SURFV
 70
     6
  9
$UCSBASE
  2

  9
$UCSNAME
  2

  9
$UCSORG
 10
0.0
 20
0.0
 30
0.0
  9
$UCSXDIR
 10
1.0
 20
0.0
 30
0.0
  9
$UCSYDIR
 10
0.0
 20
1.0
 30
0.0
  9
$UCSORTHOREF
  2

  9
$UCSORTHOVIEW
 70
     0
  9
$UCSORGTOP
 10
0.0
 20
0.0
 30
0.0
  9
$UCSORGBOTTOM
 10
0.0
 20
0.0
 30
0.0
  9
$UCSORGLEFT
 10
0.0
 20
0.0
 30
0.0
  9
$UCSORGRIGHT
 10
0.0
 20
0.0
 30
0.0
  9
$UCSORGFRONT
 10
0.0
 20
0.0
 30
0.0
  9
$UCSORGBACK
 10
0.0
 20
0.0
 30
0.0
  9
$PUCSBASE
  2

  9
$PUCSNAME
  2

  9
$PUCSORG
 10
0.0
 20
0.0
 30
0.0
  9
$PUCSXDIR
 10
1.0
 20
0.0
 30
0.0
  9
$PUCSYDIR
 10
0.0
 20
1.0
 30
0.0
  9
$PUCSORTHOREF
  2

  9
$PUCSORTHOVIEW
 70
     0
  9
$PUCSORGTOP
 10
0.0
 20
0.0
 30
0.0
  9
$PUCSORGBOTTOM
 10
0.0
 20
0.0
 30
0.0
  9
$PUCSORGLEFT
 10
0.0
 20
0.0
 30
0.0
  9
$PUCSORGRIGHT
 10
0.0
 20
0.0
 30
0.0
  9
$PUCSORGFRONT
 10
0.0
 20
0.0
 30
0.0
  9
$PUCSORGBACK
 10
0.0
 20
0.0
 30
0.0
  9
$USERI1
 70
     0
  9
$USERI2
 70
     0
  9
$USERI3
 70
     0
  9
$USERI4
 70
     0
  9
$USERI5
 70
     0
  9
$USERR1
 40
0.0
  9
$USERR2
 40
0.0
  9
$USERR3
 40
0.0
  9
$USERR4
 40
0.0
  9
$USERR5
 40
0.0
  9
$WORLDVIEW
 70
     1
  9
$SHADEDGE
 70
     3
  9
$SHADEDIF
 70
    70
  9
$TILEMODE
 70
     1
  9
$MAXACTVP
 70
    64
  9
$PINSBASE
 10
0.0
 20
0.0
 30
0.0
  9
$PLIMCHECK
 70
     0
  9
$PEXTMIN
 10
1.000000000000000E+20
 20
1.000000000000000E+20
 30
1.000000000000000E+20
  9
$PEXTMAX
 10
-1.000000000000000E+20
 20
-1.000000000000000E+20
 30
-1.000000000000000E+20
  9
$PLIMMIN
 10
0.0
 20
0.0
  9
$PLIMMAX
 10
420.0
 20
297.0
  9
$UNITMODE
 70
     0
  9
$VISRETAIN
 70
     1
  9
$PLINEGEN
 70
     0
  9
$PSLTSCALE
 70
     1
  9
$TREEDEPTH
 70
  3020
  9
$CMLSTYLE
  2
Standard
  9
$CMLJUST
 70
     0
  9
$CMLSCALE
 40
20.0
  9
$PROXYGRAPHICS
 70
     1
  9
$MEASUREMENT
 70
     1
  9
$CELWEIGHT
370
    -1
  9
$ENDCAPS
280
     0
  9
$JOINSTYLE
280
     0
  9
$LWDISPLAY
290
     0
  9
$INSUNITS
 70
     4
  9
$HYPERLINKBASE
  1

  9
$STYLESHEET
  1
sanindusa.ctb
  9
$XEDIT
290
     1
  9
$CEPSNTYPE
380
     0
  9
$PSTYLEMODE
290
     1
  9
$FINGERPRINTGUID
  2
{F4B8DF23-2DD7-4B77-A8A5-A0656A8451EC}
  9
$VERSIONGUID
  2
{D4BE9606-B42D-4FD9-9FAF-DDF29E2B55EF}
  9
$EXTNAMES
290
     1
  9
$PSVPSCALE
 40
0.0
  9
$OLESTARTUP
290
     0
  0
ENDSEC
  0
SECTION
  2
CLASSES
  0
CLASS
  1
ACDBDICTIONARYWDFLT
  2
AcDbDictionaryWithDefault
  3
ObjectDBX Classes
 90
        0
280
     0
281
     0
  0
CLASS
  1
ACDBPLACEHOLDER
  2
AcDbPlaceHolder
  3
ObjectDBX Classes
 90
        0
280
     0
281
     0
  0
CLASS
  1
LAYOUT
  2
AcDbLayout
  3
ObjectDBX Classes
 90
        0
280
     0
281
     0
  0
CLASS
  1
DICTIONARYVAR
  2
AcDbDictionaryVar
  3
ObjectDBX Classes
 90
        0
280
     0
281
     0
  0
CLASS
  1
DIMASSOC
  2
AcDbDimAssoc
  3
"AcDbDimAssoc|Product Desc:     AcDim ARX App For Dimension|Company:          Autodesk, Inc.|WEB Address:      www.autodesk.com"
 90
    32768
280
     0
281
     0
  0
CLASS
  1
TABLESTYLE
  2
AcDbTableStyle
  3
ObjectDBX Classes
 90
     2047
280
     0
281
     0
  0
ENDSEC
  0
SECTION
  2
TABLES
  0
TABLE
  2
VPORT
  5
8
330
0
100
AcDbSymbolTable
 70
     8
  0
VPORT
  5
1233
330
8
100
AcDbSymbolTableRecord
100
AcDbViewportTableRecord
  2
*Active
 70
     0
 10
0.0
 20
0.0
 11
1.0
 21
1.0
 12
3806.425600758527
 22
1723.716773625127
 13
0.0
 23
0.0
 14
10.0
 24
10.0
 15
10.0
 25
10.0
 16
0.0
 26
0.0
 36
1.0
 17
0.0
 27
0.0
 37
0.0
 40
1.608675259907423
 41
1.592330978809283
 42
50.0
 43
0.0
 44
0.0
 50
0.0
 51
0.0
 71
     0
 72
   100
 73
     1
 74
     2
 75
     0
 76
     0
 77
     0
 78
     0
281
     0
 65
     1
110
0.0
120
0.0
130
0.0
111
1.0
121
0.0
131
0.0
112
0.0
122
1.0
132
0.0
 79
     0
146
0.0
  0
ENDTAB
  0
TABLE
  2
LTYPE
  5
5
330
0
100
AcDbSymbolTable
 70
     6
  0
LTYPE
  5
14
330
5
100
AcDbSymbolTableRecord
100
AcDbLinetypeTableRecord
  2
ByBlock
 70
     0
  3

 72
    65
 73
     0
 40
0.0
  0
LTYPE
  5
15
330
5
100
AcDbSymbolTableRecord
100
AcDbLinetypeTableRecord
  2
ByLayer
 70
     0
  3

 72
    65
 73
     0
 40
0.0
  0
LTYPE
  5
16
330
5
100
AcDbSymbolTableRecord
100
AcDbLinetypeTableRecord
  2
Continuous
 70
     0
  3
Solid line
 72
    65
 73
     0
 40
0.0
  0
LTYPE
  5
2D
330
5
100
AcDbSymbolTableRecord
100
AcDbLinetypeTableRecord
  2
DASHDOT
 70
     0
  3
Dash dot __ . __ . __ . __ . __ . __ . __ . __
 72
    65
 73
     4
 40
25.4
 49
12.7
 74
     0
 49
-6.349999999999999
 74
     0
 49
0.0
 74
     0
 49
-6.349999999999999
 74
     0
  0
LTYPE
  5
2E
330
5
100
AcDbSymbolTableRecord
100
AcDbLinetypeTableRecord
  2
HIDDEN
 70
     0
  3
Hidden __ __ __ __ __ __ __ __ __ __ __ __ __ _
 72
    65
 73
     2
 40
9.524999999999998
 49
6.349999999999999
 74
     0
 49
-3.174999999999999
 74
     0
  0
LTYPE
  5
C75
330
5
100
AcDbSymbolTableRecord
100
AcDbLinetypeTableRecord
  2
AM_ISO02W050
 70
     0
  3
__ __ __ __ __ __ __ __ __ __ __ __ __ __ __
 72
    65
 73
     2
 40
7.5
 49
6.0
 74
     0
 49
-1.5
 74
     0
  0
LTYPE
  5
C76
330
5
100
AcDbSymbolTableRecord
100
AcDbLinetypeTableRecord
  2
AM_ISO08W050
 70
     0
  3
____ . ____ . ____ . ____ . ____ . ____ . ____
 72
    65
 73
     4
 40
18.0
 49
12.0
 74
     0
 49
-1.5
 74
     0
 49
3.0
 74
     0
 49
-1.5
 74
     0
  0
ENDTAB
  0
TABLE
  2
LAYER
  5
2
102
{ACAD_XDICTIONARY
360
1051
102
}
330
0
100
AcDbSymbolTable
 70
    16
  0
LAYER
  5
10
330
2
100
AcDbSymbolTableRecord
100
AcDbLayerTableRecord
  2
0
 70
     0
 62
     7
  6
Continuous
370
    -3
390
F
  0
LAYER
  5
2F
330
2
100
AcDbSymbolTableRecord
100
AcDbLayerTableRecord
  2
1
 70
     0
 62
     1
  6
Continuous
370
    -3
390
F
  0
LAYER
  5
30
330
2
100
AcDbSymbolTableRecord
100
AcDbLayerTableRecord
  2
2
 70
     0
 62
     2
  6
Continuous
370
    -3
390
F
  0
LAYER
  5
31
330
2
100
AcDbSymbolTableRecord
100
AcDbLayerTableRecord
  2
3
 70
     0
 62
     3
  6
Continuous
370
    -3
390
F
  0
LAYER
  5
32
330
2
100
AcDbSymbolTableRecord
100
AcDbLayerTableRecord
  2
4
 70
     0
 62
     4
  6
Continuous
370
    -3
390
F
  0
LAYER
  5
33
330
2
100
AcDbSymbolTableRecord
100
AcDbLayerTableRecord
  2
5
 70
     0
 62
     5
  6
Continuous
370
    -3
390
F
  0
LAYER
  5
34
330
2
100
AcDbSymbolTableRecord
100
AcDbLayerTableRecord
  2
6
 70
     0
 62
     6
  6
Continuous
370
    -3
390
F
  0
LAYER
  5
35
330
2
100
AcDbSymbolTableRecord
100
AcDbLayerTableRecord
  2
7
 70
     0
 62
     7
  6
Continuous
370
    -3
390
F
  0
LAYER
  5
36
330
2
100
AcDbSymbolTableRecord
100
AcDbLayerTableRecord
  2
cen
 70
     0
 62
     7
  6
DASHDOT
370
    -3
390
F
  0
LAYER
  5
37
330
2
100
AcDbSymbolTableRecord
100
AcDbLayerTableRecord
  2
hid
 70
     0
 62
     7
  6
HIDDEN
370
    -3
390
F
  0
LAYER
  5
5D6
330
2
100
AcDbSymbolTableRecord
100
AcDbLayerTableRecord
  2
hatch
 70
     0
 62
     9
  6
Continuous
370
    -3
390
F
  0
LAYER
  5
8AF
330
2
100
AcDbSymbolTableRecord
100
AcDbLayerTableRecord
  2
9
 70
     0
 62
     9
  6
Continuous
370
    -3
390
F
  0
LAYER
  5
8F8
330
2
100
AcDbSymbolTableRecord
100
AcDbLayerTableRecord
  2
leg fin
 70
     0
 62
     9
  6
Continuous
370
    -3
390
F
  0
LAYER
  5
91D
330
2
100
AcDbSymbolTableRecord
100
AcDbLayerTableRecord
  2
cotas
 70
     0
 62
     1
  6
Continuous
370
    -3
390
F
  0
LAYER
  5
92F
330
2
100
AcDbSymbolTableRecord
100
AcDbLayerTableRecord
  2
Defpoints
 70
     0
 62
     7
  6
Continuous
290
     0
370
    -3
390
F
  0
LAYER
  5
C7B
330
2
100
AcDbSymbolTableRecord
100
AcDbLayerTableRecord
  2
SANINDUSA
 70
     0
 62
     3
  6
Continuous
370
    -3
390
F
  0
ENDTAB
  0
TABLE
  2
STYLE
  5
3
330
0
100
AcDbSymbolTable
 70
     5
  0
STYLE
  5
11
330
3
100
AcDbSymbolTableRecord
100
AcDbTextStyleTableRecord
  2
Standard
 70
     0
 40
0.0
 41
1.0
 50
0.0
 71
     0
 42
2.5
  3
Avgardn.ttf
  4

1001
ACAD
1000
AvantGarde Bk BT
1071
       34
  0
STYLE
  5
2C
330
3
100
AcDbSymbolTableRecord
100
AcDbTextStyleTableRecord
  2

 70
     1
 40
0.0
 41
1.0
 50
0.0
 71
     0
 42
2.5
  3
ltypeshp.shx
  4

  0
STYLE
  5
91F
330
3
100
AcDbSymbolTableRecord
100
AcDbTextStyleTableRecord
  2
SANINDUSA
 70
     0
 40
0.0
 41
1.0
 50
0.0
 71
     0
 42
2.5
  3
verdana.TTF
  4

1001
ACAD
1000
Verdana
1071
       34
  0
STYLE
  5
C7C
330
3
100
AcDbSymbolTableRecord
100
AcDbTextStyleTableRecord
  2
futura
 70
     0
 40
0.0
 41
1.0
 50
0.0
 71
     0
 42
2.5
  3
zurchn.ttf
  4

1001
ACAD
1000
Zurich BT
1071
       34
  0
ENDTAB
  0
TABLE
  2
VIEW
  5
6
330
0
100
AcDbSymbolTable
 70
     0
  0
ENDTAB
  0
TABLE
  2
UCS
  5
7
330
0
100
AcDbSymbolTable
 70
     0
  0
ENDTAB
  0
TABLE
  2
APPID
  5
9
330
0
100
AcDbSymbolTable
 70
    11
  0
APPID
  5
12
330
9
100
AcDbSymbolTableRecord
100
AcDbRegAppTableRecord
  2
ACAD
 70
     0
  0
APPID
  5
3A
330
9
100
AcDbSymbolTableRecord
100
AcDbRegAppTableRecord
  2
DCO15
 70
     0
  0
APPID
  5
EEE
330
9
100
AcDbSymbolTableRecord
100
AcDbRegAppTableRecord
  2
ACAD_DSTYLE_DIMTEXT_FILL
 70
     0
  0
APPID
  5
EEF
330
9
100
AcDbSymbolTableRecord
100
AcDbRegAppTableRecord
  2
ACAD_DSTYLE_DIMEXT_LENGTH
 70
     0
  0
APPID
  5
EF0
330
9
100
AcDbSymbolTableRecord
100
AcDbRegAppTableRecord
  2
ACAD_DSTYLE_DIMEXT_ENABLED
 70
     0
  0
APPID
  5
EF1
330
9
100
AcDbSymbolTableRecord
100
AcDbRegAppTableRecord
  2
ACAD_DSTYLE_DIM_LINETYPE
 70
     0
  0
APPID
  5
EF2
330
9
100
AcDbSymbolTableRecord
100
AcDbRegAppTableRecord
  2
ACAD_DSTYLE_DIM_EXT1_LINETYPE
 70
     0
  0
APPID
  5
EF3
330
9
100
AcDbSymbolTableRecord
100
AcDbRegAppTableRecord
  2
ACAD_DSTYLE_DIM_EXT2_LINETYPE
 70
     0
  0
APPID
  5
FAF
330
9
100
AcDbSymbolTableRecord
100
AcDbRegAppTableRecord
  2
ACAD_DSTYLE_DIMJOGGED_JOGANGLE_SYMBOL
 70
     0
  0
APPID
  5
1013
330
9
100
AcDbSymbolTableRecord
100
AcDbRegAppTableRecord
  2
ACAD_DSTYLE_DIMARC_LENGTH_SYMBOL
 70
     0
  0
APPID
  5
1215
330
9
100
AcDbSymbolTableRecord
100
AcDbRegAppTableRecord
  2
ACAD_EXEMPT_FROM_CAD_STANDARDS
 70
     0
  0
ENDTAB
  0
TABLE
  2
DIMSTYLE
  5
A
330
0
100
AcDbSymbolTable
 70
     6
100
AcDbDimStyleTable
 71
     1
340
921
  0
DIMSTYLE
105
45
330
A
100
AcDbSymbolTableRecord
100
AcDbDimStyleTableRecord
  2
STANDARD
 70
     0
289
     0
340
11
  0
DIMSTYLE
105
921
330
A
100
AcDbSymbolTableRecord
100
AcDbDimStyleTableRecord
  2
SANINDUSA
 70
     0
 41
2.0
 42
1.0
 43
1.0
 44
1.0
 73
     0
 74
     0
 77
     1
 78
     8
140
2.0
141
0.0
143
0.03937007874016
147
1.0
171
     3
172
     1
176
   256
177
   256
178
   256
179
     1
271
     1
272
     1
274
     3
278
    44
283
     0
284
     8
340
91F
371
    -1
372
    -1
1001
ACAD_DSTYLE_DIMEXT_LENGTH
1070
   378
1040
1.0
1001
ACAD_DSTYLE_DIMEXT_ENABLED
1070
   383
1070
     0
1001
ACAD_DSTYLE_DIMARC_LENGTH_SYMBOL
1070
   379
1070
     0
1001
ACAD_DSTYLE_DIMJOGGED_JOGANGLE_SYMBOL
1070
   384
1040
1.570796326794896
  0
DIMSTYLE
105
C7D
330
A
100
AcDbSymbolTableRecord
100
AcDbDimStyleTableRecord
  2
AM_ISO
 70
     0
  4
"
 41
2.5
 42
1.0
 43
10.0
 44
1.0
 47
0.1
 48
0.1
 73
     0
 74
     0
 77
     1
 78
     8
 79
     2
140
3.5
141
0.0
143
0.0393701
146
0.71
147
1.5
172
     1
176
   256
177
   256
178
     2
271
     2
272
     3
274
     4
283
     0
284
     8
340
11
371
    -1
372
    -1
  0
DIMSTYLE
105
106B
330
A
100
AcDbSymbolTableRecord
100
AcDbDimStyleTableRecord
  2
ISO-25
 70
     0
 41
2.5
 42
0.625
 43
3.75
 44
1.25
 73
     0
 74
     0
 77
     1
 78
     8
140
2.5
141
2.5
143
0.03937007874016
147
0.625
171
     3
172
     1
271
     2
272
     2
274
     3
278
    44
283
     0
284
     8
340
11
  0
ENDTAB
  0
TABLE
  2
BLOCK_RECORD
  5
1
330
0
100
AcDbSymbolTable
 70
    11
  0
BLOCK_RECORD
  5
1F
330
1
100
AcDbSymbolTableRecord
100
AcDbBlockTableRecord
  2
*Model_Space
340
22
  0
BLOCK_RECORD
  5
1B
330
1
100
AcDbSymbolTableRecord
100
AcDbBlockTableRecord
  2
*Paper_Space
340
1E
  0
BLOCK_RECORD
  5
23
330
1
100
AcDbSymbolTableRecord
100
AcDbBlockTableRecord
  2
*Paper_Space0
340
26
  0
BLOCK_RECORD
  5
919
330
1
100
AcDbSymbolTableRecord
100
AcDbBlockTableRecord
  2
_DotSmall
340
0
  0
BLOCK_RECORD
  5
922
330
1
100
AcDbSymbolTableRecord
100
AcDbBlockTableRecord
  2
base para cotas
340
0
310
2800000020000000200000000100080000000000000400000000000000000000000000000000000000000000000080000080000000808000800000008000800080800000C0C0C000C0DCC000F0CAA6000020400000206000002080000020A0000020C0000020E00000400000004020000040400000406000004080000040A0
310
000040C0000040E00000600000006020000060400000606000006080000060A0000060C0000060E00000800000008020000080400000806000008080000080A0000080C0000080E00000A0000000A0200000A0400000A0600000A0800000A0A00000A0C00000A0E00000C0000000C0200000C0400000C0600000C0800000C0
310
A00000C0C00000C0E00000E0000000E0200000E0400000E0600000E0800000E0A00000E0C00000E0E00040000000400020004000400040006000400080004000A0004000C0004000E00040200000402020004020400040206000402080004020A0004020C0004020E000404000004040200040404000404060004040800040
310
40A0004040C0004040E00040600000406020004060400040606000406080004060A0004060C0004060E00040800000408020004080400040806000408080004080A0004080C0004080E00040A0000040A0200040A0400040A0600040A0800040A0A00040A0C00040A0E00040C0000040C0200040C0400040C0600040C08000
310
40C0A00040C0C00040C0E00040E0000040E0200040E0400040E0600040E0800040E0A00040E0C00040E0E00080000000800020008000400080006000800080008000A0008000C0008000E00080200000802020008020400080206000802080008020A0008020C0008020E00080400000804020008040400080406000804080
310
008040A0008040C0008040E00080600000806020008060400080606000806080008060A0008060C0008060E00080800000808020008080400080806000808080008080A0008080C0008080E00080A0000080A0200080A0400080A0600080A0800080A0A00080A0C00080A0E00080C0000080C0200080C0400080C0600080C0
310
800080C0A00080C0C00080C0E00080E0000080E0200080E0400080E0600080E0800080E0A00080E0C00080E0E000C0000000C0002000C0004000C0006000C0008000C000A000C000C000C000E000C0200000C0202000C0204000C0206000C0208000C020A000C020C000C020E000C0400000C0402000C0404000C0406000C0
310
408000C040A000C040C000C040E000C0600000C0602000C0604000C0606000C0608000C060A000C060C000C060E000C0800000C0802000C0804000C0806000C0808000C080A000C080C000C080E000C0A00000C0A02000C0A04000C0A06000C0A08000C0A0A000C0A0C000C0A0E000C0C00000C0C02000C0C04000C0C06000
310
C0C08000C0C0A000F0FBFF00A4A0A000808080000000FF0000FF000000FFFF00FF000000FF00FF00FFFF0000FFFFFF00A4A4A4A4A4A4A4A4A4A4A4A4A4A4A4A4A4A4A4A4A4A4A4A4A4A4A4A4A4A4A4A4A4A4A4A4A4A4A4A4A4A4A4A4A4A4A4A4A4A4A4A4A4A4A4A4A4A4A4A4A4A4A4A4A4A4A4A4A4A4A4A4A4A4A4A4A4A4A4
310
A4A4A4A4A4A4A4A4A4A4A4A4A4A4A4A4A4A4A4A4A4A4A4A4A4A4A4A4A4A4A4A4A4A4A4A4A4A4A4A4A4A4A4A4A4A4A4A4A4A4A4A4A4A4A4A4A4A4A4A4A4A4A4A4A4A4A4A4A4A4A4A4A4A4A4A4A4A4A4A4A4A4A4A4A4A4A4A4A4A4A4A4A4A4A4A4A4A4A4A4A4A4A4A4A4A4A4A4A4A4A4A4A4A4A4A4A4A4A4A4A4A4A4A4A4A4A4
310
A4A4A4A4A4A4A4A4A4A4A4A4A4A4A4A4A4A4A4A4A4A4A4A4A4A4A4A4A4A4A4A4A4A4A4A4A4A4A4A4A4A4A4A4A4A4A4A4A4A4A4A4A4A4A4A4A4A4A4A4A4A4A4A4A4A4A4A4A4A4A4A4A4A4A4A4A4A4A4A4A4A4A4A4A4A4A4A4A4A4A4A4A4A4A4A4A4A4A4A4A4A4A4A4A4A4A4A4A4A4A4A4A4A4A4A4A4A4A4A4A4A4A4A4A4A4A4
310
A4A4A4A4A4A4A4A4A4A4A4A4A4A4A4A4A4A4A4A4A4A4A4A4A4A4A4A4A4A4A4A4A4A4A4A4A4A4A4A4A4A4A4A4A4A4A4A4A4A4A4A4A4A4A4A4A4A4A4A4A4A4A4A4A4A4A4A4A4A4A4A4A4A4A4A4A4A4A4A4A4A4A4A4A4A4A4A4A4A4A4A4A4A4A4A4A4A4A4A4A4A4A4A4A4A4A4A4A4A4A4A4A4A4A4A4F9F9F9F9F9F9F9F9F9F9F9
310
F9F9F9F9F9F9F9F9F9F9F9F9F9F9F9F9F9F9F9A4A4F9F9F9F9F9F9F9F9F9F9F9F9F9F9F9F9F9F9F9F9F9F9F9F9F9F9F9F9F9F9A4A4F9F9F9F9F9F9F9F9F9F9F9F9F9F9F9F9F9F9F9F9F9F9F9F9F9F9F9F9F9F9A4A4F9A4A4A4A4A4A4A4A4A4A4A4A4A4A4A4A4A4A4A4A4A4A4A4A4A4A4A4A4F9A4A4A4A4A4A4A4A4A4A4A4A4
310
A4A4A4A4A4A4A4A4A4A4A4A4A4A4A4A4A4A4A4A4A4A4A4A4A4A4A4A4A4A4A4A4A4A4A4A4A4A4A4A4A4A4A4A4A4A4A4A4A4A4A4A4A4A4A4A4A4A4A4A4A4A4A4A4A4A4A4A4A4A4A4A4A4A4A4A4A4A4A4A4A4A4A4A4A4A4A4A4A4A4A4A4A4A4A4A4A4A4A4A4A4A4A4A4A4A4A4A4A4A4A4A4A4A4A4A4A4A4A4A4A4A4A4A4A4A4A4
310
A4A4A4A4A4A4A4A4A4A4A4A4A4A4A4A4A4A4A4A4A4A4A4A4A4A4A4A4A4A4A4A4A4A4A4A4A4A4A4A4A4A4A4A4A4A4A4A4A4A4A4A4A4A4A4A4A4A4A4A4A4A4A4A4A4A4A4A4A4A4A4A4A4A4A4A4A4A4A4A4A4A4A4A4A4A4A4A4A4A4A4A4A4A4A4A4A4A4A4A4A4A4A4A4A4A4A4A4A4A4A4A4A4A4A4A4A4A4A4A4A4A4A4A4A4A4A4
310
A4A4A4A4A4A4A4A4A4A4A4A4A4A4A4A4A4A4A4A4A4A4A4A4A4A4A4A4A4A4A4A4A4A4A4A4A4A4A4A4A4A4A4A4A4A4A4A4A4A4A4A4A4A4A4A4A4A4A4A4A4A4A4A4A4A4A4A4A4A4A4A4A4A4A4A4A4A4A4A4A4A4A4A4A4A4A4A4A4A4A4A4A4A4A4A4A4A4A4A4A4A4A4A4A4A4A4A4A4A4A4A4A4A4A4A4A4A4A4A4A4A4A4A4A4A4A4
310
A4A4A4A4A4A4A4A4A4A4A4A4A4A4A4A4A4A4A4A4A4A4A4A4A4A4A4A4A4A4A4A4A4A4A4A4A4A4A4A4A4A4A4A4A4A4A4A4A4A4A4A4A4A4A4A4
1001
ACAD
1000
DesignCenter Data
1002
{
1070
     1
1070
     4
1002
}
  0
BLOCK_RECORD
  5
AA8
330
1
100
AcDbSymbolTableRecord
100
AcDbBlockTableRecord
  2
_CLOSED
340
0
  0
BLOCK_RECORD
  5
B79
330
1
100
AcDbSymbolTableRecord
100
AcDbBlockTableRecord
  2
nota revisoes
340
0
1001
ACAD
1000
DesignCenter Data
1002
{
1070
     1
1070
     4
1002
}
  0
BLOCK_RECORD
  5
B8E
330
1
100
AcDbSymbolTableRecord
100
AcDbBlockTableRecord
  2
a3l
340
0
1001
ACAD
1000
DesignCenter Data
1002
{
1070
     1
1070
     4
1002
}
  0
BLOCK_RECORD
  5
B9E
330
1
100
AcDbSymbolTableRecord
100
AcDbBlockTableRecord
  2
legenda desenvolvimento
340
0
1001
ACAD
1000
DesignCenter Data
1002
{
1070
     1
1070
     4
1002
}
  0
BLOCK_RECORD
  5
1060
330
1
100
AcDbSymbolTableRecord
100
AcDbBlockTableRecord
  2
SW_CENTERMARKSYMBOL_2
340
0
102
{BLKREFS
331
10E0
102
}
  0
ENDTAB
  0
ENDSEC
  0
SECTION
  2
BLOCKS
  0
BLOCK
  5
20
330
1F
100
AcDbEntity
  8
0
100
AcDbBlockBegin
  2
*Model_Space
 70
     0
 10
0.0
 20
0.0
 30
0.0
  3
*Model_Space
  1

  0
ENDBLK
  5
21
330
1F
100
AcDbEntity
  8
0
100
AcDbBlockEnd
  0
BLOCK
  5
1C
330
1B
100
AcDbEntity
 67
     1
  8
0
100
AcDbBlockBegin
  2
*Paper_Space
 70
     0
 10
0.0
 20
0.0
 30
0.0
  3
*Paper_Space
  1

  0
ENDBLK
  5
1D
330
1B
100
AcDbEntity
 67
     1
  8
0
100
AcDbBlockEnd
  0
BLOCK
  5
24
330
23
100
AcDbEntity
 67
     1
  8
0
100
AcDbBlockBegin
  2
*Paper_Space0
 70
     0
 10
0.0
 20
0.0
 30
0.0
  3
*Paper_Space0
  1

  0
ENDBLK
  5
25
330
23
100
AcDbEntity
 67
     1
  8
0
100
AcDbBlockEnd
  0
BLOCK
  5
91B
330
919
100
AcDbEntity
  8
0
100
AcDbBlockBegin
  2
_DotSmall
 70
     0
 10
0.0
 20
0.0
 30
0.0
  3
_DotSmall
  1

  0
LWPOLYLINE
  5
91A
330
919
100
AcDbEntity
  8
0
  6
ByBlock
 62
     0
100
AcDbPolyline
 90
        2
 70
     1
 43
0.5
 10
-0.0625
 20
0.0
 42
1.0
 10
0.0625
 20
0.0
 42
1.0
  0
ENDBLK
  5
91C
330
919
100
AcDbEntity
  8
0
100
AcDbBlockEnd
  0
BLOCK
  5
92A
330
922
100
AcDbEntity
  8
0
100
AcDbBlockBegin
  2
base para cotas
 70
     0
 10
0.0
 20
0.0
 30
0.0
  3
base para cotas
  1

  0
LINE
  5
B36
330
922
100
AcDbEntity
  8
cotas
100
AcDbLine
 10
0.0
 20
-30.0
 30
0.0
 11
327.1260136525398
 21
-30.0
 31
0.0
  0
LINE
  5
B37
330
922
100
AcDbEntity
  8
cotas
100
AcDbLine
 10
0.0
 20
-25.0
 30
0.0
 11
327.1260136525398
 21
-25.0
 31
0.0
  0
LINE
  5
B38
330
922
100
AcDbEntity
  8
cotas
100
AcDbLine
 10
0.0
 20
-20.0
 30
0.0
 11
327.1260136525398
 21
-20.0
 31
0.0
  0
LINE
  5
B39
330
922
100
AcDbEntity
  8
cotas
100
AcDbLine
 10
0.0
 20
-15.0
 30
0.0
 11
327.1260136525398
 21
-15.0
 31
0.0
  0
LINE
  5
B3A
330
922
100
AcDbEntity
  8
cotas
100
AcDbLine
 10
0.0
 20
-10.0
 30
0.0
 11
327.1260136525398
 21
-10.0
 31
0.0
  0
LINE
  5
B3B
330
922
100
AcDbEntity
  8
cotas
100
AcDbLine
 10
0.0
 20
0.0
 30
0.0
 11
0.0
 21
-30.0
 31
0.0
  0
LINE
  5
B3C
330
922
100
AcDbEntity
  8
cotas
100
AcDbLine
 10
327.1260136525398
 20
-30.0
 30
0.0
 11
327.1260136525398
 21
0.0
 31
0.0
  0
ENDBLK
  5
92B
330
922
100
AcDbEntity
  8
0
100
AcDbBlockEnd
  0
BLOCK
  5
AAD
330
AA8
100
AcDbEntity
  8
0
100
AcDbBlockBegin
  2
_CLOSED
 70
     0
 10
0.0
 20
0.0
 30
0.0
  3
_CLOSED
  1

  0
LINE
  5
AA9
330
AA8
100
AcDbEntity
  8
0
100
AcDbLine
 10
-1.0
 20
0.166667
 30
0.0
 11
0.0
 21
0.0
 31
0.0
  0
LINE
  5
AAA
330
AA8
100
AcDbEntity
  8
0
100
AcDbLine
 10
0.0
 20
0.0
 30
0.0
 11
-1.0
 21
-0.166667
 31
0.0
  0
LINE
  5
AAB
330
AA8
100
AcDbEntity
  8
0
100
AcDbLine
 10
-1.0
 20
0.166667
 30
0.0
 11
-1.0
 21
-0.166667
 31
0.0
  0
LINE
  5
AAC
330
AA8
100
AcDbEntity
  8
0
100
AcDbLine
 10
0.0
 20
0.0
 30
0.0
 11
-1.0
 21
0.0
 31
0.0
  0
ENDBLK
  5
AAE
330
AA8
100
AcDbEntity
  8
0
100
AcDbBlockEnd
  0
BLOCK
  5
B7C
330
B79
100
AcDbEntity
  8
0
100
AcDbBlockBegin
  2
nota revisoes
 70
     0
 10
0.0
 20
0.0
 30
0.0
  3
nota revisoes
  1

  0
CIRCLE
  5
B7A
330
B79
100
AcDbEntity
  8
4
100
AcDbCircle
 10
0.0
 20
0.0
 30
0.0
 40
13.69426055101189
  0
TEXT
  5
B7B
330
B79
100
AcDbEntity
  8
4
100
AcDbText
 10
-5.496248358154345
 20
-5.354545554066362
 30
0.0
 40
12.0
  1
1
  7
SANINDUSA
 72
     1
 11
-0.249774214433728
 21
-5.354545554066362
 31
0.0
100
AcDbText
  0
ENDBLK
  5
B7D
330
B79
100
AcDbEntity
  8
0
100
AcDbBlockEnd
  0
BLOCK
  5
B9C
330
B8E
100
AcDbEntity
  8
0
100
AcDbBlockBegin
  2
a3l
 70
     0
 10
0.0
 20
0.0
 30
0.0
  3
a3l
  1

  0
LINE
  5
B8F
330
B8E
100
AcDbEntity
  8
1
100
AcDbLine
 10
-364.2925296599447
 20
-362.1188951399395
 30
0.0
 11
-364.2925296599447
 21
-65.11889513993946
 31
0.0
  0
LINE
  5
B90
330
B8E
100
AcDbEntity
  8
4
100
AcDbLine
 10
-369.2925296599447
 20
-357.1188951399395
 30
0.0
 11
-369.2925296599447
 21
-70.11889513993946
 31
0.0
  0
LINE
  5
B91
330
B8E
100
AcDbEntity
  8
1
100
AcDbLine
 10
-784.2925296599446
 20
-65.11889513993946
 30
0.0
 11
-784.2925296599446
 21
-362.1188951399395
 31
0.0
  0
LINE
  5
B92
330
B8E
100
AcDbEntity
  8
4
100
AcDbLine
 10
-759.2925296599446
 20
-357.1188951399395
 30
0.0
 11
-759.2925296599446
 21
-70.11889513993946
 31
0.0
  0
LINE
  5
B93
330
B8E
100
AcDbEntity
  8
1
100
AcDbLine
 10
-784.2925296599446
 20
-362.1188951399395
 30
0.0
 11
-364.2925296599447
 21
-362.1188951399395
 31
0.0
  0
LINE
  5
B94
330
B8E
100
AcDbEntity
  8
4
100
AcDbLine
 10
-759.2925296599446
 20
-357.1188951399395
 30
0.0
 11
-369.2925296599447
 21
-357.1188951399395
 31
0.0
  0
LINE
  5
B95
330
B8E
100
AcDbEntity
  8
1
100
AcDbLine
 10
-654.2925296599446
 20
-357.1188951399395
 30
0.0
 11
-654.2925296599446
 21
-362.1188951399395
 31
0.0
  0
LINE
  5
B96
330
B8E
100
AcDbEntity
  8
1
100
AcDbLine
 10
-364.2925296599447
 20
-65.11889513993946
 30
0.0
 11
-784.2925296599446
 21
-65.11889513993946
 31
0.0
  0
LINE
  5
B97
330
B8E
100
AcDbEntity
  8
4
100
AcDbLine
 10
-369.2925296599447
 20
-70.11889513993946
 30
0.0
 11
-759.2925296599446
 21
-70.11889513993946
 31
0.0
  0
LINE
  5
B98
330
B8E
100
AcDbEntity
  8
1
100
AcDbLine
 10
-654.2925296599446
 20
-65.11889513993946
 30
0.0
 11
-654.2925296599446
 21
-70.11889513993946
 31
0.0
  0
LINE
  5
B99
330
B8E
100
AcDbEntity
  8
1
100
AcDbLine
 10
-549.2925296599446
 20
-70.11889513993946
 30
0.0
 11
-549.2925296599446
 21
-65.11889513993946
 31
0.0
  0
LINE
  5
B9A
330
B8E
100
AcDbEntity
  8
1
100
AcDbLine
 10
-369.2925296599447
 20
-65.11889513993946
 30
0.0
 11
-364.2925296599447
 21
-65.11889513993946
 31
0.0
  0
LINE
  5
B9B
330
B8E
100
AcDbEntity
  8
1
100
AcDbLine
 10
-549.2925296599446
 20
-357.1188951399395
 30
0.0
 11
-549.2925296599446
 21
-362.1188951399395
 31
0.0
  0
ENDBLK
  5
B9D
330
B8E
100
AcDbEntity
  8
0
100
AcDbBlockEnd
  0
BLOCK
  5
C13
330
B9E
100
AcDbEntity
  8
0
100
AcDbBlockBegin
  2
legenda desenvolvimento
 70
     2
 10
0.0
 20
0.0
 30
0.0
  3
legenda desenvolvimento
  1

  0
ATTDEF
  5
B9F
330
B9E
100
AcDbEntity
  8
1
100
AcDbText
 10
-108.606245802552
 20
55.5
 30
0.0
 40
4.0
  1
XXXXXXXXXXXXXX
 41
0.8
  7
SANINDUSA
 72
     4
 11
-87.5
 21
57.5
 31
0.0
100
AcDbAttributeDefinition
  3
Nome do Produto:
  2
PRODUTO
 70
     0
  0
ATTDEF
  5
BA0
330
B9E
100
AcDbEntity
  8
1
100
AcDbText
 10
-97.9997966101695
 20
41.25
 30
0.0
 40
3.0
  1
XXXXXXXXX
 41
0.8
  7
futura
 72
     4
 11
-87.5
 21
42.75
 31
0.0
100
AcDbAttributeDefinition
  3
Nome da Peça:
  2
PECA
 70
     0
  0
ATTDEF
  5
BA1
330
B9E
100
AcDbEntity
  8
1
100
AcDbText
 10
-133.4422431161853
 20
21.11745296763252
 30
0.0
 40
2.5
  1
X
 41
0.8
  7
SANINDUSA
 72
     4
 11
-132.5
 21
22.36745296763252
 31
0.0
100
AcDbAttributeDefinition
  3
Cod. TESTE:
  2
TESTE
 70
     0
  0
ATTDEF
  5
BA2
330
B9E
100
AcDbEntity
  8
1
100
AcDbText
 10
-124.3844862323707
 20
21.11745296763252
 30
0.0
 40
2.5
  1
XX
 41
0.8
  7
SANINDUSA
 72
     4
 11
-122.5
 21
22.36745296763252
 31
0.0
100
AcDbAttributeDefinition
  3
Cod. Ano:
  2
ANO
 70
     0
  0
ATTDEF
  5
BA3
330
B9E
100
AcDbEntity
  8
1
100
AcDbText
 10
-112.526889953052
 20
21.11745296763252
 30
0.0
 40
2.5
  1
XXX
 41
0.8
  7
SANINDUSA
 72
     4
 11
-109.700160604496
 21
22.36745296763252
 31
0.0
100
AcDbAttributeDefinition
  3
Cod. Sequência:
  2
SEQUENCIA
 70
     0
  0
ATTDEF
  5
BA4
330
B9E
100
AcDbEntity
  8
1
100
AcDbText
 10
-99.35382430979316
 20
21.11745296763252
 30
0.0
 40
2.5
  1
XX
 41
0.8
  7
SANINDUSA
 72
     4
 11
-97.46933807742244
 21
22.36745296763252
 31
0.0
100
AcDbAttributeDefinition
  3
Cod. Tipo:
  2
TIPO
 70
     0
  0
ATTDEF
  5
BA5
330
B9E
100
AcDbEntity
  8
1
100
AcDbText
 10
-87.42035911468438
 20
21.11745296763252
 30
0.0
 40
2.5
  1
XXX
 41
0.8
  7
SANINDUSA
 72
     4
 11
-84.59362976612828
 21
22.36745296763252
 31
0.0
100
AcDbAttributeDefinition
  3
Cod. Produto:
  2
PRODUTO
 70
     0
  0
ATTDEF
  5
BA6
330
B9E
100
AcDbEntity
  8
1
100
AcDbText
 10
-74.62051971917853
 20
21.11745296763252
 30
0.0
 40
2.5
  1
XXX
 41
0.8
  7
SANINDUSA
 72
     4
 11
-71.79379037062244
 21
22.36745296763252
 31
0.0
100
AcDbAttributeDefinition
  3
Cod. Peça:
  2
PECA
 70
     0
  0
ATTDEF
  5
BA7
330
B9E
100
AcDbEntity
  8
1
100
AcDbText
 10
-61.10603446650329
 20
21.11745296763252
 30
0.0
 40
2.5
  1
XX
 41
0.8
  7
SANINDUSA
 72
     4
 11
-59.22154823413257
 21
22.36745296763252
 31
0.0
100
AcDbAttributeDefinition
  3
Cod. Revisão:
  2
REV
 70
     0
  0
ATTDEF
  5
BA8
330
B9E
100
AcDbEntity
  8
1
100
AcDbText
 10
-48.43615325006194
 20
21.11745296763252
 30
0.0
 40
2.5
  1
XX
 41
0.8
  7
SANINDUSA
 72
     4
 11
-46.55166701769121
 21
22.36745296763252
 31
0.0
100
AcDbAttributeDefinition
  3
Cod. Alteração:
  2
ALT
 70
     0
  0
ATTDEF
  5
BA9
330
B9E
100
AcDbEntity
  8
1
100
AcDbText
 10
-35.19086635325722
 20
23.98875083948959
 30
0.0
 40
3.0
  1
1/XXX
 41
0.8
  7
SANINDUSA
 72
     4
 11
-30.0
 21
25.25
 31
0.0
100
AcDbAttributeDefinition
  3
Escala geral:
  2
ESCALA
 70
     0
  0
ATTDEF
  5
BAA
330
B9E
100
AcDbEntity
  8
1
100
AcDbText
 10
-15.65345869711215
 20
23.75
 30
0.0
 40
3.0
  1
XXXXX
 41
0.8
  7
SANINDUSA
 72
     4
 11
-10.0
 21
25.25
 31
0.0
100
AcDbAttributeDefinition
  3
Folha:
  2
FOLHA
 70
     0
  0
ATTDEF
  5
BAB
330
B9E
100
AcDbEntity
  8
1
100
AcDbText
 10
-178.5146998822042
 20
56.9531347542807
 30
0.0
 40
2.0
  1
xx
 41
0.8
  7
SANINDUSA
 72
     4
 11
-177.2123493113513
 21
57.70330265219877
 31
0.0
100
AcDbAttributeDefinition
  3
revisão
  2
REV.
 70
     0
  0
ATTDEF
  5
BAC
330
B9E
100
AcDbEntity
  8
1
100
AcDbText
 10
-172.7849640077129
 20
56.9531347542807
 30
0.0
 40
2.0
  1
xx
 41
0.8
  7
SANINDUSA
 72
     4
 11
-171.48261343686
 21
57.70330265219877
 31
0.0
100
AcDbAttributeDefinition
  3
alteração
  2
ALT.
 70
     0
  0
ATTDEF
  5
BAD
330
B9E
100
AcDbEntity
  8
1
100
AcDbText
 10
-168.007199951307
 20
56.70330265219877
 30
0.0
 40
2.0
  1
xx/xx/xxxx
 41
0.8
  7
SANINDUSA
 11
-168.007199951307
 21
57.70330265219877
 31
0.0
100
AcDbAttributeDefinition
  3
data
  2
DATA
 70
     0
 74
     2
  0
ATTDEF
  5
BAE
330
B9E
100
AcDbEntity
  8
1
100
AcDbText
 10
-168.5396372253371
 20
13.15916722632639
 30
0.0
 40
2.0
  1
XX/XX/XXXX
 41
0.8
  7
SANINDUSA
 72
     4
 11
-161.5099528734231
 21
14.0
 31
0.0
100
AcDbAttributeDefinition
  3
Data projecto
  2
DATA_PROJ
 70
     0
  0
ATTDEF
  5
BAF
330
B9E
100
AcDbEntity
  8
1
100
AcDbText
 10
-150.8658110728766
 20
13.24983210208193
 30
0.0
 40
2.0
  1
xxxxxxxx
 41
0.8
  7
SANINDUSA
 72
     4
 11
-145.6564087894649
 21
14.0
 31
0.0
100
AcDbAttributeDefinition
  3
nome de quem projectou
  2
NOME
 70
     0
  0
ATTDEF
  5
BB0
330
B9E
100
AcDbEntity
  8
1
100
AcDbText
 10
-168.5396372253371
 20
9.159167226326394
 30
0.0
 40
2.0
  1
XX/XX/XXXX
 41
0.8
  7
SANINDUSA
 72
     4
 11
-161.5099528734231
 21
10.0
 31
0.0
100
AcDbAttributeDefinition
  3
Data desenhou
  2
DATA_DES
 70
     0
  0
ATTDEF
  5
BB1
330
B9E
100
AcDbEntity
  8
1
100
AcDbText
 10
-151.516986358303
 20
9.249832102081933
 30
0.0
 40
2.0
  1
xxxxxxxxx
 41
0.8
  7
SANINDUSA
 72
     4
 11
-145.6564087894649
 21
10.0
 31
0.0
100
AcDbAttributeDefinition
  3
nome
  2
NOME
 70
     0
  0
ATTDEF
  5
BB2
330
B9E
100
AcDbEntity
  8
1
100
AcDbText
 10
-127.2924214135946
 20
14.1979876583216
 30
0.0
 40
2.0
  1
Vitreous China
 41
0.8
  7
SANINDUSA
 72
     4
 11
-119.231709526422
 21
15.22216495852308
 31
0.0
100
AcDbAttributeDefinition
  3
Nome do Material:
  2
MATERIAL
 70
     0
  0
ATTDEF
  5
BB3
330
B9E
100
AcDbEntity
  8
1
100
AcDbText
 10
-103.1563452122093
 20
14.38019043949261
 30
0.0
 40
2.0
  1
Branco
 41
0.8
  7
SANINDUSA
 72
     4
 11
-99.33418268702462
 21
15.35937109765245
 31
0.0
100
AcDbAttributeDefinition
  3
cor da peça
  2
COR
 70
     0
  0
ATTDEF
  5
BB4
330
B9E
100
AcDbEntity
  8
1
100
AcDbText
 10
-116.7235057085292
 20
5.975822699798522
 30
0.0
 40
2.0
  1
Vidrado
 41
0.8
  7
SANINDUSA
 72
     4
 11
-112.5
 21
7.0
 31
0.0
100
AcDbAttributeDefinition
  3
Tipo de acabamento:
  2
ACABAMENTO
 70
     0
  0
ATTDEF
  5
BB5
330
B9E
100
AcDbEntity
  8
1
100
AcDbText
 10
-79.18527869967246
 20
16.65066409850533
 30
0.0
 40
2.0
  1
XXXXXXX
 41
0.8
  7
SANINDUSA
 72
     4
 11
-73.90871724903445
 21
17.65066409850533
 31
0.0
100
AcDbAttributeDefinition
  3
Normas
  2
NORMAS
 70
     0
  0
ATTDEF
  5
BB6
330
B9E
100
AcDbEntity
  8
1
100
AcDbText
 10
-30.55312290127603
 20
14.0
 30
0.0
 40
2.0
  1
XXXXXXXXXXXXXX
 41
0.8
  7
SANINDUSA
 72
     4
 11
-20.0
 21
15.0
 31
0.0
100
AcDbAttributeDefinition
  3
Substitui o desenho:
  2
SUBSTITUI
 70
     0
  0
ATTDEF
  5
BB7
330
B9E
100
AcDbEntity
  8
1
100
AcDbText
 10
-31.30691739422431
 20
6.0
 30
0.0
 40
2.0
  1
XXXXXXXXXXXXXXX
 41
0.8
  7
SANINDUSA
 72
     4
 11
-20.0
 21
7.0
 31
0.0
100
AcDbAttributeDefinition
  3
Substituido por:
  2
SUBSTITUIDO
 70
     0
  0
ATTDEF
  5
BB8
330
B9E
100
AcDbEntity
  8
1
100
AcDbText
 10
-110.0220608548302
 20
1.478208457928303
 30
0.0
 40
2.0
  1
XXXXXXXXXXXXXXXXXXXXXXXXXXXXXXXXXX
 41
0.8
  7
SANINDUSA
 11
-110.0220608548302
 21
2.478208457928303
 31
0.0
100
AcDbAttributeDefinition
  3
Localização do desenho:
  2
LOC-DWG
 70
     0
 74
     2
  0
LINE
  5
BB9
330
B9E
100
AcDbEntity
  8
3
100
AcDbLine
 10
-135.0
 20
4.0
 30
0.0
 11
0.0000000000004547
 21
4.0
 31
0.0
  0
LINE
  5
BBA
330
B9E
100
AcDbEntity
  8
3
100
AcDbLine
 10
-90.00000000000046
 20
12.0
 30
0.0
 11
-135.0
 21
12.0
 31
0.0
  0
LINE
  5
BBB
330
B9E
100
AcDbEntity
  8
3
100
AcDbLine
 10
-135.0
 20
32.5
 30
0.0
 11
-40.0
 21
32.5
 31
0.0
  0
TEXT
  5
BBC
330
B9E
100
AcDbEntity
  8
1
100
AcDbText
 10
-134.0
 20
1.25
 30
0.0
 40
2.0
  1
Localização do des.:
 41
0.8
  7
SANINDUSA
 11
-134.0
 21
2.25
 31
0.0
100
AcDbText
 73
     2
  0
LINE
  5
BBD
330
B9E
100
AcDbEntity
  8
3
100
AcDbLine
 10
-180.0
 20
65.0
 30
0.0
 11
0.0
 21
65.0
 31
0.0
  0
LINE
  5
BBE
330
B9E
100
AcDbEntity
  8
leg fin
100
AcDbLine
 10
-40.0
 20
25.05956924886846
 30
0.0
 11
-135.0
 21
25.05956924886846
 31
0.0
  0
LINE
  5
BBF
330
B9E
100
AcDbEntity
  8
leg fin
100
AcDbLine
 10
-40.0
 20
28.5
 30
0.0
 11
-135.0
 21
28.5
 31
0.0
  0
LINE
  5
BC0
330
B9E
100
AcDbEntity
  8
3
100
AcDbLine
 10
-135.0
 20
50.0
 30
0.0
 11
-40.0
 21
50.0
 31
0.0
  0
TEXT
  5
BC1
330
B9E
100
AcDbEntity
  8
1
100
AcDbText
 10
-134.0
 20
29.75
 30
0.0
 40
2.0
  1
Desenho nº:
 41
0.8
  7
SANINDUSA
 11
-134.0
 21
30.75
 31
0.0
100
AcDbText
 73
     2
  0
TEXT
  5
BC2
330
B9E
100
AcDbEntity
  8
1
100
AcDbText
 10
-134.0
 20
9.25
 30
0.0
 40
2.0
  1
Acabamento:
 41
0.8
  7
SANINDUSA
 11
-134.0
 21
10.25
 31
0.0
100
AcDbText
 73
     2
  0
LINE
  5
BC3
330
B9E
100
AcDbEntity
  8
3
100
AcDbLine
 10
-180.0
 20
20.0
 30
0.0
 11
0.0
 21
20.0
 31
0.0
  0
LINE
  5
BC4
330
B9E
100
AcDbEntity
  8
1
100
AcDbLine
 10
-174.5810776056337
 20
55.5
 30
0.0
 11
-174.5810776056337
 21
65.0
 31
0.0
  0
LINE
  5
BC5
330
B9E
100
AcDbEntity
  8
1
100
AcDbLine
 10
-168.9210461879161
 20
55.5
 30
0.0
 11
-168.9210461879161
 21
65.0
 31
0.0
  0
LINE
  5
BC6
330
B9E
100
AcDbEntity
  8
1
100
AcDbLine
 10
-154.0988595589306
 20
55.5
 30
0.0
 11
-154.0988595589306
 21
65.0
 31
0.0
  0
LINE
  5
BC7
330
B9E
100
AcDbEntity
  8
3
100
AcDbLine
 10
-180.0
 20
65.0
 30
0.0
 11
-180.0
 21
0.0
 31
0.0
  0
LINE
  5
BC8
330
B9E
100
AcDbEntity
  8
3
100
AcDbLine
 10
-135.0
 20
0.0
 30
0.0
 11
-135.0
 21
65.0
 31
0.0
  0
TEXT
  5
BC9
330
B9E
100
AcDbEntity
  8
1
100
AcDbText
 10
-179.0
 20
9.75
 30
0.0
 40
1.5
  1
Des.
 41
0.8
  7
SANINDUSA
 11
-179.0
 21
10.5
 31
0.0
100
AcDbText
 73
     2
  0
LINE
  5
BCA
330
B9E
100
AcDbEntity
  8
1
100
AcDbLine
 10
-168.9210461879161
 20
20.0
 30
0.0
 11
-168.9210461879161
 21
0.0
 31
0.0
  0
LINE
  5
BCB
330
B9E
100
AcDbEntity
  8
1
100
AcDbLine
 10
-154.0988595589306
 20
20.0
 30
0.0
 11
-154.0988595589306
 21
0.0
 31
0.0
  0
LINE
  5
BCC
330
B9E
100
AcDbEntity
  8
1
100
AcDbLine
 10
-180.0
 20
4.0
 30
0.0
 11
-135.0
 21
4.0
 31
0.0
  0
LINE
  5
BCD
330
B9E
100
AcDbEntity
  8
1
100
AcDbLine
 10
-180.0
 20
8.0
 30
0.0
 11
-135.0
 21
8.0
 31
0.0
  0
TEXT
  5
BCE
330
B9E
100
AcDbEntity
  8
1
100
AcDbText
 10
-179.0
 20
1.73257823687436
 30
0.0
 40
1.5
  1
Aprov.
 41
0.8
  7
SANINDUSA
 11
-179.0
 21
2.48257823687436
 31
0.0
100
AcDbText
 73
     2
  0
TEXT
  5
BCF
330
B9E
100
AcDbEntity
  8
1
100
AcDbText
 10
-179.0
 20
5.75
 30
0.0
 40
1.5
  1
Ver.
 41
0.8
  7
SANINDUSA
 11
-179.0
 21
6.5
 31
0.0
100
AcDbText
 73
     2
  0
LINE
  5
BD0
330
B9E
100
AcDbEntity
  8
1
100
AcDbLine
 10
-180.0
 20
16.0
 30
0.0
 11
-135.0
 21
16.0
 31
0.0
  0
LINE
  5
BD1
330
B9E
100
AcDbEntity
  8
1
100
AcDbLine
 10
-180.0
 20
12.0
 30
0.0
 11
-135.0
 21
12.0
 31
0.0
  0
TEXT
  5
BD2
330
B9E
100
AcDbEntity
  8
1
100
AcDbText
 10
-179.0
 20
13.75
 30
0.0
 40
1.5
  1
Proj.
 41
0.8
  7
SANINDUSA
 11
-179.0
 21
14.5
 31
0.0
100
AcDbText
 73
     2
  0
TEXT
  5
BD3
330
B9E
100
AcDbEntity
  8
1
100
AcDbText
 10
-167.9210461879161
 20
17.75
 30
0.0
 40
1.5
  1
Data
 41
0.8
  7
SANINDUSA
 11
-167.9210461879161
 21
18.5
 31
0.0
100
AcDbText
 73
     2
  0
TEXT
  5
BD4
330
B9E
100
AcDbEntity
  8
1
100
AcDbText
 10
-153.0988595589306
 20
17.75
 30
0.0
 40
1.5
  1
Nome
 41
0.8
  7
SANINDUSA
 11
-153.0988595589306
 21
18.5
 31
0.0
100
AcDbText
 73
     2
  0
LINE
  5
BD5
330
B9E
100
AcDbEntity
  8
leg fin
100
AcDbLine
 10
-130.0
 20
20.0
 30
0.0
 11
-130.0
 21
28.5
 31
0.0
  0
TEXT
  5
BD6
330
B9E
100
AcDbEntity
  8
1
100
AcDbText
 10
-134.0
 20
17.25
 30
0.0
 40
2.0
  1
Material:
 41
0.8
  7
SANINDUSA
 11
-134.0
 21
18.25
 31
0.0
100
AcDbText
 73
     2
  0
TEXT
  5
BD7
330
B9E
100
AcDbEntity
  8
1
100
AcDbText
 10
-129.0
 20
26.43288406845113
 30
0.0
 40
1.5
  1
Ano:
 41
0.8
  7
SANINDUSA
 11
-129.0
 21
27.18288406845113
 31
0.0
100
AcDbText
 73
     2
  0
LINE
  5
BD8
330
B9E
100
AcDbEntity
  8
1
100
AcDbLine
 10
-180.0
 20
55.5
 30
0.0
 11
-135.0
 21
55.5
 31
0.0
  0
TEXT
  5
BD9
330
B9E
100
AcDbEntity
  8
1
100
AcDbText
 10
-179.0
 20
52.67772246885193
 30
0.0
 40
1.5
  1
descrição
 41
0.8
  7
SANINDUSA
 11
-179.0
 21
53.42772246885193
 31
0.0
100
AcDbText
 73
     2
  0
TEXT
  5
BDA
330
B9E
100
AcDbEntity
  8
1
100
AcDbText
 10
-134.0
 20
47.25
 30
0.0
 40
2.0
  1
Peça:
 41
0.8
  7
SANINDUSA
 11
-134.0
 21
48.25
 31
0.0
100
AcDbText
 73
     2
  0
LINE
  5
BDB
330
B9E
100
AcDbEntity
  8
1
100
AcDbLine
 10
-180.0
 20
59.5
 30
0.0
 11
-135.0
 21
59.5
 31
0.0
  0
TEXT
  5
BDC
330
B9E
100
AcDbEntity
  8
1
100
AcDbText
 10
-173.5810776056337
 20
62.75
 30
0.0
 40
1.5
  1
Alt.
 41
0.8
  7
SANINDUSA
 11
-173.5810776056337
 21
63.5
 31
0.0
100
AcDbText
 73
     2
  0
TEXT
  5
BDD
330
B9E
100
AcDbEntity
  8
1
100
AcDbText
 10
-179.0
 20
62.75
 30
0.0
 40
1.5
  1
Rev.
 41
0.8
  7
SANINDUSA
 11
-179.0
 21
63.5
 31
0.0
100
AcDbText
 73
     2
  0
TEXT
  5
BDE
330
B9E
100
AcDbEntity
  8
1
100
AcDbText
 10
-167.9210461879161
 20
62.75
 30
0.0
 40
1.5
  1
Data
 41
0.8
  7
SANINDUSA
 11
-167.9210461879161
 21
63.5
 31
0.0
100
AcDbText
 73
     2
  0
TEXT
  5
BDF
330
B9E
100
AcDbEntity
  8
1
100
AcDbText
 10
-153.0988595589306
 20
62.75
 30
0.0
 40
1.5
  1
Nome
 41
0.8
  7
SANINDUSA
 11
-153.0988595589306
 21
63.5
 31
0.0
100
AcDbText
 73
     2
  0
TEXT
  5
BE0
330
B9E
100
AcDbEntity
  8
1
100
AcDbText
 10
-134.0
 20
62.25
 30
0.0
 40
2.0
  1
Produto:
 41
0.8
  7
SANINDUSA
 11
-134.0
 21
63.25
 31
0.0
100
AcDbText
 73
     2
  0
LINE
  5
BE1
330
B9E
100
AcDbEntity
  8
3
100
AcDbLine
 10
-40.0
 20
4.0
 30
0.0
 11
-40.0
 21
65.0
 31
0.0
  0
LWPOLYLINE
  5
BE2
102
{ACAD_REACTORS
330
BEC
102
}
330
B9E
100
AcDbEntity
  8
9
100
AcDbPolyline
 90
       12
 70
     1
 43
0.0
 10
-3.038714600644652
 20
58.90010174665076
 10
-5.726962862472191
 20
58.90010174665076
 10
-5.726962862472191
 20
58.5001017466509
 10
-3.038748516195028
 20
58.5001017466509
 42
-0.4142135623731731
 10
-2.638748516194482
 20
58.1001017466508
 10
-2.638748516194482
 20
57.42799728675596
 10
-5.21497371544865
 20
57.42799728675596
 42
0.4142135623731289
 10
-6.014973715448377
 20
56.627997286756
 10
-6.014973715448377
 20
55.92380871629643
 42
0.4142135623731132
 10
-5.21497371544865
 20
55.12380871629648
 10
-2.23871460064447
 20
55.12380871629648
 10
-2.23871460064447
 20
58.10010174665103
 42
0.4142135623730717
  0
LWPOLYLINE
  5
BE3
102
{ACAD_REACTORS
330
BEC
102
}
330
B9E
100
AcDbEntity
  8
9
100
AcDbPolyline
 90
       20
 70
     1
 43
0.0
 10
-10.01531287095122
 20
57.82799728675581
 10
-10.01531287095122
 20
58.10010174665103
 42
-0.4142135623730744
 10
-9.615312870951584
 20
58.5001017466509
 10
-6.92703069357276
 20
58.5001017466509
 10
-6.92703069357276
 20
58.90010174665076
 10
-9.615346786501959
 20
58.90010174665076
 42
0.4142135623730883
 10
-10.41534678650168
 20
58.1001017466508
 10
-10.41534678650168
 20
57.82796337120567
 42
0.4142135623730717
 10
-9.615346786501959
 20
57.02796337120571
 10
-7.423079531965413
 20
57.02796337120571
 42
-0.4142135623730847
 10
-7.023079531965322
 20
56.62796337120562
 10
-7.023079531965322
 20
55.90786840766487
 42
-0.4142135623730744
 10
-7.423079531965413
 20
55.507868407665
 10
-10.41534678650168
 20
55.507868407665
 10
-10.41534678650168
 20
55.12380871629648
 10
-7.445787917283723
 20
55.12380871629648
 42
0.4114777732064574
 10
-6.645822882998345
 20
55.9163291493976
 10
-6.639238813324936
 20
56.62051771985716
 42
0.4169546541682913
 10
-7.439203847610315
 20
57.42799728675596
 10
-9.615312870951584
 20
57.42799728675596
 42
-0.4142135623731576
  0
LWPOLYLINE
  5
BE4
102
{ACAD_REACTORS
330
BEC
102
}
330
B9E
100
AcDbEntity
  8
9
100
AcDbPolyline
 90
       12
 70
     1
 43
0.0
 10
-14.41561811090378
 20
58.90010174665076
 10
-14.79964388672215
 20
58.90010174665076
 10
-14.79964388672215
 20
55.92380871629643
 42
0.4142135623731133
 10
-13.99964388672242
 20
55.12380871629648
 10
-11.8233508563676
 20
55.12380871629648
 42
0.4142135623730872
 10
-11.02335085636741
 20
55.92380871629643
 10
-11.02335085636741
 20
58.90010174665076
 10
-11.42338477191788
 20
58.90010174665076
 10
-11.42338477191788
 20
55.91567577726095
 42
-0.4131711701795318
 10
-11.82196067063523
 20
55.51567831234956
 10
-14.0141940096214
 20
55.50787335710947
 42
-0.4152567234624407
 10
-14.41561811090378
 20
55.90787082202087
  0
LWPOLYLINE
  5
BE5
102
{ACAD_REACTORS
330
BEC
102
}
330
B9E
100
AcDbEntity
  8
9
100
AcDbPolyline
 90
        6
 70
     1
 43
0.0
 10
-15.80771578768872
 20
55.507868407665
 10
-18.39994912667453
 20
55.507868407665
 42
-0.4142135623731731
 10
-18.79994912667462
 20
55.90786840766487
 10
-18.79994912667462
 20
58.10010174665103
 42
-0.4142135623730744
 10
-18.39994912667453
 20
58.5001017466509
 10
-15.80771578768872
 20
58.5001017466509
  0
LWPOLYLINE
  5
BE6
102
{ACAD_REACTORS
330
BEC
102
}
330
B9E
100
AcDbEntity
  8
9
100
AcDbPolyline
 90
        8
 70
     1
 43
0.0
 10
-15.4236900118708
 20
59.87619128370352
 10
-15.80771578768872
 20
59.87619128370352
 10
-15.80771578768872
 20
58.90010174665076
 10
-18.39176256411201
 20
58.90010174665076
 42
0.4131164467977967
 10
-19.19175694739761
 20
58.1030995310698
 10
-19.1999120763262
 20
55.92680650071542
 42
0.4153115297271718
 10
-18.39991769304061
 20
55.12380871629648
 10
-15.4236900118708
 20
55.12380871629648
  0
LWPOLYLINE
  5
BE7
102
{ACAD_REACTORS
330
BEC
102
}
330
B9E
100
AcDbEntity
  8
9
100
AcDbPolyline
 90
       10
 70
     1
 43
0.0
 10
-20.59201288790928
 20
58.90010174665076
 10
-23.56830591826338
 20
58.90010174665076
 10
-23.56830591826338
 20
55.12380871629648
 10
-23.18424622689509
 20
55.12380871629648
 10
-23.18424622689509
 20
58.5001017466509
 10
-20.59204680345965
 20
58.5001017466509
 42
-0.4142135623730898
 10
-20.19204680345956
 20
58.1001017466508
 10
-20.19204680345956
 20
55.12380871629648
 10
-19.79201288790909
 20
55.12380871629648
 10
-19.79201288790909
 20
58.10010174665103
 42
0.4142135623731132
  0
LWPOLYLINE
  5
BE8
102
{ACAD_REACTORS
330
BEC
102
}
330
B9E
100
AcDbEntity
  8
9
100
AcDbPolyline
 90
        4
 70
     1
 43
0.0
 10
-24.19231812786165
 20
58.90010174665076
 10
-24.57637781922995
 20
58.90010174665076
 10
-24.57637781922995
 20
55.12380871629648
 10
-24.19231812786165
 20
55.12380871629648
  0
LWPOLYLINE
  5
BE9
102
{ACAD_REACTORS
330
BEC
102
}
330
B9E
100
AcDbEntity
  8
9
100
AcDbPolyline
 90
       10
 70
     1
 43
0.0
 10
-28.57661522808212
 20
58.5001017466509
 10
-25.98444972019706
 20
58.5001017466509
 42
-0.4142135623731731
 10
-25.58444972019652
 20
58.1001017466508
 10
-25.58444972019652
 20
55.12380871629648
 10
-25.2004239443786
 20
55.12380871629648
 10
-25.2004239443786
 20
58.10010174665103
 42
0.4142135623730717
 10
-26.00042394437833
 20
58.90010174665076
 10
-28.97664914363259
 20
58.90010174665076
 10
-28.97664914363259
 20
55.12380871629648
 10
-28.57661522808212
 20
55.12380871629648
  0
LWPOLYLINE
  5
BEA
102
{ACAD_REACTORS
330
BEC
102
}
330
B9E
100
AcDbEntity
  8
9
100
AcDbPolyline
 90
       12
 70
     1
 43
0.0
 10
-29.58465321349832
 20
58.10010174665103
 42
0.4142135623730716
 10
-30.3846532134985
 20
58.90010174665076
 10
-33.07296930642724
 20
58.90010174665076
 10
-33.07296930642724
 20
58.5001017466509
 10
-30.38468712904842
 20
58.5001017466509
 42
-0.4142135623730067
 10
-29.98468712904878
 20
58.1001017466508
 10
-29.98468712904878
 20
57.42799728675618
 10
-32.56098015940324
 20
57.42799728675596
 42
0.4142135623731289
 10
-33.36098015940343
 20
56.627997286756
 10
-33.36098015940343
 20
55.92380871629643
 42
0.4142135623731132
 10
-32.56098015940324
 20
55.12380871629648
 10
-29.58465321349832
 20
55.12380871629648
  0
LWPOLYLINE
  5
BEB
102
{ACAD_REACTORS
330
BEC
102
}
330
B9E
100
AcDbEntity
  8
9
100
AcDbPolyline
 90
       20
 70
     1
 43
0.0
 10
-34.7850262845518
 20
57.42799728675596
 10
-36.96125148380543
 20
57.42799728675596
 42
-0.4142135623730898
 10
-37.36125148380552
 20
57.82799728675604
 10
-37.36125148380552
 20
58.10010174665103
 42
-0.4142135623730744
 10
-36.96125148380543
 20
58.5001017466509
 10
-34.27303713752781
 20
58.50010174665067
 10
-34.27303713752781
 20
58.90010174665076
 10
-36.96128539935535
 20
58.90010174665076
 42
0.4142135623731289
 10
-37.76128539935553
 20
58.1001017466508
 10
-37.76128539935553
 20
57.82796337120567
 42
0.4142135623730716
 10
-36.9612853993558
 20
57.02796337120571
 10
-34.76901814481926
 20
57.02796337120571
 42
-0.414213562373168
 10
-34.36901814481962
 20
56.62796337120562
 10
-34.36901814481962
 20
55.90786840766487
 42
-0.4142135623730744
 10
-34.76901814481926
 20
55.507868407665
 10
-37.76128539935553
 20
55.507868407665
 10
-37.76128539935553
 20
55.12380871629648
 10
-34.7850262845518
 20
55.12380871629648
 42
0.4142135623731289
 10
-33.98502628455162
 20
55.92380871629643
 10
-33.98502628455162
 20
56.627997286756
 42
0.4142135623731132
  0
HATCH
  5
BEC
330
B9E
100
AcDbEntity
  8
9
100
AcDbHatch
 10
0.0
 20
0.0
 30
0.0
210
0.0
220
0.0
230
1.0
  2
SOLID
 70
     1
 71
     1
 91
       13
 92
        7
 72
     1
 73
     1
 93
       20
 10
-34.36901814481962
 20
55.90786840766487
 42
-0.414213562372991
 10
-34.76901814481926
 20
55.507868407665
 42
0.0
 10
-37.76128539935553
 20
55.507868407665
 42
0.0
 10
-37.76128539935553
 20
55.12380871629648
 42
0.0
 10
-34.7850262845518
 20
55.12380871629648
 42
0.4142135623731705
 10
-33.98502628455162
 20
55.92380871629666
 42
0.0
 10
-33.98502628455162
 20
56.627997286756
 42
0.4142135623731547
 10
-34.7850262845518
 20
57.42799728675596
 42
0.0
 10
-36.96125148380543
 20
57.42799728675596
 42
-0.4142135623730898
 10
-37.36125148380552
 20
57.82799728675604
 42
0.0
 10
-37.36125148380552
 20
58.1001017466508
 42
-0.4142135623731575
 10
-36.96125148380543
 20
58.5001017466509
 42
0.0
 10
-34.27303713752781
 20
58.50010174665067
 42
0.0
 10
-34.27303713752781
 20
58.90010174665076
 42
0.0
 10
-36.96128539935535
 20
58.90010174665076
 42
0.4142135623731705
 10
-37.76128539935553
 20
58.10010174665058
 42
0.0
 10
-37.76128539935553
 20
57.82796337120544
 42
0.4142135623730299
 10
-36.9612853993558
 20
57.02796337120571
 42
0.0
 10
-34.76901814481926
 20
57.02796337120571
 42
-0.4142135623730015
 10
-34.36901814481962
 20
56.62796337120608
 42
0.0
 97
        1
330
BEB
 92
        7
 72
     1
 73
     1
 93
       12
 10
-33.36098015940343
 20
55.92380871629666
 42
0.4142135623731547
 10
-32.56098015940324
 20
55.12380871629648
 42
0.0
 10
-29.58465321349877
 20
55.12380871629648
 42
0.0
 10
-29.58465321349832
 20
58.10010174665058
 42
0.4142135623731964
 10
-30.3846532134985
 20
58.90010174665076
 42
0.0
 10
-33.07296930642724
 20
58.90010174665076
 42
0.0
 10
-33.07296930642724
 20
58.50010174665067
 42
0.0
 10
-30.38468712904887
 20
58.5001017466509
 42
-0.4142135623732564
 10
-29.98468712904878
 20
58.10010174665103
 42
0.0
 10
-29.98468712904923
 20
57.42799728675596
 42
0.0
 10
-32.56098015940324
 20
57.42799728675596
 42
0.4142135623731705
 10
-33.36098015940343
 20
56.627997286756
 42
0.0
 97
        1
330
BEA
 92
       22
 72
     1
 73
     1
 93
        6
 10
-32.97692046803468
 20
56.62796337120562
 42
-0.4142135623731576
 10
-32.57692046803459
 20
57.02796337120571
 42
0.0
 10
-29.98468712904878
 20
57.02796337120571
 42
0.0
 10
-29.98468712904878
 20
55.507868407665
 42
0.0
 10
-32.57692046803459
 20
55.507868407665
 42
-0.4142135623731731
 10
-32.97692046803468
 20
55.90786840766487
 42
0.0
 97
        1
330
C11
 92
        7
 72
     1
 73
     1
 93
       10
 10
-28.57661522808212
 20
58.5001017466509
 42
0.0
 10
-25.98444972019661
 20
58.5001017466509
 42
-0.4142135623730067
 10
-25.58444972019652
 20
58.10010174665058
 42
0.0
 10
-25.58444972019606
 20
55.12380871629648
 42
0.0
 10
-25.20042394437906
 20
55.12380871629648
 42
0.0
 10
-25.2004239443786
 20
58.1001017466508
 42
0.4142135623731134
 10
-26.00042394437833
 20
58.90010174665076
 42
0.0
 10
-28.97664914363259
 20
58.90010174665076
 42
0.0
 10
-28.97664914363259
 20
55.12380871629648
 42
0.0
 10
-28.57661522808212
 20
55.12380871629648
 42
0.0
 97
        1
330
BE9
 92
        7
 72
     0
 73
     1
 93
        4
 10
-24.57637781922995
 20
55.12380871629648
 10
-24.19231812786165
 20
55.12380871629648
 10
-24.19231812786165
 20
58.90010174665076
 10
-24.57637781922995
 20
58.90010174665076
 97
        1
330
BE8
 92
        7
 72
     0
 73
     1
 93
        4
 10
-24.19231812786165
 20
59.87619128370352
 10
-24.5763778192304
 20
59.87619128370352
 10
-24.5763778192304
 20
59.28412752246913
 10
-24.1923181278612
 20
59.28412752246913
 97
        1
330
C12
 92
        7
 72
     1
 73
     1
 93
       10
 10
-23.18424622689509
 20
58.5001017466509
 42
0.0
 10
-20.59204680345965
 20
58.5001017466509
 42
-0.4142135623730898
 10
-20.19204680345956
 20
58.1001017466508
 42
0.0
 10
-20.19204680345956
 20
55.12380871629648
 42
0.0
 10
-19.79201288790909
 20
55.12380871629648
 42
0.0
 10
-19.79201288790909
 20
58.1001017466508
 42
0.4142135623731547
 10
-20.59201288790928
 20
58.90010174665076
 42
0.0
 10
-23.56830591826338
 20
58.90010174665076
 42
0.0
 10
-23.56830591826338
 20
55.12380871629648
 42
0.0
 10
-23.18424622689463
 20
55.12380871629648
 42
0.0
 97
        1
330
BE7
 92
        7
 72
     1
 73
     1
 93
        8
 10
-19.1999120763262
 20
55.92680650071542
 42
0.4153115297271299
 10
-18.39991769304061
 20
55.12380871629648
 42
0.0
 10
-15.4236900118708
 20
55.12380871629648
 42
0.0
 10
-15.4236900118708
 20
59.87619128370352
 42
0.0
 10
-15.80771578768872
 20
59.87619128370352
 42
0.0
 10
-15.80771578768872
 20
58.90010174665076
 42
0.0
 10
-18.39176256411201
 20
58.90010174665076
 42
0.4131164467977965
 10
-19.19175694739761
 20
58.1030995310698
 42
0.0
 97
        1
330
BE6
 92
       22
 72
     1
 73
     1
 93
        6
 10
-18.79994912667462
 20
58.1001017466508
 42
-0.4142135623731575
 10
-18.39994912667453
 20
58.5001017466509
 42
0.0
 10
-15.80771578768872
 20
58.50010174665067
 42
0.0
 10
-15.80771578768827
 20
55.507868407665
 42
0.0
 10
-18.39994912667453
 20
55.507868407665
 42
-0.4142135623731731
 10
-18.79994912667462
 20
55.90786840766487
 42
0.0
 97
        1
330
BE5
 92
        7
 72
     1
 73
     1
 93
       12
 10
-14.79964388672215
 20
55.92380871629621
 42
0.4142135623729885
 10
-13.99964388672242
 20
55.12380871629648
 42
0.0
 10
-11.8233508563676
 20
55.12380871629648
 42
0.4142135623731289
 10
-11.02335085636741
 20
55.92380871629666
 42
0.0
 10
-11.02335085636741
 20
58.90010174665076
 42
0.0
 10
-11.42338477191788
 20
58.90010174665076
 42
0.0
 10
-11.42338477191788
 20
55.91567577726095
 42
-0.4131711701795319
 10
-11.82196067063523
 20
55.51567831234956
 42
0.0
 10
-14.01419400962095
 20
55.50787335710947
 42
-0.4152567234626918
 10
-14.41561811090378
 20
55.90787082202087
 42
0.0
 10
-14.41561811090378
 20
58.90010174665076
 42
0.0
 10
-14.7996438867226
 20
58.90010174665076
 42
0.0
 97
        1
330
BE4
 92
        7
 72
     1
 73
     1
 93
       20
 10
-7.423079531965413
 20
57.02796337120571
 42
-0.414213562373168
 10
-7.023079531965322
 20
56.62796337120562
 42
0.0
 10
-7.023079531965322
 20
55.90786840766487
 42
-0.4142135623731575
 10
-7.423079531965413
 20
55.507868407665
 42
0.0
 10
-10.41534678650168
 20
55.507868407665
 42
0.0
 10
-10.41534678650168
 20
55.12380871629648
 42
0.0
 10
-7.445787917283723
 20
55.12380871629648
 42
0.4114777732065809
 10
-6.645822882998345
 20
55.91632914939783
 42
0.0
 10
-6.639238813324936
 20
56.62051771985716
 42
0.4169546541682913
 10
-7.439203847610315
 20
57.42799728675596
 42
0.0
 10
-9.615312870951584
 20
57.42799728675596
 42
-0.4142135623729911
 10
-10.01531287095122
 20
57.82799728675581
 42
0.0
 10
-10.01531287095122
 20
58.10010174665103
 42
-0.414213562372991
 10
-9.615312870951584
 20
58.5001017466509
 42
0.0
 10
-6.92703069357276
 20
58.50010174665067
 42
0.0
 10
-6.927030693572305
 20
58.90010174665076
 42
0.0
 10
-9.615346786501959
 20
58.90010174665076
 42
0.4142135623730467
 10
-10.41534678650168
 20
58.10010174665103
 42
0.0
 10
-10.41534678650168
 20
57.82796337120544
 42
0.4142135623730301
 10
-9.615346786501959
 20
57.02796337120571
 42
0.0
 97
        1
330
BE3
 92
        7
 72
     1
 73
     1
 93
       12
 10
-5.21497371544865
 20
57.42799728675596
 42
0.4142135623730871
 10
-6.014973715448377
 20
56.627997286756
 42
0.0
 10
-6.014973715448377
 20
55.92380871629621
 42
0.4142135623730715
 10
-5.21497371544865
 20
55.12380871629648
 42
0.0
 10
-2.23871460064447
 20
55.12380871629648
 42
0.0
 10
-2.23871460064447
 20
58.10010174665058
 42
0.414213562373155
 10
-3.038714600644652
 20
58.90010174665076
 42
0.0
 10
-5.726962862471737
 20
58.90010174665076
 42
0.0
 10
-5.726962862472191
 20
58.5001017466509
 42
0.0
 10
-3.038748516194573
 20
58.5001017466509
 42
-0.4142135623730067
 10
-2.638748516194482
 20
58.10010174665058
 42
0.0
 10
-2.638748516194482
 20
57.42799728675596
 42
0.0
 97
        1
330
BE2
 92
       22
 72
     1
 73
     1
 93
        6
 10
-2.638748516194937
 20
57.02796337120571
 42
0.0
 10
-2.638748516194482
 20
55.50786840766477
 42
0.0
 10
-5.21497371544865
 20
55.507868407665
 42
-0.4142135623731731
 10
-5.614973715448741
 20
55.90786840766509
 42
0.0
 10
-5.614973715448741
 20
56.62796337120562
 42
-0.4142135623731576
 10
-5.21497371544865
 20
57.02796337120571
 42
0.0
 97
        1
330
C0D
 75
     0
 76
     1
 47
0.0407044778999864
 98
       13
 10
-34.18710075113677
 20
56.16907953933765
 10
-33.12851374392494
 20
56.49471602641233
 10
-33.12851374392494
 20
56.49471602641233
 10
-28.77202873835904
 20
57.51232930166111
 10
-24.41554807250941
 20
57.91937341678636
 10
-24.41554807250941
 20
59.384734621186
 10
-23.31624584658039
 20
58.3264175319116
 10
-19.04119127844888
 20
57.75655517324913
 10
-19.04119127844888
 20
57.75655517324913
 10
-14.64399105416578
 20
57.43091868617466
 10
-8.048195057457178
 20
57.22739662861204
 10
-4.017427461911665
 20
57.18669281458665
 10
-4.017427461911665
 20
57.18669281458665
  0
TEXT
  5
BED
330
B9E
100
AcDbEntity
  8
leg fin
100
AcDbText
 10
3.391127401597259
 20
2.107634911895729
 30
0.0
 40
1.5
  1
Este desenho é propriedade da Sanindusa, S.A., e não pode ser copiado nem divulgado sem nossa autorização.
 50
90.0
 41
0.8
  7
SANINDUSA
100
AcDbText
  0
LINE
  5
BEE
330
B9E
100
AcDbEntity
  8
3
100
AcDbLine
 10
-90.0
 20
4.0
 30
0.0
 11
-90.0
 21
12.0
 31
0.0
  0
TEXT
  5
BEF
330
B9E
100
AcDbEntity
  8
1
100
AcDbText
 10
-39.0
 20
9.25
 30
0.0
 40
2.0
  1
Substituido por:
 41
0.8
  7
SANINDUSA
 11
-39.0
 21
10.25
 31
0.0
100
AcDbText
 73
     2
  0
POINT
  5
BF0
330
B9E
100
AcDbEntity
  8
SANINDUSA
100
AcDbPoint
 10
0.0
 20
0.0
 30
0.0
  0
TEXT
  5
BF1
330
B9E
100
AcDbEntity
  8
1
100
AcDbText
 10
-89.0
 20
16.74927010445663
 30
0.0
 40
2.0
  1
Normas:
 41
0.8
  7
SANINDUSA
 11
-89.0
 21
17.74927010445663
 31
0.0
100
AcDbText
 73
     2
  0
LINE
  5
BF2
330
B9E
100
AcDbEntity
  8
3
100
AcDbLine
 10
-90.0
 20
12.0
 30
0.0
 11
-90.0
 21
20.0
 31
0.0
  0
LINE
  5
BF3
330
B9E
100
AcDbEntity
  8
3
100
AcDbLine
 10
-110.546019464768
 20
12.0
 30
0.0
 11
-110.546019464768
 21
20.0
 31
0.0
  0
TEXT
  5
BF4
330
B9E
100
AcDbEntity
  8
1
100
AcDbText
 10
-109.6177520618648
 20
17.25
 30
0.0
 40
2.0
  1
Cor:
 41
0.8
  7
SANINDUSA
 11
-109.6177520618648
 21
18.25
 31
0.0
100
AcDbText
 73
     2
  0
LINE
  5
BF5
330
B9E
100
AcDbEntity
  8
leg fin
100
AcDbLine
 10
-91.42857142857156
 20
20.0
 30
0.0
 11
-91.42857142857156
 21
28.5
 31
0.0
  0
LINE
  5
BF6
330
B9E
100
AcDbEntity
  8
leg fin
100
AcDbLine
 10
-104.2857142857142
 20
20.0
 30
0.0
 11
-104.2857142857142
 21
28.5
 31
0.0
  0
LINE
  5
BF7
330
B9E
100
AcDbEntity
  8
leg fin
100
AcDbLine
 10
-117.1428571428573
 20
20.0
 30
0.0
 11
-117.1428571428573
 21
28.5
 31
0.0
  0
POINT
  5
BF8
330
B9E
100
AcDbEntity
  8
SANINDUSA
100
AcDbPoint
 10
-117.1428571428573
 20
28.5
 30
0.0
  0
POINT
  5
BF9
330
B9E
100
AcDbEntity
  8
SANINDUSA
100
AcDbPoint
 10
-104.2857142857142
 20
28.5
 30
0.0
  0
POINT
  5
BFA
330
B9E
100
AcDbEntity
  8
SANINDUSA
100
AcDbPoint
 10
-91.42857142857156
 20
28.5
 30
0.0
  0
TEXT
  5
BFB
330
B9E
100
AcDbEntity
  8
1
100
AcDbText
 10
-116.200160604496
 20
26.43288406845113
 30
0.0
 40
1.5
  1
Nº Seq.:
 41
0.8
  7
SANINDUSA
 11
-116.200160604496
 21
27.18288406845113
 31
0.0
100
AcDbText
 73
     2
  0
TEXT
  5
BFC
330
B9E
100
AcDbEntity
  8
1
100
AcDbText
 10
-103.2106584078738
 20
26.43288406845113
 30
0.0
 40
1.5
  1
Tipo:
 41
0.8
  7
SANINDUSA
 11
-103.2106584078738
 21
27.18288406845113
 31
0.0
100
AcDbText
 73
     2
  0
TEXT
  5
BFD
330
B9E
100
AcDbEntity
  8
1
100
AcDbText
 10
-90.22114672289353
 20
26.43288406845113
 30
0.0
 40
1.5
  1
Prod.:
 41
0.8
  7
SANINDUSA
 11
-90.22114672289353
 21
27.18288406845113
 31
0.0
100
AcDbText
 73
     2
  0
TEXT
  5
BFE
330
B9E
100
AcDbEntity
  8
1
100
AcDbText
 10
-64.77320576346574
 20
26.43288406845113
 30
0.0
 40
1.5
  1
Rev.:
 41
0.8
  7
SANINDUSA
 11
-64.77320576346574
 21
27.18288406845113
 31
0.0
100
AcDbText
 73
     2
  0
LINE
  5
BFF
330
B9E
100
AcDbEntity
  8
leg fin
100
AcDbLine
 10
-52.85714285714266
 20
20.0
 30
0.0
 11
-52.85714285714266
 21
28.5
 31
0.0
  0
LINE
  5
C00
330
B9E
100
AcDbEntity
  8
leg fin
100
AcDbLine
 10
-65.71428571428578
 20
20.0
 30
0.0
 11
-65.71428571428578
 21
28.5
 31
0.0
  0
LINE
  5
C01
330
B9E
100
AcDbEntity
  8
leg fin
100
AcDbLine
 10
-78.57142857142844
 20
20.0
 30
0.0
 11
-78.57142857142844
 21
28.5
 31
0.0
  0
POINT
  5
C02
330
B9E
100
AcDbEntity
  8
SANINDUSA
100
AcDbPoint
 10
-78.57142857142844
 20
28.5
 30
0.0
  0
POINT
  5
C03
330
B9E
100
AcDbEntity
  8
SANINDUSA
100
AcDbPoint
 10
-65.71428571428578
 20
28.5
 30
0.0
  0
POINT
  5
C04
330
B9E
100
AcDbEntity
  8
SANINDUSA
100
AcDbPoint
 10
-52.85714285714266
 20
28.5
 30
0.0
  0
TEXT
  5
C05
330
B9E
100
AcDbEntity
  8
1
100
AcDbText
 10
-77.61097961686573
 20
26.43288406845113
 30
0.0
 40
1.5
  1
Peça:
 41
0.8
  7
SANINDUSA
 11
-77.61097961686573
 21
27.18288406845113
 31
0.0
100
AcDbText
 73
     2
  0
TEXT
  5
C06
330
B9E
100
AcDbEntity
  8
1
100
AcDbText
 10
-52.06538060077036
 20
26.43288406845113
 30
0.0
 40
1.5
  1
Alt.:
 41
0.8
  7
SANINDUSA
 11
-52.06538060077036
 21
27.18288406845113
 31
0.0
100
AcDbText
 73
     2
  0
LINE
  5
C07
330
B9E
100
AcDbEntity
  8
3
100
AcDbLine
 10
0.0
 20
12.0
 30
0.0
 11
-40.0
 21
12.0
 31
0.0
  0
LINE
  5
C08
330
B9E
100
AcDbEntity
  8
3
100
AcDbLine
 10
-40.0
 20
32.5
 30
0.0
 11
0.0
 21
32.5
 31
0.0
  0
TEXT
  5
C09
330
B9E
100
AcDbEntity
  8
1
100
AcDbText
 10
-19.0
 20
29.75
 30
0.0
 40
2.0
  1
Folha:
 41
0.8
  7
SANINDUSA
 11
-19.0
 21
30.75
 31
0.0
100
AcDbText
 73
     2
  0
LINE
  5
C0A
330
B9E
100
AcDbEntity
  8
3
100
AcDbLine
 10
-20.0
 20
32.5
 30
0.0
 11
-20.0
 21
20.0
 31
0.0
  0
TEXT
  5
C0B
330
B9E
100
AcDbEntity
  8
1
100
AcDbText
 10
-39.0
 20
29.75
 30
0.0
 40
2.0
  1
Escala:
 41
0.8
  7
SANINDUSA
 11
-39.0
 21
30.75
 31
0.0
100
AcDbText
 73
     2
  0
TEXT
  5
C0C
330
B9E
100
AcDbEntity
  8
1
100
AcDbText
 10
-39.0
 20
17.25
 30
0.0
 40
2.0
  1
Substitui:
 41
0.8
  7
SANINDUSA
 11
-39.0
 21
18.25
 31
0.0
100
AcDbText
 73
     2
  0
LWPOLYLINE
  5
C0D
102
{ACAD_REACTORS
330
BEC
102
}
330
B9E
100
AcDbEntity
  8
9
100
AcDbPolyline
 90
        6
 70
     1
 43
0.0
 10
-2.638748516194482
 20
57.02796337120571
 10
-2.638748516194482
 20
55.50786840766477
 10
-5.21497371544865
 20
55.507868407665
 42
-0.4142135623730898
 10
-5.614973715448741
 20
55.90786840766487
 10
-5.614973715448741
 20
56.62796337120562
 42
-0.4142135623731576
 10
-5.21497371544865
 20
57.02796337120571
  0
LINE
  5
C0E
330
B9E
100
AcDbEntity
  8
3
100
AcDbLine
 10
-40.0
 20
50.0
 30
0.0
 11
0.0
 21
50.0
 31
0.0
  0
ATTDEF
  5
C0F
330
B9E
100
AcDbEntity
  8
1
100
AcDbText
 10
-31.30691739422431
 20
40.25
 30
0.0
 40
2.0
  1
XXXXXXXXXXXXXXX
 41
0.8
  7
SANINDUSA
 72
     4
 11
-20.0
 21
41.25
 31
0.0
100
AcDbAttributeDefinition
  3
Observações:
  2
OBS
 70
     0
  0
TEXT
  5
C10
330
B9E
100
AcDbEntity
  8
1
100
AcDbText
 10
-39.0
 20
47.25
 30
0.0
 40
2.0
  1
Observações:
 41
0.8
  7
SANINDUSA
 11
-39.0
 21
48.25
 31
0.0
100
AcDbText
 73
     2
  0
LWPOLYLINE
  5
C11
102
{ACAD_REACTORS
330
BEC
102
}
330
B9E
100
AcDbEntity
  8
9
100
AcDbPolyline
 90
        6
 70
     1
 43
0.0
 10
-29.98468712904878
 20
57.02796337120571
 10
-29.98468712904878
 20
55.507868407665
 10
-32.57692046803459
 20
55.507868407665
 42
-0.4142135623731731
 10
-32.97692046803468
 20
55.90786840766487
 10
-32.97692046803468
 20
56.62796337120562
 42
-0.4142135623731576
 10
-32.57692046803459
 20
57.02796337120571
  0
LWPOLYLINE
  5
C12
102
{ACAD_REACTORS
330
BEC
102
}
330
B9E
100
AcDbEntity
  8
9
100
AcDbPolyline
 90
        4
 70
     1
 43
0.0
 10
-24.19231812786165
 20
59.87619128370352
 10
-24.57637781922995
 20
59.87619128370352
 10
-24.57637781922995
 20
59.28412752246913
 10
-24.19231812786165
 20
59.28412752246913
  0
ENDBLK
  5
C14
330
B9E
100
AcDbEntity
  8
0
100
AcDbBlockEnd
  0
BLOCK
  5
1061
330
1060
100
AcDbEntity
  8
0
100
AcDbBlockBegin
  2
SW_CENTERMARKSYMBOL_2
 70
     0
 10
0.0
 20
0.0
 30
0.0
  3
SW_CENTERMARKSYMBOL_2
  1

  0
LINE
  5
1062
330
1060
100
AcDbEntity
  8
0
  6
Continuous
 62
     7
370
     0
100
AcDbLine
 10
0.0
 20
0.0
 30
0.0
 11
0.0
 21
0.2500000000000002
 31
0.0
  0
LINE
  5
1063
330
1060
100
AcDbEntity
  8
0
  6
Continuous
 62
     7
370
     0
100
AcDbLine
 10
0.0
 20
0.0
 30
0.0
 11
-0.2500000000000002
 21
0.0
 31
0.0
  0
LINE
  5
1064
330
1060
100
AcDbEntity
  8
0
  6
Continuous
 62
     7
370
     0
100
AcDbLine
 10
0.0
 20
0.0
 30
0.0
 11
0.0
 21
-0.2500000000000002
 31
0.0
  0
LINE
  5
1065
330
1060
100
AcDbEntity
  8
0
  6
Continuous
 62
     7
370
     0
100
AcDbLine
 10
0.0
 20
0.0
 30
0.0
 11
0.2500000000000002
 21
0.0
 31
0.0
  0
LINE
  5
1066
330
1060
100
AcDbEntity
  8
0
  6
Continuous
 62
     7
370
     0
100
AcDbLine
 10
0.0
 20
0.5000000000000005
 30
0.0
 11
0.0
 21
2.600000000000004
 31
0.0
  0
LINE
  5
1067
330
1060
100
AcDbEntity
  8
0
  6
Continuous
 62
     7
370
     0
100
AcDbLine
 10
-0.5000000000000005
 20
0.0
 30
0.0
 11
-2.600000000000004
 21
0.0
 31
0.0
  0
LINE
  5
1068
330
1060
100
AcDbEntity
  8
0
  6
Continuous
 62
     7
370
     0
100
AcDbLine
 10
0.0
 20
-0.5000000000000005
 30
0.0
 11
0.0
 21
-2.599999999999991
 31
0.0
  0
LINE
  5
1069
330
1060
100
AcDbEntity
  8
0
  6
Continuous
 62
     7
370
     0
100
AcDbLine
 10
0.5000000000000005
 20
0.0
 30
0.0
 11
2.600000000000004
 21
0.0
 31
0.0
  0
ENDBLK
  5
106A
330
1060
100
AcDbEntity
  8
0
100
AcDbBlockEnd
  0
ENDSEC
  0
SECTION
  2
ENTITIES
  0
LINE
  5
1142
330
1F
100
AcDbEntity
  8
SANINDUSA
100
AcDbLine
 10
3806.506505785284
 20
1723.696222204276
 30
0.0
 11
3806.506505785284
 21
1723.736405869507
 31
0.0
  0
LINE
  5
1143
330
1F
100
AcDbEntity
  8
SANINDUSA
100
AcDbLine
 10
3805.901505766211
 20
1723.736405869507
 30
0.0
 11
3805.901505766211
 21
1723.696222204276
 31
0.0
  0
LWPOLYLINE
  5
1144
330
1F
100
AcDbEntity
  8
SANINDUSA
100
AcDbPolyline
 90
       26
 70
   128
 43
0.0
 10
3806.331505773363
 20
1723.753222159209
 10
3806.314446469544
 20
1723.753221072
 10
3806.298532118795
 20
1723.753220196272
 10
3806.283744169173
 20
1723.753219429162
 10
3806.270090235172
 20
1723.75321864302
 10
3806.257573215066
 20
1723.753217805759
 10
3806.246113439796
 20
1723.75321822511
 10
3806.235737094431
 20
1723.753219166928
 10
3806.227199520691
 20
1723.75322004803
 10
3806.219609336702
 20
1723.753220716935
 10
3806.212741414791
 20
1723.753221127174
 10
3806.206079624135
 20
1723.753221351062
 10
3806.199600100292
 20
1723.753221368738
 10
3806.193274015335
 20
1723.753221193736
 10
3806.179501162617
 20
1723.753220302858
 10
3806.166297534255
 20
1723.753219226351
 10
3806.153132701067
 20
1723.753218639241
 10
3806.14914487466
 20
1723.753218663872
 10
3806.14449933335
 20
1723.753218843876
 10
3806.139012900887
 20
1723.753219313204
 10
3806.132667017875
 20
1723.753219743809
 10
3806.125452628134
 20
1723.753219969348
 10
3806.115225543974
 20
1723.753220229879
 10
3806.103673441111
 20
1723.753220881653
 10
3806.090765809415
 20
1723.753221312249
 10
3806.076505778132
 20
1723.753222159209
  0
ARC
  5
1145
330
1F
100
AcDbEntity
  8
SANINDUSA
100
AcDbCircle
 10
3806.489689437856
 20
1723.736405856916
 30
0.0
 40
0.0168163474290842
100
AcDbArc
 50
0.0
 51
90.65038492706062
  0
LWPOLYLINE
  5
1146
330
1F
100
AcDbEntity
  8
SANINDUSA
100
AcDbPolyline
 90
       30
 70
   128
 43
0.0
 10
3806.489479182063
 20
1723.753221146784
 10
3806.489147124587
 20
1723.753221589765
 10
3806.488116768895
 20
1723.753221913131
 10
3806.486573336421
 20
1723.753222100052
 10
3806.484668431578
 20
1723.753222183912
 10
3806.482542810736
 20
1723.753222201741
 10
3806.480322150288
 20
1723.753222186577
 10
3806.478116033373
 20
1723.75322216428
 10
3806.476019380389
 20
1723.753222147387
 10
3806.4741138795
 20
1723.75322213414
 10
3806.472389189301
 20
1723.753222123511
 10
3806.467777190505
 20
1723.753222078155
 10
3806.462665943204
 20
1723.753222037458
 10
3806.457032529412
 20
1723.753221958895
 10
3806.450662297903
 20
1723.753221774654
 10
3806.44596488565
 20
1723.753221635198
 10
3806.440889863072
 20
1723.753221522119
 10
3806.435430539546
 20
1723.753221302467
 10
3806.429391247927
 20
1723.753220968423
 10
3806.422186923919
 20
1723.753220550054
 10
3806.413681206999
 20
1723.75322011104
 10
3806.406397310791
 20
1723.753219510991
 10
3806.398294074236
 20
1723.753218918107
 10
3806.3893351683
 20
1723.753218691556
 10
3806.379516241847
 20
1723.753218109696
 10
3806.371035141645
 20
1723.753217568797
 10
3806.361991612016
 20
1723.753217472753
 10
3806.352399332224
 20
1723.753217211849
 10
3806.342248020468
 20
1723.753217812804
 10
3806.331505773363
 20
1723.753222159252
  0
LWPOLYLINE
  5
1147
330
1F
100
AcDbEntity
  8
SANINDUSA
100
AcDbPolyline
 90
       27
 70
   128
 43
0.0
 10
3806.076505778132
 20
1723.753222159252
 10
3806.066570950446
 20
1723.753217994148
 10
3806.057175380884
 20
1723.753217332237
 10
3806.048291740714
 20
1723.753217784793
 10
3806.039902461467
 20
1723.753217958534
 10
3806.029502449332
 20
1723.753218704279
 10
3806.019989458619
 20
1723.753219375885
 10
3806.011345667539
 20
1723.753219532347
 10
3806.002101881205
 20
1723.753219982518
 10
3805.993604583441
 20
1723.75322042759
 10
3805.985563440023
 20
1723.753220589162
 10
3805.977999849019
 20
1723.753220863785
 10
3805.970916999278
 20
1723.753221169061
 10
3805.96538050264
 20
1723.753221315731
 10
3805.960178492365
 20
1723.753221396002
 10
3805.95531268209
 20
1723.753221513658
 10
3805.950428722201
 20
1723.753221620597
 10
3805.945231137572
 20
1723.753221702897
 10
3805.939894137678
 20
1723.753221810539
 10
3805.935921249686
 20
1723.753221934408
 10
3805.932079879342
 20
1723.753222057137
 10
3805.928479043542
 20
1723.753222153025
 10
3805.925237027703
 20
1723.753222202073
 10
3805.922479478417
 20
1723.753222151071
 10
3805.92034429103
 20
1723.753221959013
 10
3805.918973175584
 20
1723.753221607013
 10
3805.918533174096
 20
1723.753221142244
  0
ARC
  5
1148
330
1F
100
AcDbEntity
  8
SANINDUSA
100
AcDbCircle
 10
3805.91832211364
 20
1723.736405856916
 30
0.0
 40
0.0168163474290848
100
AcDbArc
 50
89.34961507293939
 51
180.0
  0
ARC
  5
1149
330
1F
100
AcDbEntity
  8
SANINDUSA
100
AcDbCircle
 10
3806.239245007982
 20
1723.937394202335
 30
0.0
 40
0.3151399470309343
100
AcDbArc
 50
272.0796952064137
 51
310.0676115072393
  0
ARC
  5
114A
330
1F
100
AcDbEntity
  8
SANINDUSA
100
AcDbCircle
 10
3806.168740169294
 20
1723.937389088391
 30
0.0
 40
0.3151293485293987
100
AcDbArc
 50
229.9332350118468
 51
267.9055446865628
  0
ARC
  5
114B
330
1F
100
AcDbEntity
  8
SANINDUSA
100
AcDbCircle
 10
3806.251139895151
 20
1723.612506501058
 30
0.0
 40
0.0099385867826999
100
AcDbArc
 50
92.64818569592794
 51
175.3309700779801
  0
LINE
  5
114C
330
1F
100
AcDbEntity
  8
SANINDUSA
100
AcDbLine
 10
3806.166809988914
 20
1723.613320149042
 30
0.0
 11
3806.169005775599
 21
1723.588222197749
 31
0.0
  0
LINE
  5
114D
330
1F
100
AcDbEntity
  8
SANINDUSA
100
AcDbLine
 10
3806.239005775897
 20
1723.588222197749
 30
0.0
 11
3806.241201011238
 21
1723.613313860752
 31
0.0
  0
LINE
  5
114E
330
1F
100
AcDbEntity
  8
SANINDUSA
100
AcDbLine
 10
3806.331505773363
 20
1723.696222204276
 30
0.0
 11
3806.076505778132
 21
1723.696222204276
 31
0.0
  0
LINE
  5
1152
330
1F
100
AcDbEntity
  8
SANINDUSA
100
AcDbLine
 10
3806.506505785284
 20
1723.696222204276
 30
0.0
 11
3806.331505773363
 21
1723.696222204276
 31
0.0
  0
LINE
  5
1153
330
1F
100
AcDbEntity
  8
SANINDUSA
100
AcDbLine
 10
3806.076505778132
 20
1723.696222204276
 30
0.0
 11
3805.901505766211
 21
1723.696222204276
 31
0.0
  0
ARC
  5
1154
330
1F
100
AcDbEntity
  8
SANINDUSA
100
AcDbCircle
 10
3806.156848043286
 20
1723.612448589775
 30
0.0
 40
0.0100000000000001
100
AcDbArc
 50
4.999999996291116
 51
87.86596273175968
  0
LINE
  5
1155
330
1F
100
AcDbEntity
  8
SANINDUSA
100
AcDbLine
 10
3806.204005775748
 20
1723.588222197749
 30
0.0
 11
3806.239005775897
 21
1723.588222197749
 31
0.0
  0
LINE
  5
1156
330
1F
100
AcDbEntity
  8
SANINDUSA
100
AcDbLine
 10
3806.169005775599
 20
1723.588222197749
 30
0.0
 11
3806.204005775748
 21
1723.588222197749
 31
0.0
  0
LWPOLYLINE
  5
115B
330
1F
100
AcDbEntity
  8
SANINDUSA
100
AcDbPolyline
 90
       22
 70
   128
 43
0.0
 10
3806.157220417409
 20
1723.622441656448
 10
3806.157336862533
 20
1723.622443057158
 10
3806.158538745491
 20
1723.622456080773
 10
3806.161099893747
 20
1723.622481129624
 10
3806.164789458512
 20
1723.62251482115
 10
3806.169720524696
 20
1723.622558362343
 10
3806.175447854919
 20
1723.62260965214
 10
3806.182156497387
 20
1723.622668854453
 10
3806.189273831209
 20
1723.622709475019
 10
3806.196992276942
 20
1723.622730724074
 10
3806.204671089079
 20
1723.622735581853
 10
3806.212545007241
 20
1723.622728071668
 10
3806.220010319499
 20
1723.622703872182
 10
3806.2272387927
 20
1723.622658125617
 10
3806.233634348733
 20
1723.622599876978
 10
3806.239366432426
 20
1723.622548900106
 10
3806.243959629683
 20
1723.622508205034
 10
3806.247532123474
 20
1723.622475243666
 10
3806.249780358521
 20
1723.622452877023
 10
3806.250442800818
 20
1723.622445709564
 10
3806.250761216281
 20
1723.622442028977
 10
3806.250682333259
 20
1723.622442937949
  0
LWPOLYLINE
  5
115D
330
1F
100
AcDbEntity
  8
SANINDUSA
100
AcDbPolyline
 90
       55
 70
   128
 43
0.0
 10
3807.088287268494
 20
1723.753222000423
 10
3807.087196995232
 20
1723.753215314411
 10
3807.085811842892
 20
1723.753216635343
 10
3807.08385599098
 20
1723.753217796788
 10
3807.081469942544
 20
1723.753218657441
 10
3807.078794498656
 20
1723.753219513988
 10
3807.075960357402
 20
1723.753220015854
 10
3807.072507102702
 20
1723.753220174213
 10
3807.069154311631
 20
1723.753220525572
 10
3807.06604905865
 20
1723.753220874519
 10
3807.063311372612
 20
1723.753221108325
 10
3807.061036829565
 20
1723.753221214937
 10
3807.05657871506
 20
1723.753221280557
 10
3807.051258940909
 20
1723.753221468247
 10
3807.04497622392
 20
1723.753221641754
 10
3807.037628044103
 20
1723.753221653446
 10
3807.029121030782
 20
1723.753221737013
 10
3807.017460760389
 20
1723.753221869666
 10
3807.005228374812
 20
1723.753221974234
 10
3806.992553566311
 20
1723.753222083562
 10
3806.97955873302
 20
1723.753222137151
 10
3806.966330726359
 20
1723.753222166551
 10
3806.952832857806
 20
1723.753222189413
 10
3806.93914259943
 20
1723.753222201431
 10
3806.925369754395
 20
1723.753222204015
 10
3806.914358577419
 20
1723.753222203213
 10
3806.903347625126
 20
1723.753222199213
 10
3806.892265178923
 20
1723.753222182474
 10
3806.881166153316
 20
1723.753222142814
 10
3806.870121114616
 20
1723.753222082203
 10
3806.859205228004
 20
1723.753222022702
 10
3806.84850404105
 20
1723.753221960228
 10
3806.83839924327
 20
1723.753221931933
 10
3806.829080921326
 20
1723.753221871879
 10
3806.820548106644
 20
1723.753221761969
 10
3806.814928588186
 20
1723.75322174124
 10
3806.809699420546
 20
1723.753221677317
 10
3806.804729011569
 20
1723.753221509621
 10
3806.799920116279
 20
1723.75322131442
 10
3806.795304943535
 20
1723.753221228363
 10
3806.790917877768
 20
1723.753221040163
 10
3806.787161071513
 20
1723.753220674279
 10
3806.785373036478
 20
1723.753220465659
 10
3806.783849929188
 20
1723.753220289837
 10
3806.782568280313
 20
1723.753220158106
 10
3806.781378318284
 20
1723.75322006789
 10
3806.779824812625
 20
1723.753219989781
 10
3806.777941276047
 20
1723.753219701591
 10
3806.776142840002
 20
1723.753219217416
 10
3806.774260555123
 20
1723.753218536477
 10
3806.772392813776
 20
1723.75321777841
 10
3806.770655681108
 20
1723.753217111156
 10
3806.769169275377
 20
1723.753215831783
 10
3806.768074636076
 20
1723.753215031103
 10
3806.767087791774
 20
1723.753222000422
  0
LINE
  5
1160
330
1F
100
AcDbEntity
  8
SANINDUSA
100
AcDbLine
 10
3807.075904582355
 20
1723.696222204276
 30
0.0
 11
3807.075435329888
 21
1723.695302921839
 31
0.0
  0
ARC
  5
1161
330
1F
100
AcDbEntity
  8
SANINDUSA
100
AcDbCircle
 10
3806.962948573674
 20
1723.745533677866
 30
0.0
 40
0.1231925288906504
100
AcDbArc
 50
275.102587696137
 51
335.9369366709664
  0
LWPOLYLINE
  5
1162
330
1F
100
AcDbEntity
  8
SANINDUSA
100
AcDbPolyline
 90
        3
 70
   128
 43
0.0
 10
3806.767087791774
 20
1723.753222000422
 10
3806.766316567276
 20
1723.753218815001
 10
3806.765116621468
 20
1723.753182553145
  0
ARC
  5
1163
330
1F
100
AcDbEntity
  8
SANINDUSA
100
AcDbCircle
 10
3806.766149057849
 20
1723.739760678343
 30
0.0
 40
0.0134615247344464
100
AcDbArc
 50
94.39863945889145
 51
180.0
  0
ARC
  5
1164
330
1F
100
AcDbEntity
  8
SANINDUSA
100
AcDbCircle
 10
3807.089226002419
 20
1723.739760678343
 30
0.0
 40
0.0134615247344837
100
AcDbArc
 50
0.0
 51
85.60136054110854
  0
LWPOLYLINE
  5
1165
330
1F
100
AcDbEntity
  8
SANINDUSA
100
AcDbPolyline
 90
        3
 70
   128
 43
0.0
 10
3807.0902584388
 20
1723.753182553156
 10
3807.089058492992
 20
1723.753218815002
 10
3807.088287268494
 20
1723.753222000423
  0
ARC
  5
1166
330
1F
100
AcDbEntity
  8
SANINDUSA
100
AcDbCircle
 10
3806.974831303053
 20
1723.61279626165
 30
0.0
 40
0.009980809066
100
AcDbArc
 50
95.26904404024371
 51
175.1253124190225
  0
LINE
  5
1167
330
1F
100
AcDbEntity
  8
SANINDUSA
100
AcDbLine
 10
3806.892348837767
 20
1723.592093459823
 30
0.0
 11
3806.892687529985
 21
1723.588222197749
 31
0.0
  0
LINE
  5
1168
330
1F
100
AcDbEntity
  8
SANINDUSA
100
AcDbLine
 10
3806.962687530283
 20
1723.588222197749
 30
0.0
 11
3806.964911662702
 21
1723.613644174793
 31
0.0
  0
ARC
  5
1169
330
1F
100
AcDbEntity
  8
SANINDUSA
100
AcDbCircle
 10
3806.887397350397
 20
1723.591719083135
 30
0.0
 40
0.0049415189348439
100
AcDbArc
 50
4.36646144166785
 51
75.87966411776637
  0
LINE
  5
116A
330
1F
100
AcDbEntity
  8
SANINDUSA
100
AcDbLine
 10
3807.102687527154
 20
1723.696222204276
 30
0.0
 11
3806.752687533114
 21
1723.696222204276
 31
0.0
  0
LINE
  5
116B
330
1F
100
AcDbEntity
  8
SANINDUSA
100
AcDbLine
 10
3806.752687533114
 20
1723.696222204276
 30
0.0
 11
3806.752687533114
 21
1723.738745105945
 31
0.0
  0
LINE
  5
116E
330
1F
100
AcDbEntity
  8
SANINDUSA
100
AcDbLine
 10
3807.102687527154
 20
1723.696222204276
 30
0.0
 11
3807.102687527154
 21
1723.738745105945
 31
0.0
  0
LWPOLYLINE
  5
1175
330
1F
100
AcDbEntity
  8
SANINDUSA
100
AcDbPolyline
 90
        3
 70
   128
 43
0.0
 10
3806.780671586011
 20
1723.696222204276
 10
3806.781166334365
 20
1723.69550285817
 10
3806.781173173998
 20
1723.695490330019
  0
ARC
  5
1176
330
1F
100
AcDbEntity
  8
SANINDUSA
100
AcDbCircle
 10
3806.928154065301
 20
1728.114752081804
 30
0.0
 40
4.492310449580471
100
AcDbArc
 50
269.6395529038003
 51
269.9940497177343
  0
LWPOLYLINE
  5
1177
330
1F
100
AcDbEntity
  8
SANINDUSA
100
AcDbPolyline
 90
        3
 70
   128
 43
0.0
 10
3806.89406351066
 20
1723.622708893874
 10
3806.897097698141
 20
1723.622582308509
 10
3806.899893178333
 20
1723.622530526974
  0
LWPOLYLINE
  5
1178
330
1F
100
AcDbEntity
  8
SANINDUSA
100
AcDbPolyline
 90
       15
 70
   128
 43
0.0
 10
3806.781173173998
 20
1723.695490330019
 10
3806.7826515182
 20
1723.692451685228
 10
3806.787802193973
 20
1723.683228164472
 10
3806.793734435652
 20
1723.67443971292
 10
3806.800379981015
 20
1723.666175581076
 10
3806.807670552943
 20
1723.658525004544
 10
3806.815592077289
 20
1723.651523619451
 10
3806.824107248996
 20
1723.645192317226
 10
3806.833120976303
 20
1723.639590478995
 10
3806.842538167451
 20
1723.634777456083
 10
3806.852391478333
 20
1723.6307578604
 10
3806.862576191042
 20
1723.627553306081
 10
3806.872986313615
 20
1723.625159181215
 10
3806.883515861545
 20
1723.623570881345
 10
3806.89406351066
 20
1723.622708893874
  0
LINE
  5
1179
330
1F
100
AcDbEntity
  8
SANINDUSA
100
AcDbLine
 10
3806.752687533114
 20
1723.738745105945
 30
0.0
 11
3806.752687533114
 21
1723.739760665715
 31
0.0
  0
LINE
  5
117A
330
1F
100
AcDbEntity
  8
SANINDUSA
100
AcDbLine
 10
3807.102687527154
 20
1723.739760665715
 30
0.0
 11
3807.102687527154
 21
1723.738745105945
 31
0.0
  0
LWPOLYLINE
  5
117C
330
1F
100
AcDbEntity
  8
SANINDUSA
100
AcDbPolyline
 90
        9
 70
   128
 43
0.0
 10
3806.905477150072
 20
1723.61341636584
 10
3806.905298071642
 20
1723.615174136617
 10
3806.904935088668
 20
1723.616848073461
 10
3806.904399771903
 20
1723.618384815313
 10
3806.903709192488
 20
1723.619735352256
 10
3806.902885365028
 20
1723.620856619932
 10
3806.901954558406
 20
1723.621712885358
 10
3806.900946448286
 20
1723.622276849606
 10
3806.899893178333
 20
1723.622530526974
  0
LWPOLYLINE
  5
1180
330
1F
100
AcDbEntity
  8
SANINDUSA
100
AcDbPolyline
 90
        5
 70
   128
 43
0.0
 10
3806.905477150072
 20
1723.61341636584
 10
3806.905862238918
 20
1723.608784086563
 10
3806.90616692296
 20
1723.605122081497
 10
3806.906471841697
 20
1723.601460121133
 10
3806.906718183969
 20
1723.598503805258
  0
LINE
  5
1181
330
1F
100
AcDbEntity
  8
SANINDUSA
100
AcDbLine
 10
3806.892687529985
 20
1723.588222197749
 30
0.0
 11
3806.962687530283
 21
1723.588222197749
 31
0.0
  0
LWPOLYLINE
  5
1186
330
1F
100
AcDbEntity
  8
SANINDUSA
100
AcDbPolyline
 90
        6
 70
   128
 43
0.0
 10
3806.894058857773
 20
1723.595672212102
 10
3806.895997912351
 20
1723.595682806828
 10
3806.89865203454
 20
1723.596101678469
 10
3806.901328376222
 20
1723.596772305229
 10
3806.906698587079
 20
1723.598496682503
 10
3806.906718183969
 20
1723.598503805258
  0
ARC
  5
1188
330
1F
100
AcDbEntity
  8
SANINDUSA
100
AcDbCircle
 10
3806.890410141548
 20
1723.733514452687
 30
0.0
 40
0.1330555419952414
100
AcDbArc
 50
196.2766659542754
 51
248.0275012515964
  0
LINE
  5
118A
330
1F
100
AcDbEntity
  8
SANINDUSA
100
AcDbLine
 10
3806.89374776623
 20
1723.595710761406
 30
0.0
 11
3806.894058857773
 21
1723.595672212102
 31
0.0
  0
ARC
  5
118B
330
1F
100
AcDbEntity
  8
SANINDUSA
100
AcDbCircle
 10
3806.927687530134
 20
1723.825906882975
 30
0.0
 40
0.2326846786690472
100
AcDbArc
 50
248.0275012515964
 51
261.6128234574322
  0
LINE
  5
118C
330
1F
100
AcDbEntity
  8
SANINDUSA
100
AcDbLine
 10
3806.888248958353
 20
1723.596588722922
 30
0.0
 11
3806.888261330043
 21
1723.596586606958
 31
0.0
  0
ARC
  5
1191
330
1F
100
AcDbEntity
  8
SANINDUSA
100
AcDbCircle
 10
3806.933204065066
 20
1726.394083982083
 30
0.0
 40
2.771647815543496
100
AcDbArc
 50
269.8859615549164
 51
270.8416019138074
  0
LWPOLYLINE
  5
119A
330
1F
100
AcDbEntity
  8
SANINDUSA
100
AcDbPolyline
 90
       11
 70
   128
 43
0.0
 10
3805.324675573537
 20
1723.56994473528
 10
3805.35017557306
 20
1723.569561060181
 10
3805.375675572583
 20
1723.569191421977
 10
3805.401175572106
 20
1723.568861689082
 10
3805.426675571629
 20
1723.56862733852
 10
3805.452175571153
 20
1723.568538333884
 10
3805.477675570676
 20
1723.56862733852
 10
3805.503175570199
 20
1723.568861689082
 10
3805.528675569723
 20
1723.569191421977
 10
3805.554175569245
 20
1723.569561060181
 10
3805.579675568769
 20
1723.56994473528
  0
LINE
  5
119C
330
1F
100
AcDbEntity
  8
SANINDUSA
100
AcDbLine
 10
3805.579675568769
 20
1723.541773628107
 30
0.0
 11
3805.324675573537
 21
1723.541773628107
 31
0.0
  0
LWPOLYLINE
  5
119E
330
1F
100
AcDbEntity
  8
SANINDUSA
100
AcDbPolyline
 90
       11
 70
   128
 43
0.0
 10
3805.579675568769
 20
1723.863602514973
 10
3805.554175569245
 20
1723.863986190072
 10
3805.528675569723
 20
1723.864355828277
 10
3805.503175570199
 20
1723.864685561171
 10
3805.477675570676
 20
1723.864919911734
 10
3805.452175571153
 20
1723.865008916369
 10
3805.426675571629
 20
1723.864919911734
 10
3805.401175572106
 20
1723.864685561171
 10
3805.375675572583
 20
1723.864355828277
 10
3805.35017557306
 20
1723.863986190072
 10
3805.324675573537
 20
1723.863602514973
  0
LINE
  5
11A0
330
1F
100
AcDbEntity
  8
SANINDUSA
100
AcDbLine
 10
3805.324675573537
 20
1723.891773622147
 30
0.0
 11
3805.579675568769
 21
1723.891773622147
 31
0.0
  0
LWPOLYLINE
  5
11A2
330
1F
100
AcDbEntity
  8
SANINDUSA
100
AcDbPolyline
 90
       36
 70
   128
 43
0.0
 10
3805.579675568769
 20
1723.56994473528
 10
3805.594022883603
 20
1723.571103211156
 10
3805.608161760995
 20
1723.573563869706
 10
3805.621980859468
 20
1723.577312644234
 10
3805.63536685569
 20
1723.58232296597
 10
3805.648204772302
 20
1723.588564987889
 10
3805.660381107161
 20
1723.595989253035
 10
3805.671782671043
 20
1723.604541029445
 10
3805.682304440567
 20
1723.614144745878
 10
3805.690018130967
 20
1723.622531082144
 10
3805.697059570381
 20
1723.631491455844
 10
3805.703377349803
 20
1723.640966970137
 10
3805.708939416835
 20
1723.650911491027
 10
3805.713707251975
 20
1723.661255880854
 10
3805.717649681994
 20
1723.67194219645
 10
3805.720745487639
 20
1723.682907621971
 10
3805.722970141598
 20
1723.694076159632
 10
3805.724311395118
 20
1723.705391482113
 10
3805.724760516116
 20
1723.716773625127
 10
3805.724311395118
 20
1723.72815576814
 10
3805.722970141598
 20
1723.739471090621
 10
3805.720745487639
 20
1723.750639628282
 10
3805.717649681994
 20
1723.761605053804
 10
3805.713707251975
 20
1723.7722913694
 10
3805.707621766755
 20
1723.785162228754
 10
3805.700311227271
 20
1723.797379795125
 10
3805.691843642423
 20
1723.808827463201
 10
3805.682304440567
 20
1723.819402504376
 10
3805.671782671043
 20
1723.829006220809
 10
3805.660381107161
 20
1723.837557997218
 10
3805.648204772302
 20
1723.844982262364
 10
3805.63536685569
 20
1723.851224284282
 10
3805.621980859468
 20
1723.856234606019
 10
3805.608161760995
 20
1723.859983380547
 10
3805.594022883603
 20
1723.862444039098
 10
3805.579675568769
 20
1723.863602514973
  0
ARC
  5
11A3
330
1F
100
AcDbEntity
  8
SANINDUSA
100
AcDbCircle
 10
3805.579675576288
 20
1723.716773625127
 30
0.0
 40
0.1749999970197679
100
AcDbArc
 50
269.9999975508202
 51
90.00000244917979
  0
LWPOLYLINE
  5
11A4
330
1F
100
AcDbEntity
  8
SANINDUSA
100
AcDbPolyline
 90
       36
 70
   128
 43
0.0
 10
3805.324675573537
 20
1723.863602514973
 10
3805.310328258702
 20
1723.862444039098
 10
3805.296189381311
 20
1723.859983380547
 10
3805.282370282838
 20
1723.856234606019
 10
3805.268984286615
 20
1723.851224284282
 10
3805.256146370003
 20
1723.844982262364
 10
3805.243970035145
 20
1723.837557997218
 10
3805.232568471262
 20
1723.829006220809
 10
3805.222046701739
 20
1723.819402504376
 10
3805.214333011338
 20
1723.811016168109
 10
3805.207291571925
 20
1723.802055794409
 10
3805.200973792503
 20
1723.792580280116
 10
3805.19541172547
 20
1723.782635759226
 10
3805.19064389033
 20
1723.7722913694
 10
3805.186701460311
 20
1723.761605053804
 10
3805.183605654666
 20
1723.750639628282
 10
3805.181381000707
 20
1723.739471090621
 10
3805.180039747187
 20
1723.72815576814
 10
3805.17959062619
 20
1723.716773625127
 10
3805.180039747187
 20
1723.705391482113
 10
3805.181381000707
 20
1723.694076159632
 10
3805.183605654666
 20
1723.682907621971
 10
3805.186701460311
 20
1723.67194219645
 10
3805.19064389033
 20
1723.661255880854
 10
3805.196729375551
 20
1723.648385021499
 10
3805.204039915034
 20
1723.636167455128
 10
3805.212507499883
 20
1723.624719787052
 10
3805.222046701739
 20
1723.614144745878
 10
3805.232568471262
 20
1723.604541029445
 10
3805.243970035145
 20
1723.595989253035
 10
3805.256146370003
 20
1723.588564987889
 10
3805.268984286615
 20
1723.58232296597
 10
3805.282370282838
 20
1723.577312644234
 10
3805.296189381311
 20
1723.573563869706
 10
3805.310328258702
 20
1723.571103211156
 10
3805.324675573537
 20
1723.56994473528
  0
ARC
  5
11A5
330
1F
100
AcDbEntity
  8
SANINDUSA
100
AcDbCircle
 10
3805.324675565975
 20
1723.716773625127
 30
0.0
 40
0.1749999970197679
100
AcDbArc
 50
89.99999752476512
 51
270.0000024752348
  0
LWPOLYLINE
  5
11A6
330
1F
100
AcDbEntity
  8
SANINDUSA
100
AcDbPolyline
 90
       26
 70
   128
 43
0.0
 10
3805.452175571153
 20
1723.755271192304
 10
3805.458765637631
 20
1723.75470652025
 10
3805.46496667763
 20
1723.753100908956
 10
3805.470980633551
 20
1723.750410984865
 10
3805.476312306279
 20
1723.746854377574
 10
3805.481103152537
 20
1723.742320352829
 10
3805.484952798614
 20
1723.737185483462
 10
3805.487966521213
 20
1723.731307163498
 10
3805.489890220144
 20
1723.725178379229
 10
3805.490776269266
 20
1723.718625785213
 10
3805.490548471489
 20
1723.712206933776
 10
3805.489200713614
 20
1723.705733991823
 10
3805.486848125735
 20
1723.699756839907
 10
3805.483422233293
 20
1723.694101573563
 10
3805.479236742982
 20
1723.689271488822
 10
3805.47415384514
 20
1723.685096759012
 10
3805.468603671098
 20
1723.681925616822
 10
3805.46243322132
 20
1723.679657913408
 10
3805.456160626875
 20
1723.678481686524
 10
3805.449598384591
 20
1723.678361951968
 10
3805.443273546675
 20
1723.67931235548
 10
3805.437021794298
 20
1723.681358303538
 10
3805.431346528733
 20
1723.684337641707
 10
3805.426104307676
 20
1723.688338603488
 10
3805.422304444516
 20
1723.692329033872
 10
3805.419053396711
 20
1723.696922907269
  0
ARC
  5
11A7
330
1F
100
AcDbEntity
  8
SANINDUSA
100
AcDbCircle
 10
3805.452041736117
 20
1723.716771903174
 30
0.0
 40
0.0384995217535726
100
AcDbArc
 50
89.80082354532326
 51
211.035210440896
  0
LWPOLYLINE
  5
11A8
330
1F
100
AcDbEntity
  8
SANINDUSA
100
AcDbPolyline
 90
        9
 70
   128
 43
0.0
 10
3805.441458792927
 20
1723.862950946799
 10
3805.443703369738
 20
1723.8634552766
 10
3805.446991579643
 20
1723.86382704567
 10
3805.450863480254
 20
1723.864003520122
 10
3805.453476184781
 20
1723.864003728738
 10
3805.457347591909
 20
1723.863827954641
 10
3805.460635223927
 20
1723.863457273355
 10
3805.462969719002
 20
1723.862933899871
 10
3805.463016460219
 20
1723.862913962117
  0
CIRCLE
  5
11AE
330
1F
100
AcDbEntity
  8
SANINDUSA
100
AcDbCircle
 10
3805.452175571153
 20
1723.716773625127
 30
0.0
 40
0.0235000000000001
  0
LWPOLYLINE
  5
11B0
330
1F
100
AcDbEntity
  8
SANINDUSA
100
AcDbPolyline
 90
       12
 70
   128
 43
0.0
 10
3805.452175571153
 20
1723.859122629872
 10
3805.45216970468
 20
1723.859122629872
 10
3805.448215993622
 20
1723.859310786834
 10
3805.444707452354
 20
1723.859836246482
 10
3805.442026797252
 20
1723.860598977319
 10
3805.441110216582
 20
1723.861019666901
 10
3805.44048526747
 20
1723.861458714715
 10
3805.440206753591
 20
1723.861872236839
 10
3805.440264259035
 20
1723.862271140924
 10
3805.440651577466
 20
1723.862620051614
 10
3805.441378313618
 20
1723.862932871691
 10
3805.441458792927
 20
1723.862950946799
  0
LWPOLYLINE
  5
11B1
330
1F
100
AcDbEntity
  8
SANINDUSA
100
AcDbPolyline
 90
        8
 70
   128
 43
0.0
 10
3805.463016460219
 20
1723.862913962117
 10
3805.463684080669
 20
1723.862629215828
 10
3805.464088242071
 20
1723.86226890575
 10
3805.463864852244
 20
1723.861457746139
 10
3805.462335026393
 20
1723.860603119841
 10
3805.459662143177
 20
1723.859840135685
 10
3805.456137248816
 20
1723.85931099545
 10
3805.452175571153
 20
1723.859122629872
  0
LWPOLYLINE
  5
11B7
330
1F
100
AcDbEntity
  8
SANINDUSA
100
AcDbPolyline
 90
       56
 70
   128
 43
0.0
 10
3807.68802986678
 20
1723.753220808347
 10
3807.686138845058
 20
1723.753215031103
 10
3807.685044205756
 20
1723.753215831783
 10
3807.683557800027
 20
1723.753217111156
 10
3807.681820667357
 20
1723.75321777841
 10
3807.679952926012
 20
1723.753218536477
 10
3807.678070641131
 20
1723.753219217416
 10
3807.676272205086
 20
1723.753219701591
 10
3807.67463969347
 20
1723.75321996526
 10
3807.673240310521
 20
1723.753220049266
 10
3807.672127029867
 20
1723.753220116062
 10
3807.671124077411
 20
1723.753220208804
 10
3807.669953993531
 20
1723.753220335895
 10
3807.668601802559
 20
1723.753220493836
 10
3807.66705240962
 20
1723.753220674279
 10
3807.663295603367
 20
1723.753221040163
 10
3807.658908537598
 20
1723.753221228363
 10
3807.654293364854
 20
1723.75322131442
 10
3807.649484469564
 20
1723.753221509621
 10
3807.644514060588
 20
1723.753221677318
 10
3807.639284892948
 20
1723.75322174124
 10
3807.633665374489
 20
1723.753221761969
 10
3807.625132559807
 20
1723.753221871878
 10
3807.615814237864
 20
1723.753221931933
 10
3807.605709440084
 20
1723.753221960228
 10
3807.595008253129
 20
1723.753222022702
 10
3807.584092366518
 20
1723.753222082203
 10
3807.573047327818
 20
1723.753222142814
 10
3807.561948302211
 20
1723.753222182474
 10
3807.550865856008
 20
1723.753222199213
 10
3807.539854903714
 20
1723.753222203213
 10
3807.528843726739
 20
1723.753222204015
 10
3807.515070881704
 20
1723.753222201431
 10
3807.501380623327
 20
1723.753222189413
 10
3807.487882754774
 20
1723.753222166551
 10
3807.474654748114
 20
1723.753222137151
 10
3807.461659914823
 20
1723.753222083562
 10
3807.448985106321
 20
1723.753221974234
 10
3807.436752720745
 20
1723.753221869666
 10
3807.425092450352
 20
1723.753221737013
 10
3807.416585437031
 20
1723.753221653446
 10
3807.409237257214
 20
1723.753221641754
 10
3807.402954540224
 20
1723.753221468247
 10
3807.397634766073
 20
1723.753221280557
 10
3807.393176651569
 20
1723.753221214937
 10
3807.390902108521
 20
1723.753221108326
 10
3807.388164422484
 20
1723.753220874519
 10
3807.385059169502
 20
1723.753220525572
 10
3807.381706378431
 20
1723.753220174213
 10
3807.378253123732
 20
1723.753220015854
 10
3807.375418982477
 20
1723.753219513987
 10
3807.37274353859
 20
1723.753218657441
 10
3807.370357490153
 20
1723.753217796789
 10
3807.368401638241
 20
1723.753216635345
 10
3807.367016485901
 20
1723.753215314415
 10
3807.365022032757
 20
1723.753220808108
  0
LINE
  5
11B8
330
1F
100
AcDbEntity
  8
SANINDUSA
100
AcDbLine
 10
3807.368634722204
 20
1723.732288643279
 30
0.0
 11
3807.366942620845
 21
1723.743222204529
 31
0.0
  0
ARC
  5
11B9
330
1F
100
AcDbEntity
  8
SANINDUSA
100
AcDbCircle
 10
3807.537371567107
 20
1723.755843030454
 30
0.0
 40
0.1703729203331956
100
AcDbArc
 50
187.9467062950544
 51
195.1828862993492
  0
LWPOLYLINE
  5
11BA
330
1F
100
AcDbEntity
  8
SANINDUSA
100
AcDbPolyline
 90
        4
 70
   128
 43
0.0
 10
3807.686109281154
 20
1723.743222204529
 10
3807.683620891543
 20
1723.727143365451
 10
3807.682124144406
 20
1723.719125844099
 10
3807.680113649936
 20
1723.711222204872
  0
ARC
  5
11BB
330
1F
100
AcDbEntity
  8
SANINDUSA
100
AcDbCircle
 10
3807.561499289073
 20
1723.745769318243
 30
0.0
 40
0.1235518514282857
100
AcDbArc
 50
275.249243669721
 51
335.8922071566885
  0
ARC
  5
11BC
330
1F
100
AcDbEntity
  8
SANINDUSA
100
AcDbCircle
 10
3807.487719482716
 20
1723.623280986769
 30
0.0
 40
0.0099999999999998
100
AcDbArc
 50
48.99999999370759
 51
88.22984545964906
  0
LWPOLYLINE
  5
11BD
330
1F
100
AcDbEntity
  8
SANINDUSA
100
AcDbPolyline
 90
       21
 70
   128
 43
0.0
 10
3807.488450038255
 20
1723.633275664904
 10
3807.488593055876
 20
1723.633275478639
 10
3807.49019866717
 20
1723.633272878387
 10
3807.492888591261
 20
1723.633267826893
 10
3807.496445198552
 20
1723.633261277833
 10
3807.500979223298
 20
1723.633255555787
 10
3807.506114092664
 20
1723.633251092889
 10
3807.511992412628
 20
1723.633247553863
 10
3807.518121196898
 20
1723.633245184579
 10
3807.524673790913
 20
1723.633244007387
 10
3807.53109264235
 20
1723.633244327762
 10
3807.537565584303
 20
1723.633246056296
 10
3807.543542736219
 20
1723.633248880067
 10
3807.549198002563
 20
1723.633252866127
 10
3807.554028087304
 20
1723.633257746257
 10
3807.558202817114
 20
1723.633263997294
 10
3807.561373959305
 20
1723.633270158925
 10
3807.563641662719
 20
1723.633274219491
 10
3807.564669932247
 20
1723.633275776663
 10
3807.565023518176
 20
1723.633276216247
 10
3807.565023518176
 20
1723.633276216247
  0
ARC
  5
11BE
330
1F
100
AcDbEntity
  8
SANINDUSA
100
AcDbCircle
 10
3807.565332419282
 20
1723.623280986769
 30
0.0
 40
0.0099999999999998
100
AcDbArc
 50
91.77015454035093
 51
131.0000000062924
  0
LINE
  5
11C0
330
1F
100
AcDbEntity
  8
SANINDUSA
100
AcDbLine
 10
3807.491186435343
 20
1723.592102907159
 30
0.0
 11
3807.49152595085
 21
1723.588222197749
 31
0.0
  0
LINE
  5
11C1
330
1F
100
AcDbEntity
  8
SANINDUSA
100
AcDbLine
 10
3807.561525951149
 20
1723.588222197749
 30
0.0
 11
3807.563750474723
 21
1723.61364863024
 31
0.0
  0
LINE
  5
11C2
330
1F
100
AcDbEntity
  8
SANINDUSA
100
AcDbLine
 10
3807.494280072869
 20
1723.630828082123
 30
0.0
 11
3807.501306246044
 21
1723.624720327117
 31
0.0
  0
LINE
  5
11C3
330
1F
100
AcDbEntity
  8
SANINDUSA
100
AcDbLine
 10
3807.551745655955
 20
1723.624720327117
 30
0.0
 11
3807.55877182913
 21
1723.630828082123
 31
0.0
  0
ARC
  5
11C5
330
1F
100
AcDbEntity
  8
SANINDUSA
100
AcDbCircle
 10
3807.378296342562
 20
1723.73524428959
 30
0.0
 40
0.0010000000000001
100
AcDbArc
 50
281.3295876843774
 51
8.797410714282493
  0
ARC
  5
11C6
330
1F
100
AcDbEntity
  8
SANINDUSA
100
AcDbCircle
 10
3807.538044568361
 20
1723.756485015737
 30
0.0
 40
0.1601543877800822
100
AcDbArc
 50
187.5661986777105
 51
196.1069327835379
  0
ARC
  5
11C7
330
1F
100
AcDbEntity
  8
SANINDUSA
100
AcDbCircle
 10
3807.383222662735
 20
1723.711754336848
 30
0.0
 40
0.001
100
AcDbArc
 50
17.39160943372115
 51
101.3295876843774
  0
LINE
  5
11C9
330
1F
100
AcDbEntity
  8
SANINDUSA
100
AcDbLine
 10
3807.378492794008
 20
1723.734263775431
 30
0.0
 11
3807.368634722204
 21
1723.732288643279
 31
0.0
  0
LINE
  5
11CA
330
1F
100
AcDbEntity
  8
SANINDUSA
100
AcDbLine
 10
3807.373073956938
 20
1723.710740848937
 30
0.0
 11
3807.383026204081
 21
1723.712734851547
 31
0.0
  0
LWPOLYLINE
  5
11CB
330
1F
100
AcDbEntity
  8
SANINDUSA
100
AcDbPolyline
 90
        3
 70
   128
 43
0.0
 10
3807.373073956938
 20
1723.710740848937
 10
3807.372946447702
 20
1723.711173876681
 10
3807.372932321401
 20
1723.711222204872
  0
LINE
  5
11CC
330
1F
100
AcDbEntity
  8
SANINDUSA
100
AcDbLine
 10
3807.372945553632
 20
1723.711222204872
 30
0.0
 11
3807.372932321401
 21
1723.711222204872
 31
0.0
  0
LINE
  5
11CD
330
1F
100
AcDbEntity
  8
SANINDUSA
100
AcDbLine
 10
3807.691525957556
 20
1723.696222204276
 30
0.0
 11
3807.682888693185
 21
1723.701208930023
 31
0.0
  0
ARC
  5
11CE
330
1F
100
AcDbEntity
  8
SANINDUSA
100
AcDbCircle
 10
3807.683403793735
 20
1723.691222204306
 30
0.0
 40
0.0099999999999997
100
AcDbArc
 50
92.95263032686392
 51
155.9095136677748
  0
LINE
  5
11CF
330
1F
100
AcDbEntity
  8
SANINDUSA
100
AcDbLine
 10
3807.550025950194
 20
1723.588222197749
 30
0.0
 11
3807.561525951149
 21
1723.588222197749
 31
0.0
  0
LINE
  5
11D0
330
1F
100
AcDbEntity
  8
SANINDUSA
100
AcDbLine
 10
3807.550025950194
 20
1723.588222197749
 30
0.0
 11
3807.550025950194
 21
1723.620946771958
 31
0.0
  0
ARC
  5
11D1
330
1F
100
AcDbEntity
  8
SANINDUSA
100
AcDbCircle
 10
3807.555025951
 20
1723.620946775543
 30
0.0
 40
0.005
100
AcDbArc
 50
131.0000000062924
 51
180.0
  0
LWPOLYLINE
  5
11D2
330
1F
100
AcDbEntity
  8
SANINDUSA
100
AcDbPolyline
 90
       19
 70
   128
 43
0.0
 10
3807.674761242242
 20
1723.741819489308
 10
3807.673328927727
 20
1723.732949176364
 10
3807.671661890121
 20
1723.724089948021
 10
3807.669597855778
 20
1723.715330753037
 10
3807.666974565954
 20
1723.706760532715
 10
3807.663629717202
 20
1723.698468233951
 10
3807.659290320249
 20
1723.690059385755
 10
3807.65423967597
 20
1723.682017549434
 10
3807.648536837669
 20
1723.674423746326
 10
3807.642240858645
 20
1723.667358979144
 10
3807.635366193028
 20
1723.660857080975
 10
3807.627942225905
 20
1723.654935866155
 10
3807.620050958366
 20
1723.649652905323
 10
3807.611774369152
 20
1723.645065776565
 10
3807.603122687908
 20
1723.641195728936
 10
3807.594142979951
 20
1723.63805858747
 10
3807.584932281645
 20
1723.635683700003
 10
3807.575587644251
 20
1723.634100406923
 10
3807.565023518176
 20
1723.633276216247
  0
ARC
  5
11D3
330
1F
100
AcDbEntity
  8
SANINDUSA
100
AcDbCircle
 10
3807.688064296952
 20
1723.739759201231
 30
0.0
 40
0.0134616511465013
100
AcDbArc
 50
0.0
 51
171.1963558071544
  0
LINE
  5
11D4
330
1F
100
AcDbEntity
  8
SANINDUSA
100
AcDbLine
 10
3807.701525948019
 20
1723.739760665715
 30
0.0
 11
3807.701525948019
 21
1723.696222204276
 31
0.0
  0
LINE
  5
11D5
330
1F
100
AcDbEntity
  8
SANINDUSA
100
AcDbLine
 10
3807.701525948019
 20
1723.696222204276
 30
0.0
 11
3807.691525957556
 21
1723.696222204276
 31
0.0
  0
LINE
  5
11D6
330
1F
100
AcDbEntity
  8
SANINDUSA
100
AcDbLine
 10
3807.691525957556
 20
1723.711222204872
 30
0.0
 11
3807.691525957556
 21
1723.743222204529
 31
0.0
  0
ARC
  5
11D7
330
1F
100
AcDbEntity
  8
SANINDUSA
100
AcDbCircle
 10
3807.573712422051
 20
1723.612777073355
 30
0.0
 40
0.0099999999999998
100
AcDbArc
 50
95.2186146073731
 51
175.0000000037089
  0
LINE
  5
11D8
330
1F
100
AcDbEntity
  8
SANINDUSA
100
AcDbLine
 10
3807.691525957556
 20
1723.743222204529
 30
0.0
 11
3807.686109281154
 21
1723.743222204529
 31
0.0
  0
LINE
  5
11D9
330
1F
100
AcDbEntity
  8
SANINDUSA
100
AcDbLine
 10
3807.691525957556
 20
1723.711222204872
 30
0.0
 11
3807.680113649936
 21
1723.711222204872
 31
0.0
  0
ARC
  5
11DA
330
1F
100
AcDbEntity
  8
SANINDUSA
100
AcDbCircle
 10
3807.489248562413
 20
1723.733514452687
 30
0.0
 40
0.1330555419952411
100
AcDbArc
 50
196.2766659542754
 51
248.0275012515964
  0
LINE
  5
11DB
330
1F
100
AcDbEntity
  8
SANINDUSA
100
AcDbLine
 10
3807.361525944443
 20
1723.696222204276
 30
0.0
 11
3807.351525953979
 21
1723.696222204276
 31
0.0
  0
LINE
  5
11DC
330
1F
100
AcDbEntity
  8
SANINDUSA
100
AcDbLine
 10
3807.351525953979
 20
1723.696222204276
 30
0.0
 11
3807.351525953979
 21
1723.739760665715
 31
0.0
  0
ARC
  5
11DD
330
1F
100
AcDbEntity
  8
SANINDUSA
100
AcDbCircle
 10
3807.364987605067
 20
1723.739759200965
 30
0.0
 40
0.0134616511669581
100
AcDbArc
 50
8.803645315055403
 51
180.0
  0
LINE
  5
11DE
330
1F
100
AcDbEntity
  8
SANINDUSA
100
AcDbLine
 10
3807.37928458211
 20
1723.735397230395
 30
0.0
 11
3807.378290659757
 21
1723.741819489308
 31
0.0
  0
LINE
  5
11DF
330
1F
100
AcDbEntity
  8
SANINDUSA
100
AcDbLine
 10
3807.361525944443
 20
1723.743222204529
 30
0.0
 11
3807.361525944443
 21
1723.711222204872
 31
0.0
  0
ARC
  5
11E0
330
1F
100
AcDbEntity
  8
SANINDUSA
100
AcDbCircle
 10
3807.489248562413
 20
1723.733514452687
 30
0.0
 40
0.1250555419952411
100
AcDbArc
 50
190.2683550872382
 51
248.0275012515964
  0
ARC
  5
11E1
330
1F
100
AcDbEntity
  8
SANINDUSA
100
AcDbCircle
 10
3807.526525950999
 20
1723.825906882975
 30
0.0
 40
0.2246846786690473
100
AcDbArc
 50
248.0275012515964
 51
263.7677714066589
  0
ARC
  5
11E2
330
1F
100
AcDbEntity
  8
SANINDUSA
100
AcDbCircle
 10
3807.502025950999
 20
1723.601555987755
 30
0.0
 40
0.0010000000000002
100
AcDbArc
 50
0.0
 51
83.76777140665895
  0
LINE
  5
11E3
330
1F
100
AcDbEntity
  8
SANINDUSA
100
AcDbLine
 10
3807.503025951804
 20
1723.601555995204
 30
0.0
 11
3807.503025951804
 21
1723.588222197749
 31
0.0
  0
LINE
  5
11E4
330
1F
100
AcDbEntity
  8
SANINDUSA
100
AcDbLine
 10
3807.49152595085
 20
1723.588222197749
 30
0.0
 11
3807.503025951804
 21
1723.588222197749
 31
0.0
  0
ARC
  5
11E5
330
1F
100
AcDbEntity
  8
SANINDUSA
100
AcDbCircle
 10
3807.486205460359
 20
1723.591667124376
 30
0.0
 40
0.0050000000000002
100
AcDbArc
 50
4.999999996291116
 51
80.23319416494835
  0
ARC
  5
11E6
330
1F
100
AcDbEntity
  8
SANINDUSA
100
AcDbCircle
 10
3807.526525950999
 20
1723.825906882975
 30
0.0
 40
0.2326846786690474
100
AcDbArc
 50
248.0275012515964
 51
260.2331941649484
  0
LINE
  5
11E7
330
1F
100
AcDbEntity
  8
SANINDUSA
100
AcDbLine
 10
3807.366942620845
 20
1723.743222204529
 30
0.0
 11
3807.361525944443
 21
1723.743222204529
 31
0.0
  0
LINE
  5
11E8
330
1F
100
AcDbEntity
  8
SANINDUSA
100
AcDbLine
 10
3807.36619595346
 20
1723.711222204872
 30
0.0
 11
3807.361525944443
 21
1723.711222204872
 31
0.0
  0
ARC
  5
11ED
330
1F
100
AcDbEntity
  8
SANINDUSA
100
AcDbCircle
 10
3807.491538585435
 20
1723.745745682298
 30
0.0
 40
0.1125242298762593
100
AcDbArc
 50
197.4230043327982
 51
268.2123639345951
  0
ARC
  5
11EF
330
1F
100
AcDbEntity
  8
SANINDUSA
100
AcDbCircle
 10
3807.498025950999
 20
1723.620946775543
 30
0.0
 40
0.005
100
AcDbArc
 50
0.0
 51
48.99999999370759
  0
LINE
  5
11F0
330
1F
100
AcDbEntity
  8
SANINDUSA
100
AcDbLine
 10
3807.503025951804
 20
1723.620946771958
 30
0.0
 11
3807.503025951804
 21
1723.613631374695
 31
0.0
  0
ARC
  5
11F1
330
1F
100
AcDbEntity
  8
SANINDUSA
100
AcDbCircle
 10
3807.502025950999
 20
1723.613631373559
 30
0.0
 40
0.0010000000000002
100
AcDbArc
 50
263.4162781635556
 51
0.0
  0
ARC
  5
11F2
330
1F
100
AcDbEntity
  8
SANINDUSA
100
AcDbCircle
 10
3807.526525950999
 20
1723.825906882975
 30
0.0
 40
0.2146846786690475
100
AcDbArc
 50
259.9950499018596
 51
263.4162781635556
  0
LINE
  5
11F3
330
1F
100
AcDbEntity
  8
SANINDUSA
100
AcDbLine
 10
3807.488548214556
 20
1723.622257880428
 30
0.0
 11
3807.489228080036
 21
1723.614486969568
 31
0.0
  0
ARC
  5
11F4
330
1F
100
AcDbEntity
  8
SANINDUSA
100
AcDbCircle
 10
3807.491538979879
 20
1723.745752012124
 30
0.0
 40
0.1235303413769189
100
AcDbArc
 50
201.1295816656873
 51
268.6126892005405
  0
SPLINE
  5
11F5
330
1F
100
AcDbEntity
  8
SANINDUSA
100
AcDbSpline
210
0.0
220
0.0
230
1.0
 70
    12
 71
     3
 72
     8
 73
     4
 74
     0
 42
0.0000000001
 43
0.0000000001
 40
0.9687808681705053
 40
0.9687808681705053
 40
0.9687808681705053
 40
0.9687808681705053
 40
1.037059655352027
 40
1.037059655352027
 40
1.037059655352027
 40
1.037059655352027
 10
3807.37307395512
 20
1723.710740848258
 30
0.0
 41
1.0
 10
3807.374032546997
 20
1723.707506468252
 30
0.0
 41
1.0
 10
3807.375112760422
 20
1723.704333677574
 30
0.0
 41
1.0
 10
3807.376313843368
 20
1723.701222095397
 30
0.0
 41
1.0
  0
ARC
  5
11F9
330
1F
100
AcDbEntity
  8
SANINDUSA
100
AcDbCircle
 10
3807.526525469227
 20
1723.82589943501
 30
0.0
 40
0.2146772188666904
100
AcDbArc
 50
263.4161779187445
 51
265.2100667446998
  0
ARC
  5
11FC
330
1F
100
AcDbEntity
  8
SANINDUSA
100
AcDbCircle
 10
3807.526533629463
 20
1723.825983832022
 30
0.0
 40
0.2247620027957586
100
AcDbArc
 50
263.7679551646297
 51
265.3987857676695
  0
LINE
  5
11FD
330
1F
100
AcDbEntity
  8
SANINDUSA
100
AcDbLine
 10
3807.550025950194
 20
1723.620946771958
 30
0.0
 11
3807.503025951804
 21
1723.620946771958
 31
0.0
  0
LINE
  5
1201
330
1F
100
AcDbEntity
  8
SANINDUSA
100
AcDbLine
 10
3807.550025950194
 20
1723.588222197749
 30
0.0
 11
3807.503025951804
 21
1723.588222197749
 31
0.0
  0
ELLIPSE
  5
1203
330
1F
100
AcDbEntity
  8
SANINDUSA
100
AcDbEllipse
 10
3807.526525950999
 20
1723.072926730164
 30
0.0
 11
0.0
 21
0.7015882054314311
 31
0.0
210
0.0
220
0.0
230
1.0
 40
0.0349207694917476
 41
0.6972723383465334
 42
0.7148405887696959
  0
LINE
  5
1206
330
1F
100
AcDbEntity
  8
SANINDUSA
100
AcDbLine
 10
3807.372932321401
 20
1723.711222204872
 30
0.0
 11
3807.367205998869
 21
1723.711222204872
 31
0.0
  0
LWPOLYLINE
  5
1207
330
1F
100
AcDbEntity
  8
SANINDUSA
100
AcDbPolyline
 90
        7
 70
   128
 43
0.0
 10
3807.50850321074
 20
1723.601946197011
 10
3807.509106495427
 20
1723.601952530005
 10
3807.509789288984
 20
1723.602103299954
 10
3807.510198497222
 20
1723.602317221024
 10
3807.510391752244
 20
1723.602520532467
 10
3807.510441803382
 20
1723.602624214747
 10
3807.510466272951
 20
1723.602764553883
  0
LWPOLYLINE
  5
120A
330
1F
100
AcDbEntity
  8
SANINDUSA
100
AcDbPolyline
 90
        7
 70
   128
 43
0.0
 10
3807.508599328817
 20
1723.611971966483
 10
3807.509507984863
 20
1723.611788533189
 10
3807.510211543189
 20
1723.61148082421
 10
3807.510571825327
 20
1723.611209488966
 10
3807.510750177325
 20
1723.610960982301
 10
3807.510790781126
 20
1723.61081699238
 10
3807.510793789299
 20
1723.610761828282
  0
LINE
  5
120C
330
1F
100
AcDbEntity
  8
SANINDUSA
100
AcDbLine
 10
3807.36619595346
 20
1723.711222204872
 30
0.0
 11
3807.367205998869
 21
1723.711222204872
 31
0.0
  0
LINE
  5
120D
330
1F
100
AcDbEntity
  8
SANINDUSA
100
AcDbLine
 10
3807.674743539663
 20
1723.696222204276
 30
0.0
 11
3807.691525957556
 21
1723.696222204276
 31
0.0
  0
LINE
  5
120E
330
1F
100
AcDbEntity
  8
SANINDUSA
100
AcDbLine
 10
3807.488028383822
 20
1723.633276216247
 30
0.0
 11
3807.488450038255
 21
1723.633275664904
 31
0.0
  0
ENDSEC
  0
SECTION
  2
OBJECTS
  0
DICTIONARY
  5
C
330
0
100
AcDbDictionary
281
     1
  3
ACAD_COLOR
350
EE6
  3
ACAD_GROUP
350
D
  3
ACAD_LAYOUT
350
1A
  3
ACAD_MATERIAL
350
EE5
  3
ACAD_MLINESTYLE
350
17
  3
ACAD_PLOTSETTINGS
350
19
  3
ACAD_PLOTSTYLENAME
350
E
  3
ACAD_TABLESTYLE
350
EE7
  3
ACDBHEADERROUNDTRIPXREC
350
1234
  3
AcDbVariableDictionary
350
3D
  3
ASE_INDEX_DICTIONARY
350
E77
  0
DICTIONARY
  5
1051
330
2
100
AcDbDictionary
280
     1
281
     1
  3
ACAD_LAYERFILTERS
360
1057
  3
ACLYDICTIONARY
360
1056
  0
DICTIONARY
  5
EE6
102
{ACAD_REACTORS
330
C
102
}
330
C
100
AcDbDictionary
281
     1
  0
DICTIONARY
  5
D
102
{ACAD_REACTORS
330
C
102
}
330
C
100
AcDbDictionary
281
     1
  0
DICTIONARY
  5
1A
102
{ACAD_REACTORS
330
C
102
}
330
C
100
AcDbDictionary
281
     1
  3
Layout1
350
1E
  3
Layout2
350
26
  3
Model
350
22
  0
DICTIONARY
  5
EE5
102
{ACAD_REACTORS
330
C
102
}
330
C
100
AcDbDictionary
281
     1
  0
DICTIONARY
  5
17
102
{ACAD_REACTORS
330
C
102
}
330
C
100
AcDbDictionary
281
     1
  3
Standard
350
18
  0
DICTIONARY
  5
19
102
{ACAD_REACTORS
330
C
102
}
330
C
100
AcDbDictionary
281
     1
  0
ACDBDICTIONARYWDFLT
  5
E
102
{ACAD_REACTORS
330
C
102
}
330
C
100
AcDbDictionary
281
     1
  3
Normal
350
F
100
AcDbDictionaryWithDefault
340
F
  0
DICTIONARY
  5
EE7
102
{ACAD_REACTORS
330
C
102
}
330
C
100
AcDbDictionary
281
     1
  3
Standard
350
EE8
  0
DICTIONARY
  5
1234
102
{ACAD_REACTORS
330
C
102
}
330
C
100
AcDbDictionary
281
     1
  0
DICTIONARY
  5
3D
102
{ACAD_REACTORS
330
C
102
}
330
C
100
AcDbDictionary
281
     1
  3
CTABLESTYLE
350
1049
  3
DIMASSOC
350
3F
  3
HIDETEXT
350
3E
  3
PROJECTNAME
350
1232
  0
DICTIONARY
  5
E77
102
{ACAD_REACTORS
330
C
102
}
330
C
100
AcDbDictionary
281
     1
  3
ASEBlockHierarchyIndexRecord
350
E78
1001
DCO15
1040
1552647238.734
  0
DICTIONARY
  5
1057
102
{ACAD_REACTORS
330
1051
102
}
330
1051
100
AcDbDictionary
281
     1
  0
DICTIONARY
  5
1056
102
{ACAD_REACTORS
330
1051
102
}
330
1051
100
AcDbDictionary
281
     1
1001
ACAD
1000
<All
  0
LAYOUT
  5
1E
102
{ACAD_XDICTIONARY
360
1235
102
}
102
{ACAD_REACTORS
330
1A
102
}
330
1A
100
AcDbPlotSettings
  1

  2
Ploter HP500
  4

  6

 40
0.0
 41
0.0
 42
0.0
 43
0.0
 44
0.0
 45
0.0
 46
0.0
 47
0.0
 48
0.0
 49
0.0
140
0.0
141
0.0
142
1.0
143
1.0
 70
   688
 72
     0
 73
     0
 74
     5
  7
sanindusa.ctb
 75
    16
147
1.0
148
0.0
149
0.0
100
AcDbLayout
  1
Layout1
 70
     1
 71
     1
 10
0.0
 20
0.0
 11
420.0
 21
297.0
 12
0.0
 22
0.0
 32
0.0
 14
1.000000000000000E+20
 24
1.000000000000000E+20
 34
1.000000000000000E+20
 15
-1.000000000000000E+20
 25
-1.000000000000000E+20
 35
-1.000000000000000E+20
146
0.0
 13
0.0
 23
0.0
 33
0.0
 16
1.0
 26
0.0
 36
0.0
 17
0.0
 27
1.0
 37
0.0
 76
     0
330
1B
  0
LAYOUT
  5
26
102
{ACAD_XDICTIONARY
360
1239
102
}
102
{ACAD_REACTORS
330
1A
102
}
330
1A
100
AcDbPlotSettings
  1

  2
Ploter HP500
  4

  6

 40
0.0
 41
0.0
 42
0.0
 43
0.0
 44
0.0
 45
0.0
 46
0.0
 47
0.0
 48
0.0
 49
0.0
140
0.0
141
0.0
142
1.0
143
1.0
 70
   688
 72
     0
 73
     0
 74
     5
  7
sanindusa.ctb
 75
    16
147
1.0
148
0.0
149
0.0
100
AcDbLayout
  1
Layout2
 70
     1
 71
     2
 10
0.0
 20
0.0
 11
12.0
 21
9.0
 12
0.0
 22
0.0
 32
0.0
 14
0.0
 24
0.0
 34
0.0
 15
0.0
 25
0.0
 35
0.0
146
0.0
 13
0.0
 23
0.0
 33
0.0
 16
1.0
 26
0.0
 36
0.0
 17
0.0
 27
1.0
 37
0.0
 76
     0
330
23
  0
LAYOUT
  5
22
102
{ACAD_XDICTIONARY
360
1237
102
}
102
{ACAD_REACTORS
330
1A
102
}
330
1A
100
AcDbPlotSettings
  1

  2
Ploter HP500
  4
User268
  6

 40
4.995333194732666
 41
16.97565841674804
 42
4.995330810546875
 43
16.97567749023437
 44
209.9733276367187
 45
296.9259948730469
 46
0.0
 47
0.0
 48
0.0
 49
0.0
140
0.0
141
0.0
142
1.0
143
1.0
 70
 11952
 72
     1
 73
     1
 74
     0
  7
sanindusa.ctb
 75
     0
147
1.0
148
-427.5957866592534
149
7.362384574453926
100
AcDbLayout
  1
Model
 70
     1
 71
     0
 10
0.0
 20
0.0
 11
12.0
 21
9.0
 12
0.0
 22
0.0
 32
0.0
 14
0.0
 24
0.0
 34
0.0
 15
0.0
 25
0.0
 35
0.0
146
0.0
 13
0.0
 23
0.0
 33
0.0
 16
1.0
 26
0.0
 36
0.0
 17
0.0
 27
1.0
 37
0.0
 76
     0
330
1F
  0
MLINESTYLE
  5
18
102
{ACAD_REACTORS
330
17
102
}
330
17
100
AcDbMlineStyle
  2
STANDARD
 70
     0
  3

 62
   256
 51
90.0
 52
90.0
 71
     2
 49
0.5
 62
   256
  6
BYLAYER
 49
-0.5
 62
   256
  6
BYLAYER
  0
ACDBPLACEHOLDER
  5
F
102
{ACAD_REACTORS
330
E
102
}
330
E
  0
TABLESTYLE
  5
EE8
102
{ACAD_REACTORS
330
EE7
102
}
330
EE7
100
AcDbTableStyle
  3
Standard
 70
     0
 71
     0
 40
1.5
 41
1.5
280
     0
281
     0
  7
Standard
140
4.5
170
     2
 62
     0
 63
     7
283
     0
274
    -2
284
     1
 64
     0
275
    -2
285
     1
 65
     0
276
    -2
286
     1
 66
     0
277
    -2
287
     1
 67
     0
278
    -2
288
     1
 68
     0
279
    -2
289
     1
 69
     0
  7
Standard
140
6.0
170
     5
 62
     0
 63
     7
283
     0
274
    -2
284
     1
 64
     0
275
    -2
285
     1
 65
     0
276
    -2
286
     1
 66
     0
277
    -2
287
     1
 67
     0
278
    -2
288
     1
 68
     0
279
    -2
289
     1
 69
     0
  7
Standard
140
4.5
170
     5
 62
     0
 63
     7
283
     0
274
    -2
284
     1
 64
     0
275
    -2
285
     1
 65
     0
276
    -2
286
     1
 66
     0
277
    -2
287
     1
 67
     0
278
    -2
288
     1
 68
     0
279
    -2
289
     1
 69
     0
  0
DICTIONARYVAR
  5
1049
102
{ACAD_REACTORS
330
3D
102
}
330
3D
100
DictionaryVariables
280
     0
  1
STANDARD
  0
DICTIONARYVAR
  5
3F
102
{ACAD_REACTORS
330
3D
102
}
330
3D
100
DictionaryVariables
280
     0
  1
2
  0
DICTIONARYVAR
  5
3E
102
{ACAD_REACTORS
330
3D
102
}
330
3D
100
DictionaryVariables
280
     0
  1
1
  0
DICTIONARYVAR
  5
1232
102
{ACAD_REACTORS
330
3D
102
}
330
3D
100
DictionaryVariables
280
     0
  1

  0
XRECORD
  5
E78
102
{ACAD_REACTORS
330
E77
102
}
330
E77
100
AcDbXrecord
280
     1
330
0
330
0
  0
DICTIONARY
  5
1235
330
1E
100
AcDbDictionary
280
     1
281
     1
  3
ACAD_XREC_ROUNDTRIP
360
1236
  0
DICTIONARY
  5
1239
330
26
100
AcDbDictionary
280
     1
281
     1
  3
ACAD_XREC_ROUNDTRIP
360
123A
  0
DICTIONARY
  5
1237
330
22
100
AcDbDictionary
280
     1
281
     1
  3
ACAD_XREC_ROUNDTRIP
360
1238
  0
XRECORD
  5
1236
102
{ACAD_REACTORS
330
1235
102
}
330
1235
100
AcDbXrecord
280
     1
102
SHADEPLOT
 70
     0
102
SHADEPLOTRESLEVEL
 70
     2
102
SHADEPLOTCUSTOMDPI
 70
   300
  0
XRECORD
  5
123A
102
{ACAD_REACTORS
330
1239
102
}
330
1239
100
AcDbXrecord
280
     1
102
SHADEPLOT
 70
     0
102
SHADEPLOTRESLEVEL
 70
     2
102
SHADEPLOTCUSTOMDPI
 70
   300
  0
XRECORD
  5
1238
102
{ACAD_REACTORS
330
1237
102
}
330
1237
100
AcDbXrecord
280
     1
102
SHADEPLOT
 70
     0
102
SHADEPLOTRESLEVEL
 70
     2
102
SHADEPLOTCUSTOMDPI
 70
   300
  0
ENDSEC
  0
EOF
