  0
SECTION
  2
HEADER
  9
$ACADVER
  1
AC1015
  9
$ACADMAINTVER
 70
    20
  9
$DWGCODEPAGE
  3
ANSI_1252
  9
$INSBASE
 10
0.0
 20
0.0
 30
0.0
  9
$EXTMIN
 10
1358.31577381467
 20
1052.249021786395
 30
0.0
  9
$EXTMAX
 10
1361.935684352729
 20
1052.699021786395
 30
0.0
  9
$LIMMIN
 10
0.0
 20
0.0
  9
$LIMMAX
 10
420.0
 20
297.0
  9
$ORTHOMODE
 70
     0
  9
$REGENMODE
 70
     1
  9
$FILLMODE
 70
     1
  9
$QTEXTMODE
 70
     0
  9
$MIRRTEXT
 70
     1
  9
$LTSCALE
 40
1.0
  9
$ATTMODE
 70
     1
  9
$TEXTSIZE
 40
2.5
  9
$TRACEWID
 40
1.0
  9
$TEXTSTYLE
  7
SANINDUSA
  9
$CLAYER
  8
0
  9
$CELTYPE
  6
ByLayer
  9
$CECOLOR
 62
   256
  9
$CELTSCALE
 40
1.0
  9
$DISPSILH
 70
     0
  9
$DIMSCALE
 40
1.0
  9
$DIMASZ
 40
2.0
  9
$DIMEXO
 40
1.0
  9
$DIMDLI
 40
1.0
  9
$DIMRND
 40
0.0
  9
$DIMDLE
 40
0.0
  9
$DIMEXE
 40
1.0
  9
$DIMTP
 40
0.0
  9
$DIMTM
 40
0.0
  9
$DIMTXT
 40
2.0
  9
$DIMCEN
 40
0.0
  9
$DIMTSZ
 40
0.0
  9
$DIMTOL
 70
     0
  9
$DIMLIM
 70
     0
  9
$DIMTIH
 70
     0
  9
$DIMTOH
 70
     0
  9
$DIMSE1
 70
     0
  9
$DIMSE2
 70
     0
  9
$DIMTAD
 70
     1
  9
$DIMZIN
 70
     8
  9
$DIMBLK
  1

  9
$DIMASO
 70
     1
  9
$DIMSHO
 70
     1
  9
$DIMPOST
  1

  9
$DIMAPOST
  1

  9
$DIMALT
 70
     0
  9
$DIMALTD
 70
     3
  9
$DIMALTF
 40
0.03937007874016
  9
$DIMLFAC
 40
1.0
  9
$DIMTOFL
 70
     1
  9
$DIMTVP
 40
0.0
  9
$DIMTIX
 70
     0
  9
$DIMSOXD
 70
     0
  9
$DIMSAH
 70
     0
  9
$DIMBLK1
  1

  9
$DIMBLK2
  1

  9
$DIMSTYLE
  2
SANINDUSA
  9
$DIMCLRD
 70
   256
  9
$DIMCLRE
 70
   256
  9
$DIMCLRT
 70
   256
  9
$DIMTFAC
 40
1.0
  9
$DIMGAP
 40
1.0
  9
$DIMJUST
 70
     0
  9
$DIMSD1
 70
     0
  9
$DIMSD2
 70
     0
  9
$DIMTOLJ
 70
     0
  9
$DIMTZIN
 70
     8
  9
$DIMALTZ
 70
     0
  9
$DIMALTTZ
 70
     0
  9
$DIMUPT
 70
     0
  9
$DIMDEC
 70
     1
  9
$DIMTDEC
 70
     1
  9
$DIMALTU
 70
     2
  9
$DIMALTTD
 70
     3
  9
$DIMTXSTY
  7
SANINDUSA
  9
$DIMAUNIT
 70
     0
  9
$DIMADEC
 70
     1
  9
$DIMALTRND
 40
0.0
  9
$DIMAZIN
 70
     0
  9
$DIMDSEP
 70
    44
  9
$DIMATFIT
 70
     3
  9
$DIMFRAC
 70
     0
  9
$DIMLDRBLK
  1

  9
$DIMLUNIT
 70
     2
  9
$DIMLWD
 70
    -1
  9
$DIMLWE
 70
    -1
  9
$DIMTMOVE
 70
     0
  9
$LUNITS
 70
     2
  9
$LUPREC
 70
     4
  9
$SKETCHINC
 40
1.0
  9
$FILLETRAD
 40
3.0
  9
$AUNITS
 70
     0
  9
$AUPREC
 70
     0
  9
$MENU
  1
.
  9
$ELEVATION
 40
0.0
  9
$PELEVATION
 40
0.0
  9
$THICKNESS
 40
0.0
  9
$LIMCHECK
 70
     0
  9
$CHAMFERA
 40
10.0
  9
$CHAMFERB
 40
10.0
  9
$CHAMFERC
 40
20.0
  9
$CHAMFERD
 40
0.0
  9
$SKPOLY
 70
     0
  9
$TDCREATE
 40
2453913.464765255
  9
$TDUCREATE
 40
2453913.423098588
  9
$TDUPDATE
 40
2456146.406423611
  9
$TDUUPDATE
 40
2456146.364756945
  9
$TDINDWG
 40
0.0044847569
  9
$TDUSRTIMER
 40
0.0044845833
  9
$USRTIMER
 70
     1
  9
$ANGBASE
 50
0.0
  9
$ANGDIR
 70
     0
  9
$PDMODE
 70
     0
  9
$PDSIZE
 40
0.0
  9
$PLINEWID
 40
0.0
  9
$SPLFRAME
 70
     0
  9
$SPLINETYPE
 70
     6
  9
$SPLINESEGS
 70
     8
  9
$HANDSEED
  5
1823
  9
$SURFTAB1
 70
     6
  9
$SURFTAB2
 70
     6
  9
$SURFTYPE
 70
     6
  9
$SURFU
 70
     6
  9
$SURFV
 70
     6
  9
$UCSBASE
  2

  9
$UCSNAME
  2

  9
$UCSORG
 10
0.0
 20
0.0
 30
0.0
  9
$UCSXDIR
 10
1.0
 20
0.0
 30
0.0
  9
$UCSYDIR
 10
0.0
 20
1.0
 30
0.0
  9
$UCSORTHOREF
  2

  9
$UCSORTHOVIEW
 70
     0
  9
$UCSORGTOP
 10
0.0
 20
0.0
 30
0.0
  9
$UCSORGBOTTOM
 10
0.0
 20
0.0
 30
0.0
  9
$UCSORGLEFT
 10
0.0
 20
0.0
 30
0.0
  9
$UCSORGRIGHT
 10
0.0
 20
0.0
 30
0.0
  9
$UCSORGFRONT
 10
0.0
 20
0.0
 30
0.0
  9
$UCSORGBACK
 10
0.0
 20
0.0
 30
0.0
  9
$PUCSBASE
  2

  9
$PUCSNAME
  2

  9
$PUCSORG
 10
0.0
 20
0.0
 30
0.0
  9
$PUCSXDIR
 10
1.0
 20
0.0
 30
0.0
  9
$PUCSYDIR
 10
0.0
 20
1.0
 30
0.0
  9
$PUCSORTHOREF
  2

  9
$PUCSORTHOVIEW
 70
     0
  9
$PUCSORGTOP
 10
0.0
 20
0.0
 30
0.0
  9
$PUCSORGBOTTOM
 10
0.0
 20
0.0
 30
0.0
  9
$PUCSORGLEFT
 10
0.0
 20
0.0
 30
0.0
  9
$PUCSORGRIGHT
 10
0.0
 20
0.0
 30
0.0
  9
$PUCSORGFRONT
 10
0.0
 20
0.0
 30
0.0
  9
$PUCSORGBACK
 10
0.0
 20
0.0
 30
0.0
  9
$USERI1
 70
     0
  9
$USERI2
 70
     0
  9
$USERI3
 70
     0
  9
$USERI4
 70
     0
  9
$USERI5
 70
     0
  9
$USERR1
 40
0.0
  9
$USERR2
 40
0.0
  9
$USERR3
 40
0.0
  9
$USERR4
 40
0.0
  9
$USERR5
 40
0.0
  9
$WORLDVIEW
 70
     1
  9
$SHADEDGE
 70
     3
  9
$SHADEDIF
 70
    70
  9
$TILEMODE
 70
     1
  9
$MAXACTVP
 70
    64
  9
$PINSBASE
 10
0.0
 20
0.0
 30
0.0
  9
$PLIMCHECK
 70
     0
  9
$PEXTMIN
 10
1.000000000000000E+20
 20
1.000000000000000E+20
 30
1.000000000000000E+20
  9
$PEXTMAX
 10
-1.000000000000000E+20
 20
-1.000000000000000E+20
 30
-1.000000000000000E+20
  9
$PLIMMIN
 10
0.0
 20
0.0
  9
$PLIMMAX
 10
420.0
 20
297.0
  9
$UNITMODE
 70
     0
  9
$VISRETAIN
 70
     1
  9
$PLINEGEN
 70
     0
  9
$PSLTSCALE
 70
     1
  9
$TREEDEPTH
 70
  3020
  9
$CMLSTYLE
  2
Standard
  9
$CMLJUST
 70
     0
  9
$CMLSCALE
 40
20.0
  9
$PROXYGRAPHICS
 70
     1
  9
$MEASUREMENT
 70
     1
  9
$CELWEIGHT
370
    -1
  9
$ENDCAPS
280
     0
  9
$JOINSTYLE
280
     0
  9
$LWDISPLAY
290
     0
  9
$INSUNITS
 70
     4
  9
$HYPERLINKBASE
  1

  9
$STYLESHEET
  1
monochrome.ctb
  9
$XEDIT
290
     1
  9
$CEPSNTYPE
380
     0
  9
$PSTYLEMODE
290
     1
  9
$FINGERPRINTGUID
  2
{EB472759-A081-4BB4-9D5E-1F5718095E9F}
  9
$VERSIONGUID
  2
{70487F1E-1CD7-44EC-804E-BC4C739184DC}
  9
$EXTNAMES
290
     1
  9
$PSVPSCALE
 40
0.0
  9
$OLESTARTUP
290
     0
  0
ENDSEC
  0
SECTION
  2
CLASSES
  0
CLASS
  1
ACDBDICTIONARYWDFLT
  2
AcDbDictionaryWithDefault
  3
ObjectDBX Classes
 90
        0
280
     0
281
     0
  0
CLASS
  1
ACDBPLACEHOLDER
  2
AcDbPlaceHolder
  3
ObjectDBX Classes
 90
        0
280
     0
281
     0
  0
CLASS
  1
LAYOUT
  2
AcDbLayout
  3
ObjectDBX Classes
 90
        0
280
     0
281
     0
  0
CLASS
  1
DICTIONARYVAR
  2
AcDbDictionaryVar
  3
ObjectDBX Classes
 90
        0
280
     0
281
     0
  0
CLASS
  1
DIMASSOC
  2
AcDbDimAssoc
  3
"AcDbDimAssoc|Product Desc:     AcDim ARX App For Dimension|Company:          Autodesk, Inc.|WEB Address:      www.autodesk.com"
 90
    32768
280
     0
281
     0
  0
CLASS
  1
TABLESTYLE
  2
AcDbTableStyle
  3
ObjectDBX Classes
 90
     4095
280
     0
281
     0
  0
CLASS
  1
SORTENTSTABLE
  2
AcDbSortentsTable
  3
ObjectDBX Classes
 90
    32768
280
     0
281
     0
  0
CLASS
  1
MATERIAL
  2
AcDbMaterial
  3
ObjectDBX Classes
 90
     1153
280
     0
281
     0
  0
CLASS
  1
VISUALSTYLE
  2
AcDbVisualStyle
  3
ObjectDBX Classes
 90
     4095
280
     0
281
     0
  0
CLASS
  1
SCALE
  2
AcDbScale
  3
ObjectDBX Classes
 90
     1153
280
     0
281
     0
  0
CLASS
  1
MLEADERSTYLE
  2
AcDbMLeaderStyle
  3
ACDB_MLEADERSTYLE_CLASS
 90
     4095
280
     0
281
     0
  0
CLASS
  1
CELLSTYLEMAP
  2
AcDbCellStyleMap
  3
ObjectDBX Classes
 90
     1152
280
     0
281
     0
  0
ENDSEC
  0
SECTION
  2
TABLES
  0
TABLE
  2
VPORT
  5
8
330
0
100
AcDbSymbolTable
 70
     1
  0
VPORT
  5
1756
330
8
100
AcDbSymbolTableRecord
100
AcDbViewportTableRecord
  2
*Active
 70
     0
 10
0.0
 20
0.0
 11
1.0
 21
1.0
 12
1360.184458738337
 22
1052.474021786395
 13
0.0
 23
0.0
 14
10.0
 24
10.0
 15
10.0
 25
10.0
 16
0.0
 26
0.0
 36
1.0
 17
0.0
 27
0.0
 37
0.0
 40
2.279672979632867
 41
1.645464025026068
 42
50.0
 43
0.0
 44
0.0
 50
0.0
 51
0.0
 71
     0
 72
   100
 73
     1
 74
     2
 75
     0
 76
     0
 77
     0
 78
     0
281
     0
 65
     1
110
0.0
120
0.0
130
0.0
111
1.0
121
0.0
131
0.0
112
0.0
122
1.0
132
0.0
 79
     0
146
0.0
  0
ENDTAB
  0
TABLE
  2
LTYPE
  5
5
330
0
100
AcDbSymbolTable
 70
     3
  0
LTYPE
  5
14
330
5
100
AcDbSymbolTableRecord
100
AcDbLinetypeTableRecord
  2
ByBlock
 70
     0
  3

 72
    65
 73
     0
 40
0.0
  0
LTYPE
  5
15
330
5
100
AcDbSymbolTableRecord
100
AcDbLinetypeTableRecord
  2
ByLayer
 70
     0
  3

 72
    65
 73
     0
 40
0.0
  0
LTYPE
  5
16
330
5
100
AcDbSymbolTableRecord
100
AcDbLinetypeTableRecord
  2
Continuous
 70
     0
  3
Solid line
 72
    65
 73
     0
 40
0.0
  0
LTYPE
  5
2D
330
5
100
AcDbSymbolTableRecord
100
AcDbLinetypeTableRecord
  2
DASHDOT
 70
     0
  3
Dash dot __ . __ . __ . __ . __ . __ . __ . __
 72
    65
 73
     4
 40
25.4
 49
12.7
 74
     0
 49
-6.349999999999999
 74
     0
 49
0.0
 74
     0
 49
-6.349999999999999
 74
     0
  0
LTYPE
  5
2E
330
5
100
AcDbSymbolTableRecord
100
AcDbLinetypeTableRecord
  2
HIDDEN
 70
     0
  3
Hidden __ __ __ __ __ __ __ __ __ __ __ __ __ _
 72
    65
 73
     2
 40
9.524999999999998
 49
6.349999999999999
 74
     0
 49
-3.174999999999999
 74
     0
  0
ENDTAB
  0
TABLE
  2
LAYER
  5
2
330
0
100
AcDbSymbolTable
 70
    16
  0
LAYER
  5
10
102
{ACAD_XDICTIONARY
360
17A5
102
}
330
2
100
AcDbSymbolTableRecord
100
AcDbLayerTableRecord
  2
0
 70
     0
 62
     7
  6
Continuous
370
    -3
390
F
  0
LAYER
  5
2F
102
{ACAD_XDICTIONARY
360
17A7
102
}
330
2
100
AcDbSymbolTableRecord
100
AcDbLayerTableRecord
  2
1
 70
     0
 62
     1
  6
Continuous
370
    -3
390
F
  0
LAYER
  5
30
102
{ACAD_XDICTIONARY
360
17A9
102
}
330
2
100
AcDbSymbolTableRecord
100
AcDbLayerTableRecord
  2
2
 70
     0
 62
     2
  6
Continuous
370
    -3
390
F
  0
LAYER
  5
31
102
{ACAD_XDICTIONARY
360
17AB
102
}
330
2
100
AcDbSymbolTableRecord
100
AcDbLayerTableRecord
  2
3
 70
     0
 62
     3
  6
Continuous
370
    -3
390
F
  0
LAYER
  5
32
102
{ACAD_XDICTIONARY
360
17AD
102
}
330
2
100
AcDbSymbolTableRecord
100
AcDbLayerTableRecord
  2
4
 70
     0
 62
     4
  6
Continuous
370
    -3
390
F
  0
LAYER
  5
33
102
{ACAD_XDICTIONARY
360
17AF
102
}
330
2
100
AcDbSymbolTableRecord
100
AcDbLayerTableRecord
  2
5
 70
     0
 62
     5
  6
Continuous
370
    -3
390
F
  0
LAYER
  5
34
102
{ACAD_XDICTIONARY
360
17B1
102
}
330
2
100
AcDbSymbolTableRecord
100
AcDbLayerTableRecord
  2
6
 70
     0
 62
     6
  6
Continuous
370
    -3
390
F
  0
LAYER
  5
35
102
{ACAD_XDICTIONARY
360
17B3
102
}
330
2
100
AcDbSymbolTableRecord
100
AcDbLayerTableRecord
  2
7
 70
     0
 62
     7
  6
Continuous
370
    -3
390
F
  0
LAYER
  5
36
102
{ACAD_XDICTIONARY
360
17B5
102
}
330
2
100
AcDbSymbolTableRecord
100
AcDbLayerTableRecord
  2
cen
 70
     0
 62
     7
  6
DASHDOT
370
    -3
390
F
  0
LAYER
  5
37
102
{ACAD_XDICTIONARY
360
17B7
102
}
330
2
100
AcDbSymbolTableRecord
100
AcDbLayerTableRecord
  2
hid
 70
     0
 62
     7
  6
HIDDEN
370
    -3
390
F
  0
LAYER
  5
5D6
102
{ACAD_XDICTIONARY
360
17B9
102
}
330
2
100
AcDbSymbolTableRecord
100
AcDbLayerTableRecord
  2
hatch
 70
     0
 62
     9
  6
Continuous
370
    -3
390
F
  0
LAYER
  5
8AF
102
{ACAD_XDICTIONARY
360
17BB
102
}
330
2
100
AcDbSymbolTableRecord
100
AcDbLayerTableRecord
  2
9
 70
     0
 62
     9
  6
Continuous
370
    -3
390
F
  0
LAYER
  5
8F8
102
{ACAD_XDICTIONARY
360
17BD
102
}
330
2
100
AcDbSymbolTableRecord
100
AcDbLayerTableRecord
  2
leg fin
 70
     0
 62
     9
  6
Continuous
370
    -3
390
F
  0
LAYER
  5
91D
102
{ACAD_XDICTIONARY
360
17BF
102
}
330
2
100
AcDbSymbolTableRecord
100
AcDbLayerTableRecord
  2
cotas
 70
     0
 62
     1
  6
Continuous
370
    -3
390
F
  0
LAYER
  5
92F
330
2
100
AcDbSymbolTableRecord
100
AcDbLayerTableRecord
  2
Defpoints
 70
     0
 62
     7
  6
Continuous
290
     0
370
    -3
390
F
  0
LAYER
  5
BA5
102
{ACAD_XDICTIONARY
360
17C1
102
}
330
2
100
AcDbSymbolTableRecord
100
AcDbLayerTableRecord
  2
SANINDUSA
 70
     0
 62
     3
  6
Continuous
370
    -3
390
F
  0
ENDTAB
  0
TABLE
  2
STYLE
  5
3
330
0
100
AcDbSymbolTable
 70
     3
  0
STYLE
  5
11
330
3
100
AcDbSymbolTableRecord
100
AcDbTextStyleTableRecord
  2
Standard
 70
     0
 40
0.0
 41
1.0
 50
0.0
 71
     0
 42
2.5
  3
Avgardn.ttf
  4

1001
ACAD
1000
AvantGarde Bk BT
1071
       34
  0
STYLE
  5
2C
330
3
100
AcDbSymbolTableRecord
100
AcDbTextStyleTableRecord
  2

 70
     1
 40
0.0
 41
1.0
 50
0.0
 71
     0
 42
2.5
  3
ltypeshp.shx
  4

  0
STYLE
  5
91F
330
3
100
AcDbSymbolTableRecord
100
AcDbTextStyleTableRecord
  2
SANINDUSA
 70
     0
 40
0.0
 41
1.0
 50
0.0
 71
     0
 42
2.5
  3
verdana.TTF
  4

1001
ACAD
1000
Verdana
1071
       34
  0
ENDTAB
  0
TABLE
  2
VIEW
  5
6
330
0
100
AcDbSymbolTable
 70
     0
  0
ENDTAB
  0
TABLE
  2
UCS
  5
7
330
0
100
AcDbSymbolTable
 70
     0
  0
ENDTAB
  0
TABLE
  2
APPID
  5
9
330
0
100
AcDbSymbolTable
 70
     4
  0
APPID
  5
12
330
9
100
AcDbSymbolTableRecord
100
AcDbRegAppTableRecord
  2
ACAD
 70
     0
  0
APPID
  5
3A
330
9
100
AcDbSymbolTableRecord
100
AcDbRegAppTableRecord
  2
DCO15
 70
     0
  0
APPID
  5
158E
330
9
100
AcDbSymbolTableRecord
100
AcDbRegAppTableRecord
  2
ACAD_EXEMPT_FROM_CAD_STANDARDS
 70
     0
  0
APPID
  5
1822
330
9
100
AcDbSymbolTableRecord
100
AcDbRegAppTableRecord
  2
ACAD_MLEADERVER
 70
     0
  0
ENDTAB
  0
TABLE
  2
DIMSTYLE
  5
A
330
0
100
AcDbSymbolTable
 70
     2
100
AcDbDimStyleTable
 71
     1
340
921
  0
DIMSTYLE
105
45
330
A
100
AcDbSymbolTableRecord
100
AcDbDimStyleTableRecord
  2
STANDARD
 70
     0
289
     0
340
11
  0
DIMSTYLE
105
921
330
A
100
AcDbSymbolTableRecord
100
AcDbDimStyleTableRecord
  2
SANINDUSA
 70
     0
 41
2.0
 42
1.0
 43
1.0
 44
1.0
 73
     0
 74
     0
 77
     1
 78
     8
140
2.0
141
0.0
143
0.03937007874016
147
1.0
171
     3
172
     1
176
   256
177
   256
178
   256
179
     1
271
     1
272
     1
274
     3
278
    44
283
     0
284
     8
340
91F
371
    -1
372
    -1
  0
ENDTAB
  0
TABLE
  2
BLOCK_RECORD
  5
1
330
0
100
AcDbSymbolTable
 70
   109
  0
BLOCK_RECORD
  5
1F
330
1
100
AcDbSymbolTableRecord
100
AcDbBlockTableRecord
  2
*Model_Space
340
22
  0
BLOCK_RECORD
  5
1B
330
1
100
AcDbSymbolTableRecord
100
AcDbBlockTableRecord
  2
*Paper_Space
340
1E
  0
BLOCK_RECORD
  5
23
330
1
100
AcDbSymbolTableRecord
100
AcDbBlockTableRecord
  2
*Paper_Space0
340
26
  0
BLOCK_RECORD
  5
919
330
1
100
AcDbSymbolTableRecord
100
AcDbBlockTableRecord
  2
_DotSmall
340
0
  0
BLOCK_RECORD
  5
922
330
1
100
AcDbSymbolTableRecord
100
AcDbBlockTableRecord
  2
base para cotas
340
0
310
2800000020000000200000000100080000000000000400000000000000000000000000000000000000000000000080000080000000808000800000008000800080800000C0C0C000C0DCC000F0CAA6000020400000206000002080000020A0000020C0000020E00000400000004020000040400000406000004080000040A0
310
000040C0000040E00000600000006020000060400000606000006080000060A0000060C0000060E00000800000008020000080400000806000008080000080A0000080C0000080E00000A0000000A0200000A0400000A0600000A0800000A0A00000A0C00000A0E00000C0000000C0200000C0400000C0600000C0800000C0
310
A00000C0C00000C0E00000E0000000E0200000E0400000E0600000E0800000E0A00000E0C00000E0E00040000000400020004000400040006000400080004000A0004000C0004000E00040200000402020004020400040206000402080004020A0004020C0004020E000404000004040200040404000404060004040800040
310
40A0004040C0004040E00040600000406020004060400040606000406080004060A0004060C0004060E00040800000408020004080400040806000408080004080A0004080C0004080E00040A0000040A0200040A0400040A0600040A0800040A0A00040A0C00040A0E00040C0000040C0200040C0400040C0600040C08000
310
40C0A00040C0C00040C0E00040E0000040E0200040E0400040E0600040E0800040E0A00040E0C00040E0E00080000000800020008000400080006000800080008000A0008000C0008000E00080200000802020008020400080206000802080008020A0008020C0008020E00080400000804020008040400080406000804080
310
008040A0008040C0008040E00080600000806020008060400080606000806080008060A0008060C0008060E00080800000808020008080400080806000808080008080A0008080C0008080E00080A0000080A0200080A0400080A0600080A0800080A0A00080A0C00080A0E00080C0000080C0200080C0400080C0600080C0
310
800080C0A00080C0C00080C0E00080E0000080E0200080E0400080E0600080E0800080E0A00080E0C00080E0E000C0000000C0002000C0004000C0006000C0008000C000A000C000C000C000E000C0200000C0202000C0204000C0206000C0208000C020A000C020C000C020E000C0400000C0402000C0404000C0406000C0
310
408000C040A000C040C000C040E000C0600000C0602000C0604000C0606000C0608000C060A000C060C000C060E000C0800000C0802000C0804000C0806000C0808000C080A000C080C000C080E000C0A00000C0A02000C0A04000C0A06000C0A08000C0A0A000C0A0C000C0A0E000C0C00000C0C02000C0C04000C0C06000
310
C0C08000C0C0A000F0FBFF00A4A0A000808080000000FF0000FF000000FFFF00FF000000FF00FF00FFFF0000FFFFFF00A4A4A4A4A4A4A4A4A4A4A4A4A4A4A4A4A4A4A4A4A4A4A4A4A4A4A4A4A4A4A4A4A4A4A4A4A4A4A4A4A4A4A4A4A4A4A4A4A4A4A4A4A4A4A4A4A4A4A4A4A4A4A4A4A4A4A4A4A4A4A4A4A4A4A4A4A4A4A4
310
A4A4A4A4A4A4A4A4A4A4A4A4A4A4A4A4A4A4A4A4A4A4A4A4A4A4A4A4A4A4A4A4A4A4A4A4A4A4A4A4A4A4A4A4A4A4A4A4A4A4A4A4A4A4A4A4A4A4A4A4A4A4A4A4A4A4A4A4A4A4A4A4A4A4A4A4A4A4A4A4A4A4A4A4A4A4A4A4A4A4A4A4A4A4A4A4A4A4A4A4A4A4A4A4A4A4A4A4A4A4A4A4A4A4A4A4A4A4A4A4A4A4A4A4A4A4A4
310
A4A4A4A4A4A4A4A4A4A4A4A4A4A4A4A4A4A4A4A4A4A4A4A4A4A4A4A4A4A4A4A4A4A4A4A4A4A4A4A4A4A4A4A4A4A4A4A4A4A4A4A4A4A4A4A4A4A4A4A4A4A4A4A4A4A4A4A4A4A4A4A4A4A4A4A4A4A4A4A4A4A4A4A4A4A4A4A4A4A4A4A4A4A4A4A4A4A4A4A4A4A4A4A4A4A4A4A4A4A4A4A4A4A4A4A4A4A4A4A4A4A4A4A4A4A4A4
310
A4A4A4A4A4A4A4A4A4A4A4A4A4A4A4A4A4A4A4A4A4A4A4A4A4A4A4A4A4A4A4A4A4A4A4A4A4A4A4A4A4A4A4A4A4A4A4A4A4A4A4A4A4A4A4A4A4A4A4A4A4A4A4A4A4A4A4A4A4A4A4A4A4A4A4A4A4A4A4A4A4A4A4A4A4A4A4A4A4A4A4A4A4A4A4A4A4A4A4A4A4A4A4A4A4A4A4A4A4A4A4A4A4A4A4A4F9F9F9F9F9F9F9F9F9F9F9
310
F9F9F9F9F9F9F9F9F9F9F9F9F9F9F9F9F9F9F9A4A4F9F9F9F9F9F9F9F9F9F9F9F9F9F9F9F9F9F9F9F9F9F9F9F9F9F9F9F9F9F9A4A4F9F9F9F9F9F9F9F9F9F9F9F9F9F9F9F9F9F9F9F9F9F9F9F9F9F9F9F9F9F9A4A4F9A4A4A4A4A4A4A4A4A4A4A4A4A4A4A4A4A4A4A4A4A4A4A4A4A4A4A4A4F9A4A4A4A4A4A4A4A4A4A4A4A4
310
A4A4A4A4A4A4A4A4A4A4A4A4A4A4A4A4A4A4A4A4A4A4A4A4A4A4A4A4A4A4A4A4A4A4A4A4A4A4A4A4A4A4A4A4A4A4A4A4A4A4A4A4A4A4A4A4A4A4A4A4A4A4A4A4A4A4A4A4A4A4A4A4A4A4A4A4A4A4A4A4A4A4A4A4A4A4A4A4A4A4A4A4A4A4A4A4A4A4A4A4A4A4A4A4A4A4A4A4A4A4A4A4A4A4A4A4A4A4A4A4A4A4A4A4A4A4A4
310
A4A4A4A4A4A4A4A4A4A4A4A4A4A4A4A4A4A4A4A4A4A4A4A4A4A4A4A4A4A4A4A4A4A4A4A4A4A4A4A4A4A4A4A4A4A4A4A4A4A4A4A4A4A4A4A4A4A4A4A4A4A4A4A4A4A4A4A4A4A4A4A4A4A4A4A4A4A4A4A4A4A4A4A4A4A4A4A4A4A4A4A4A4A4A4A4A4A4A4A4A4A4A4A4A4A4A4A4A4A4A4A4A4A4A4A4A4A4A4A4A4A4A4A4A4A4A4
310
A4A4A4A4A4A4A4A4A4A4A4A4A4A4A4A4A4A4A4A4A4A4A4A4A4A4A4A4A4A4A4A4A4A4A4A4A4A4A4A4A4A4A4A4A4A4A4A4A4A4A4A4A4A4A4A4A4A4A4A4A4A4A4A4A4A4A4A4A4A4A4A4A4A4A4A4A4A4A4A4A4A4A4A4A4A4A4A4A4A4A4A4A4A4A4A4A4A4A4A4A4A4A4A4A4A4A4A4A4A4A4A4A4A4A4A4A4A4A4A4A4A4A4A4A4A4A4
310
A4A4A4A4A4A4A4A4A4A4A4A4A4A4A4A4A4A4A4A4A4A4A4A4A4A4A4A4A4A4A4A4A4A4A4A4A4A4A4A4A4A4A4A4A4A4A4A4A4A4A4A4A4A4A4A4
1001
ACAD
1000
DesignCenter Data
1002
{
1070
     1
1070
     4
1002
}
  0
BLOCK_RECORD
  5
AA8
330
1
100
AcDbSymbolTableRecord
100
AcDbBlockTableRecord
  2
_CLOSED
340
0
  0
ENDTAB
  0
ENDSEC
  0
SECTION
  2
BLOCKS
  0
BLOCK
  5
20
330
1F
100
AcDbEntity
  8
0
100
AcDbBlockBegin
  2
*Model_Space
 70
     0
 10
0.0
 20
0.0
 30
0.0
  3
*Model_Space
  1

  0
ENDBLK
  5
21
330
1F
100
AcDbEntity
  8
0
100
AcDbBlockEnd
  0
BLOCK
  5
1C
330
1B
100
AcDbEntity
 67
     1
  8
0
100
AcDbBlockBegin
  2
*Paper_Space
 70
     0
 10
0.0
 20
0.0
 30
0.0
  3
*Paper_Space
  1

  0
ENDBLK
  5
1D
330
1B
100
AcDbEntity
 67
     1
  8
0
100
AcDbBlockEnd
  0
BLOCK
  5
24
330
23
100
AcDbEntity
 67
     1
  8
0
100
AcDbBlockBegin
  2
*Paper_Space0
 70
     0
 10
0.0
 20
0.0
 30
0.0
  3
*Paper_Space0
  1

  0
ENDBLK
  5
25
330
23
100
AcDbEntity
 67
     1
  8
0
100
AcDbBlockEnd
  0
BLOCK
  5
91B
330
919
100
AcDbEntity
  8
0
100
AcDbBlockBegin
  2
_DotSmall
 70
     0
 10
0.0
 20
0.0
 30
0.0
  3
_DotSmall
  1

  0
LWPOLYLINE
  5
91A
330
919
100
AcDbEntity
  8
0
  6
ByBlock
 62
     0
100
AcDbPolyline
 90
        2
 70
     1
 43
0.5
 10
-0.0625
 20
0.0
 42
1.0
 10
0.0625
 20
0.0
 42
1.0
  0
ENDBLK
  5
91C
330
919
100
AcDbEntity
  8
0
100
AcDbBlockEnd
  0
BLOCK
  5
92A
330
922
100
AcDbEntity
  8
0
100
AcDbBlockBegin
  2
base para cotas
 70
     0
 10
0.0
 20
0.0
 30
0.0
  3
base para cotas
  1

  0
LINE
  5
B36
330
922
100
AcDbEntity
  8
cotas
100
AcDbLine
 10
0.0
 20
-30.0
 30
0.0
 11
327.1260136525398
 21
-30.0
 31
0.0
  0
LINE
  5
B37
330
922
100
AcDbEntity
  8
cotas
100
AcDbLine
 10
0.0
 20
-25.0
 30
0.0
 11
327.1260136525398
 21
-25.0
 31
0.0
  0
LINE
  5
B38
330
922
100
AcDbEntity
  8
cotas
100
AcDbLine
 10
0.0
 20
-20.0
 30
0.0
 11
327.1260136525398
 21
-20.0
 31
0.0
  0
LINE
  5
B39
330
922
100
AcDbEntity
  8
cotas
100
AcDbLine
 10
0.0
 20
-15.0
 30
0.0
 11
327.1260136525398
 21
-15.0
 31
0.0
  0
LINE
  5
B3A
330
922
100
AcDbEntity
  8
cotas
100
AcDbLine
 10
0.0
 20
-10.0
 30
0.0
 11
327.1260136525398
 21
-10.0
 31
0.0
  0
LINE
  5
B3B
330
922
100
AcDbEntity
  8
cotas
100
AcDbLine
 10
0.0
 20
0.0
 30
0.0
 11
0.0
 21
-30.0
 31
0.0
  0
LINE
  5
B3C
330
922
100
AcDbEntity
  8
cotas
100
AcDbLine
 10
327.1260136525398
 20
-30.0
 30
0.0
 11
327.1260136525398
 21
0.0
 31
0.0
  0
ENDBLK
  5
92B
330
922
100
AcDbEntity
  8
0
100
AcDbBlockEnd
  0
BLOCK
  5
AAD
330
AA8
100
AcDbEntity
  8
0
100
AcDbBlockBegin
  2
_CLOSED
 70
     0
 10
0.0
 20
0.0
 30
0.0
  3
_CLOSED
  1

  0
LINE
  5
AA9
330
AA8
100
AcDbEntity
  8
0
100
AcDbLine
 10
-1.0
 20
0.166667
 30
0.0
 11
0.0
 21
0.0
 31
0.0
  0
LINE
  5
AAA
330
AA8
100
AcDbEntity
  8
0
100
AcDbLine
 10
0.0
 20
0.0
 30
0.0
 11
-1.0
 21
-0.166667
 31
0.0
  0
LINE
  5
AAB
330
AA8
100
AcDbEntity
  8
0
100
AcDbLine
 10
-1.0
 20
0.166667
 30
0.0
 11
-1.0
 21
-0.166667
 31
0.0
  0
LINE
  5
AAC
330
AA8
100
AcDbEntity
  8
0
100
AcDbLine
 10
0.0
 20
0.0
 30
0.0
 11
-1.0
 21
0.0
 31
0.0
  0
ENDBLK
  5
AAE
330
AA8
100
AcDbEntity
  8
0
100
AcDbBlockEnd
  0
ENDSEC
  0
SECTION
  2
ENTITIES
  0
LINE
  5
105B
330
1F
100
AcDbEntity
  8
SANINDUSA
100
AcDbLine
 10
1359.31077381467
 20
1052.249021786395
 30
0.0
 11
1358.32077381467
 21
1052.249021786395
 31
0.0
  0
LINE
  5
105C
330
1F
100
AcDbEntity
  8
SANINDUSA
100
AcDbLine
 10
1359.31077381467
 20
1052.699021786395
 30
0.0
 11
1358.32077381467
 21
1052.699021786395
 31
0.0
  0
LINE
  5
105F
330
1F
100
AcDbEntity
  8
SANINDUSA
100
AcDbLine
 10
1359.458417685033
 20
1052.497654300969
 30
0.0
 11
1360.448417685033
 21
1052.497654300969
 31
0.0
  0
LINE
  5
1061
330
1F
100
AcDbEntity
  8
SANINDUSA
100
AcDbLine
 10
1360.448417685033
 20
1052.402654300969
 30
0.0
 11
1359.458417685033
 21
1052.402654300969
 31
0.0
  0
LINE
  5
1062
330
1F
100
AcDbEntity
  8
SANINDUSA
100
AcDbLine
 10
1358.31577381467
 20
1052.254021786395
 30
0.0
 11
1358.31577381467
 21
1052.699021786395
 31
0.0
  0
ARC
  5
1064
330
1F
100
AcDbEntity
  8
SANINDUSA
100
AcDbCircle
 10
1358.32077381467
 20
1052.254021786395
 30
0.0
 40
0.005
100
AcDbArc
 50
180.0
 51
270.0
  0
LINE
  5
1067
330
1F
100
AcDbEntity
  8
SANINDUSA
100
AcDbLine
 10
1358.31577381467
 20
1052.699021786395
 30
0.0
 11
1358.32077381467
 21
1052.699021786395
 31
0.0
  0
LINE
  5
1096
330
1F
100
AcDbEntity
  8
SANINDUSA
100
AcDbLine
 10
1359.453417685033
 20
1052.407654300969
 30
0.0
 11
1359.453417685033
 21
1052.492654300968
 31
0.0
  0
ARC
  5
1099
330
1F
100
AcDbEntity
  8
SANINDUSA
100
AcDbCircle
 10
1359.458417685033
 20
1052.407654300969
 30
0.0
 40
0.005
100
AcDbArc
 50
180.0
 51
270.0
  0
ARC
  5
109C
330
1F
100
AcDbEntity
  8
SANINDUSA
100
AcDbCircle
 10
1359.458417685033
 20
1052.492654300968
 30
0.0
 40
0.005
100
AcDbArc
 50
90.0
 51
180.0
  0
LINE
  5
10A0
330
1F
100
AcDbEntity
  8
SANINDUSA
100
AcDbLine
 10
1358.638224869747
 20
1052.264723427136
 30
0.0
 11
1358.957684071373
 21
1052.314780582417
 31
0.0
  0
LINE
  5
10A1
330
1F
100
AcDbEntity
  8
SANINDUSA
100
AcDbLine
 10
1358.967684071373
 20
1052.314780344758
 30
0.0
 11
1359.287568788435
 21
1052.264723427136
 31
0.0
  0
LINE
  5
10A4
330
1F
100
AcDbEntity
  8
SANINDUSA
100
AcDbLine
 10
1359.306385650786
 20
1052.581781709638
 30
0.0
 11
1359.306385650786
 21
1052.256261863152
 31
0.0
  0
LINE
  5
10A5
330
1F
100
AcDbEntity
  8
SANINDUSA
100
AcDbLine
 10
1358.619009289282
 20
1052.256261863152
 30
0.0
 11
1358.619009289282
 21
1052.581781709638
 31
0.0
  0
LINE
  5
10A6
330
1F
100
AcDbEntity
  8
SANINDUSA
100
AcDbLine
 10
1359.31577381467
 20
1052.699021786395
 30
0.0
 11
1359.31577381467
 21
1052.254021786395
 31
0.0
  0
LINE
  5
10A9
330
1F
100
AcDbEntity
  8
SANINDUSA
100
AcDbLine
 10
1359.306385650786
 20
1052.256261863152
 30
0.0
 11
1358.619009289282
 21
1052.256261863152
 31
0.0
  0
LWPOLYLINE
  5
10AB
330
1F
100
AcDbEntity
  8
SANINDUSA
100
AcDbPolyline
 90
        9
 70
   128
 43
0.0
 10
1358.620216426605
 20
1052.2586761378
 10
1358.621600434331
 20
1052.259591533374
 10
1358.623195539387
 20
1052.260476513534
 10
1358.624979296797
 20
1052.261322994284
 10
1358.627079724715
 20
1052.262123243309
 10
1358.629477636439
 20
1052.262869950602
 10
1358.632151127855
 20
1052.263556295245
 10
1358.63507577752
 20
1052.264176007711
 10
1358.638224869747
 20
1052.264723427136
  0
LINE
  5
10AF
330
1F
100
AcDbEntity
  8
SANINDUSA
100
AcDbLine
 10
1358.619009289282
 20
1052.256261863152
 30
0.0
 11
1358.620216426605
 21
1052.2586761378
 31
0.0
  0
LWPOLYLINE
  5
10B1
330
1F
100
AcDbEntity
  8
SANINDUSA
100
AcDbPolyline
 90
        9
 70
   128
 43
0.0
 10
1359.287568788435
 20
1052.264723427136
 10
1359.290723335576
 20
1052.264175768706
 10
1359.293652945045
 20
1052.263555760327
 10
1359.296330833974
 20
1052.262869070197
 10
1359.298732520755
 20
1052.262121976125
 10
1359.300836048857
 20
1052.261321308142
 10
1359.302622187554
 20
1052.260474386059
 10
1359.304074607735
 20
1052.259588952546
 10
1359.305180031186
 20
1052.258673102351
  0
ARC
  5
10B3
330
1F
100
AcDbEntity
  8
SANINDUSA
100
AcDbCircle
 10
1359.31077381467
 20
1052.254021786395
 30
0.0
 40
0.0050000000000003
100
AcDbArc
 50
270.0
 51
0.0
  0
LINE
  5
10B7
330
1F
100
AcDbEntity
  8
SANINDUSA
100
AcDbLine
 10
1359.305180031186
 20
1052.258673102351
 30
0.0
 11
1359.306385650786
 21
1052.256261863152
 31
0.0
  0
LINE
  5
10BA
330
1F
100
AcDbEntity
  8
SANINDUSA
100
AcDbLine
 10
1358.957684071373
 20
1052.523262990374
 30
0.0
 11
1358.638224869747
 21
1052.573320145654
 31
0.0
  0
LINE
  5
10BC
330
1F
100
AcDbEntity
  8
SANINDUSA
100
AcDbLine
 10
1358.619009289282
 20
1052.581781709638
 30
0.0
 11
1359.306385650786
 21
1052.581781709638
 31
0.0
  0
LWPOLYLINE
  5
10BD
330
1F
100
AcDbEntity
  8
SANINDUSA
100
AcDbPolyline
 90
        9
 70
   128
 43
0.0
 10
1358.638224869747
 20
1052.573320145654
 10
1358.63507577752
 20
1052.573867565079
 10
1358.632151127855
 20
1052.574487277545
 10
1358.629477636439
 20
1052.575173622188
 10
1358.627079724715
 20
1052.575920329482
 10
1358.624979296797
 20
1052.576720578506
 10
1358.623195539387
 20
1052.577567059256
 10
1358.621390799533
 20
1052.578678703673
 10
1358.620216426605
 20
1052.579367434991
  0
LINE
  5
10C2
330
1F
100
AcDbEntity
  8
SANINDUSA
100
AcDbLine
 10
1358.620216426605
 20
1052.579367434991
 30
0.0
 11
1358.619009289282
 21
1052.581781709638
 31
0.0
  0
CIRCLE
  5
10C3
330
1F
100
AcDbEntity
  8
SANINDUSA
100
AcDbCircle
 10
1358.962909738905
 20
1052.632026742514
 30
0.0
 40
0.0175000000000002
  0
LINE
  5
10C6
330
1F
100
AcDbEntity
  8
SANINDUSA
100
AcDbLine
 10
1359.287568788435
 20
1052.573320145654
 30
0.0
 11
1358.967684071373
 21
1052.523263228033
 31
0.0
  0
LINE
  5
10C7
330
1F
100
AcDbEntity
  8
SANINDUSA
100
AcDbLine
 10
1358.963683118947
 20
1052.338979350188
 30
0.0
 11
1358.963683118947
 21
1052.499021786395
 31
0.0
  0
LINE
  5
10C8
330
1F
100
AcDbEntity
  8
SANINDUSA
100
AcDbLine
 10
1358.957684071373
 20
1052.523262990374
 30
0.0
 11
1358.957684071373
 21
1052.314780582417
 31
0.0
  0
LINE
  5
10C9
330
1F
100
AcDbEntity
  8
SANINDUSA
100
AcDbLine
 10
1358.967684071373
 20
1052.314780344758
 30
0.0
 11
1358.967684071373
 21
1052.523263228033
 31
0.0
  0
LINE
  5
10CA
330
1F
100
AcDbEntity
  8
SANINDUSA
100
AcDbLine
 10
1358.961683118947
 20
1052.338979350188
 30
0.0
 11
1358.963683118947
 21
1052.338979350188
 31
0.0
  0
LWPOLYLINE
  5
10CB
330
1F
100
AcDbEntity
  8
SANINDUSA
100
AcDbPolyline
 90
        6
 70
   128
 43
0.0
 10
1358.962681243347
 20
1052.312223377878
 10
1358.964433211751
 20
1052.312540877682
 10
1358.96583377098
 20
1052.3129648069
 10
1358.966854773534
 20
1052.313486645688
 10
1358.967475699986
 20
1052.31409590648
 10
1358.967684071373
 20
1052.314780344758
  0
LWPOLYLINE
  5
10CC
330
1F
100
AcDbEntity
  8
SANINDUSA
100
AcDbPolyline
 90
        6
 70
   128
 43
0.0
 10
1358.957684071373
 20
1052.314780582416
 10
1358.957892208301
 20
1052.314096078449
 10
1358.958512435537
 20
1052.313486758455
 10
1358.959532286518
 20
1052.31296486976
 10
1358.960931262254
 20
1052.312540902321
 10
1358.962681243347
 20
1052.312223377878
  0
LINE
  5
10CF
330
1F
100
AcDbEntity
  8
SANINDUSA
100
AcDbLine
 10
1358.963683118947
 20
1052.499021786395
 30
0.0
 11
1358.961683118947
 21
1052.499021786395
 31
0.0
  0
LWPOLYLINE
  5
10D0
330
1F
100
AcDbEntity
  8
SANINDUSA
100
AcDbPolyline
 90
        6
 70
   128
 43
0.0
 10
1358.967684071373
 20
1052.523263228033
 10
1358.967475699986
 20
1052.523947666311
 10
1358.966854773534
 20
1052.524556927102
 10
1358.96583377098
 20
1052.52507876589
 10
1358.964433211751
 20
1052.525502695109
 10
1358.962681243347
 20
1052.525820194912
  0
LWPOLYLINE
  5
10D1
330
1F
100
AcDbEntity
  8
SANINDUSA
100
AcDbPolyline
 90
        6
 70
   128
 43
0.0
 10
1358.962681243347
 20
1052.525820194912
 10
1358.960931262254
 20
1052.525502670469
 10
1358.959532286518
 20
1052.52507870303
 10
1358.958512435537
 20
1052.524556814335
 10
1358.957892208301
 20
1052.523947494342
 10
1358.957684071373
 20
1052.523262990374
  0
LWPOLYLINE
  5
10D3
330
1F
100
AcDbEntity
  8
SANINDUSA
100
AcDbPolyline
 90
        9
 70
   128
 43
0.0
 10
1359.305180031186
 20
1052.579370470439
 10
1359.304074607735
 20
1052.578454620245
 10
1359.302622187554
 20
1052.577569186732
 10
1359.300836048857
 20
1052.576722264648
 10
1359.298732520755
 20
1052.575921596665
 10
1359.296330833974
 20
1052.575174502594
 10
1359.293652945045
 20
1052.574487812463
 10
1359.290723335576
 20
1052.573867804085
 10
1359.287568788435
 20
1052.573320145654
  0
LINE
  5
10D7
330
1F
100
AcDbEntity
  8
SANINDUSA
100
AcDbLine
 10
1359.306385650786
 20
1052.581781709638
 30
0.0
 11
1359.305180031186
 21
1052.579370470439
 31
0.0
  0
LINE
  5
10D9
330
1F
100
AcDbEntity
  8
SANINDUSA
100
AcDbLine
 10
1359.31077381467
 20
1052.699021786395
 30
0.0
 11
1359.31577381467
 21
1052.699021786395
 31
0.0
  0
LWPOLYLINE
  5
10DC
330
1F
100
AcDbEntity
  8
SANINDUSA
100
AcDbPolyline
 90
        3
 70
   128
 43
0.0
 10
1360.13225547396
 20
1052.366784789736
 10
1360.132325593733
 20
1052.367609923041
 10
1360.132338170186
 20
1052.367654300969
  0
LINE
  5
10DE
330
1F
100
AcDbEntity
  8
SANINDUSA
100
AcDbLine
 10
1360.13025547396
 20
1052.363537305944
 30
0.0
 11
1360.070427191099
 21
1052.363537305944
 31
0.0
  0
LINE
  5
10E1
330
1F
100
AcDbEntity
  8
SANINDUSA
100
AcDbLine
 10
1360.136062819342
 20
1052.371537305944
 30
0.0
 11
1360.064612374997
 21
1052.371537305944
 31
0.0
  0
LWPOLYLINE
  5
10E2
330
1F
100
AcDbEntity
  8
SANINDUSA
100
AcDbPolyline
 90
        3
 70
   128
 43
0.0
 10
1360.084634911273
 20
1052.378520573644
 10
1360.082446499029
 20
1052.377254379493
 10
1360.072463542791
 20
1052.371617087418
  0
LINE
  5
10E5
330
1F
100
AcDbEntity
  8
SANINDUSA
100
AcDbLine
 10
1360.064510589623
 20
1052.371565030132
 30
0.0
 11
1360.064823530367
 21
1052.371479791678
 31
0.0
  0
LWPOLYLINE
  5
10E9
330
1F
100
AcDbEntity
  8
SANINDUSA
100
AcDbPolyline
 90
        9
 70
   128
 43
0.0
 10
1360.064510589623
 20
1052.371565030132
 10
1360.063682088631
 20
1052.371725327028
 10
1360.062892447759
 20
1052.372023952106
 10
1360.06216436652
 20
1052.3724523209
 10
1360.061518774799
 20
1052.372998119252
 10
1360.060974231183
 20
1052.373645657297
 10
1360.060546389464
 20
1052.374376320498
 10
1360.060247548651
 20
1052.375169104751
 10
1360.060086299412
 20
1052.376001220178
  0
LWPOLYLINE
  5
10F2
330
1F
100
AcDbEntity
  8
SANINDUSA
100
AcDbPolyline
 90
       10
 70
   128
 43
0.0
 10
1360.064823530367
 20
1052.371479791678
 10
1360.064823530367
 20
1052.371479791678
 10
1360.065179561081
 20
1052.371370787739
 10
1360.065607792082
 20
1052.371210542926
 10
1360.066107332444
 20
1052.370949424265
 10
1360.06668254988
 20
1052.370536891978
 10
1360.067282404862
 20
1052.369936025915
 10
1360.067837273604
 20
1052.369116711461
 10
1360.068245094696
 20
1052.368106236293
 10
1360.06831653033
 20
1052.367654300969
  0
ARC
  5
10F3
330
1F
100
AcDbEntity
  8
SANINDUSA
100
AcDbCircle
 10
1360.070427191099
 20
1052.365537305944
 30
0.0
 40
0.0020000000000002
100
AcDbArc
 50
180.0
 51
270.0
  0
LINE
  5
10F4
330
1F
100
AcDbEntity
  8
SANINDUSA
100
AcDbLine
 10
1360.068427191098
 20
1052.36678676951
 30
0.0
 11
1360.068427191098
 21
1052.365537305944
 31
0.0
  0
LINE
  5
10F5
330
1F
100
AcDbEntity
  8
SANINDUSA
100
AcDbLine
 10
1360.116032882594
 20
1052.378520573644
 30
0.0
 11
1360.084634911273
 21
1052.378520573644
 31
0.0
  0
LINE
  5
10F8
330
1F
100
AcDbEntity
  8
SANINDUSA
100
AcDbLine
 10
1360.084634911273
 20
1052.380849251899
 30
0.0
 11
1360.084634911273
 21
1052.378520573644
 31
0.0
  0
LWPOLYLINE
  5
10FA
330
1F
100
AcDbEntity
  8
SANINDUSA
100
AcDbPolyline
 90
        3
 70
   128
 43
0.0
 10
1360.082032725886
 20
1052.402654300969
 10
1360.083446809283
 20
1052.390846035272
 10
1360.084634911273
 20
1052.380849251899
  0
LWPOLYLINE
  5
1100
330
1F
100
AcDbEntity
  8
SANINDUSA
100
AcDbPolyline
 90
        3
 70
   128
 43
0.0
 10
1360.128257537984
 20
1052.371617087418
 10
1360.121445943041
 20
1052.375453568126
 10
1360.116032882594
 20
1052.378520573644
  0
LINE
  5
1102
330
1F
100
AcDbEntity
  8
SANINDUSA
100
AcDbLine
 10
1360.116032882594
 20
1052.380849251899
 30
0.0
 11
1360.116032882594
 21
1052.378520573644
 31
0.0
  0
LWPOLYLINE
  5
1107
330
1F
100
AcDbEntity
  8
SANINDUSA
100
AcDbPolyline
 90
        3
 70
   128
 43
0.0
 10
1360.116032882594
 20
1052.380849251899
 10
1360.117208589854
 20
1052.390836000934
 10
1360.118615058339
 20
1052.402654300969
  0
ARC
  5
1108
330
1F
100
AcDbEntity
  8
SANINDUSA
100
AcDbCircle
 10
1360.13025547396
 20
1052.365537305944
 30
0.0
 40
0.0020000000000002
100
AcDbArc
 50
270.0
 51
0.0
  0
LINE
  5
1109
330
1F
100
AcDbEntity
  8
SANINDUSA
100
AcDbLine
 10
1360.13225547396
 20
1052.365537305944
 30
0.0
 11
1360.13225547396
 21
1052.366784789736
 31
0.0
  0
LINE
  5
110A
330
1F
100
AcDbEntity
  8
SANINDUSA
100
AcDbLine
 10
1360.140592297186
 20
1052.376003317523
 30
0.0
 11
1360.143968997594
 21
1052.402654300969
 31
0.0
  0
LINE
  5
110B
330
1F
100
AcDbEntity
  8
SANINDUSA
100
AcDbLine
 10
1360.136168571545
 20
1052.371565142544
 30
0.0
 11
1360.135800775236
 21
1052.371468329443
 31
0.0
  0
LWPOLYLINE
  5
110C
330
1F
100
AcDbEntity
  8
SANINDUSA
100
AcDbPolyline
 90
        9
 70
   128
 43
0.0
 10
1360.136168571545
 20
1052.371565142544
 10
1360.136997213286
 20
1052.371725652624
 10
1360.137786947661
 20
1052.372024523862
 10
1360.138515065519
 20
1052.372453162088
 10
1360.139160629519
 20
1052.372999241626
 10
1360.139705076188
 20
1052.373647059723
 10
1360.140132749732
 20
1052.374377988092
 10
1360.140431352212
 20
1052.375171008574
 10
1360.140592297186
 20
1052.376003317523
  0
LINE
  5
110D
330
1F
100
AcDbEntity
  8
SANINDUSA
100
AcDbLine
 10
1360.453417685033
 20
1052.492654300968
 30
0.0
 11
1360.453417685033
 21
1052.407654300969
 31
0.0
  0
ARC
  5
110F
330
1F
100
AcDbEntity
  8
SANINDUSA
100
AcDbCircle
 10
1360.448417685033
 20
1052.407654300969
 30
0.0
 40
0.005
100
AcDbArc
 50
270.0
 51
0.0
  0
ARC
  5
1113
330
1F
100
AcDbEntity
  8
SANINDUSA
100
AcDbCircle
 10
1360.448417685033
 20
1052.492654300968
 30
0.0
 40
0.005
100
AcDbArc
 50
0.0
 51
90.0
  0
LWPOLYLINE
  5
1115
330
1F
100
AcDbEntity
  8
SANINDUSA
100
AcDbPolyline
 90
        3
 70
   128
 43
0.0
 10
1360.06831653033
 20
1052.367654300969
 10
1360.068424620865
 20
1052.36697046954
 10
1360.068427191098
 20
1052.36678676951
  0
LWPOLYLINE
  5
1116
330
1F
100
AcDbEntity
  8
SANINDUSA
100
AcDbPolyline
 90
        9
 70
   128
 43
0.0
 10
1360.132338170186
 20
1052.367654300969
 10
1360.13261117811
 20
1052.368617650979
 10
1360.133049969778
 20
1052.369462583002
 10
1360.133572922136
 20
1052.370132307183
 10
1360.134111223453
 20
1052.370628059319
 10
1360.134617469476
 20
1052.370975559969
 10
1360.135070409233
 20
1052.371209448252
 10
1360.135466495076
 20
1052.371360203031
 10
1360.135800775236
 20
1052.371468329443
  0
LINE
  5
1148
330
1F
100
AcDbEntity
  8
SANINDUSA
100
AcDbLine
 10
1360.056694118589
 20
1052.402654300969
 30
0.0
 11
1360.060086299412
 21
1052.376001220178
 31
0.0
  0
LINE
  5
1158
330
1F
100
AcDbEntity
  8
SANINDUSA
100
AcDbLine
 10
1358.961683118947
 20
1052.499021786395
 30
0.0
 11
1358.961683118947
 21
1052.338979350188
 31
0.0
  0
LINE
  5
1159
330
1F
100
AcDbEntity
  8
SANINDUSA
100
AcDbLine
 10
1361.602924429486
 20
1052.495654300968
 30
0.0
 11
1361.928444275972
 21
1052.495654300968
 31
0.0
  0
LINE
  5
115B
330
1F
100
AcDbEntity
  8
SANINDUSA
100
AcDbLine
 10
1361.856726788937
 20
1052.411654300969
 30
0.0
 11
1361.684685041189
 21
1052.411654300969
 31
0.0
  0
LINE
  5
115C
330
1F
100
AcDbEntity
  8
SANINDUSA
100
AcDbLine
 10
1361.508589684215
 20
1052.400654300968
 30
0.0
 11
1361.486684352729
 21
1052.400654300968
 31
0.0
  0
LINE
  5
115F
330
1F
100
AcDbEntity
  8
SANINDUSA
100
AcDbLine
 10
1361.571279013786
 20
1052.495654300968
 30
0.0
 11
1361.602924429486
 21
1052.495654300968
 31
0.0
  0
LINE
  5
1160
330
1F
100
AcDbEntity
  8
SANINDUSA
100
AcDbLine
 10
1361.571279013786
 20
1052.483654300969
 30
0.0
 11
1361.594927925162
 21
1052.483654300969
 31
0.0
  0
LINE
  5
1162
330
1F
100
AcDbEntity
  8
SANINDUSA
100
AcDbLine
 10
1361.515217726452
 20
1052.436588267823
 30
0.0
 11
1361.517436027889
 21
1052.47891598075
 31
0.0
  0
LINE
  5
1163
330
1F
100
AcDbEntity
  8
SANINDUSA
100
AcDbLine
 10
1361.485684352729
 20
1052.436640603779
 30
0.0
 11
1361.485684352729
 21
1052.494654300969
 31
0.0
  0
LINE
  5
1165
330
1F
100
AcDbEntity
  8
SANINDUSA
100
AcDbLine
 10
1361.486684352729
 20
1052.495654300968
 30
0.0
 11
1361.534279779434
 21
1052.495654300968
 31
0.0
  0
LINE
  5
1166
330
1F
100
AcDbEntity
  8
SANINDUSA
100
AcDbLine
 10
1361.571279013786
 20
1052.483654300969
 30
0.0
 11
1361.534279779434
 21
1052.483654300969
 31
0.0
  0
LINE
  5
1167
330
1F
100
AcDbEntity
  8
SANINDUSA
100
AcDbLine
 10
1361.534279779434
 20
1052.495654300968
 30
0.0
 11
1361.571279013786
 21
1052.495654300968
 31
0.0
  0
LINE
  5
1168
330
1F
100
AcDbEntity
  8
SANINDUSA
100
AcDbLine
 10
1361.535279801311
 20
1052.484654300968
 30
0.0
 11
1361.535279801311
 21
1052.494654300969
 31
0.0
  0
LWPOLYLINE
  5
1169
330
1F
100
AcDbEntity
  8
SANINDUSA
100
AcDbPolyline
 90
        7
 70
   128
 43
0.0
 10
1361.534279779434
 20
1052.495654300968
 10
1361.534436002511
 20
1052.495642023282
 10
1361.534638993384
 20
1052.495587559124
 10
1361.534927665884
 20
1052.495416049714
 10
1361.535143294696
 20
1052.495158655769
 10
1361.535261565582
 20
1052.494844401177
 10
1361.535279801311
 20
1052.494654300969
  0
ARC
  5
116C
330
1F
100
AcDbEntity
  8
SANINDUSA
100
AcDbCircle
 10
1361.522429175563
 20
1052.478654300969
 30
0.0
 40
0.005
100
AcDbArc
 50
90.0
 51
176.999999996727
  0
LINE
  5
116D
330
1F
100
AcDbEntity
  8
SANINDUSA
100
AcDbLine
 10
1361.522429175563
 20
1052.483654300969
 30
0.0
 11
1361.534279779434
 21
1052.483654300969
 31
0.0
  0
LWPOLYLINE
  5
116E
330
1F
100
AcDbEntity
  8
SANINDUSA
100
AcDbPolyline
 90
        7
 70
   128
 43
0.0
 10
1361.535279801311
 20
1052.484654300968
 10
1361.535229625239
 20
1052.484341519404
 10
1361.535072551864
 20
1052.484044760936
 10
1361.534826102243
 20
1052.483816718664
 10
1361.534638993384
 20
1052.483721042813
 10
1361.534309817163
 20
1052.483654752184
 10
1361.534279779434
 20
1052.483654300969
  0
LINE
  5
116F
330
1F
100
AcDbEntity
  8
SANINDUSA
100
AcDbLine
 10
1361.570278991909
 20
1052.494654300969
 30
0.0
 11
1361.570278991909
 21
1052.484654300968
 31
0.0
  0
LWPOLYLINE
  5
1170
330
1F
100
AcDbEntity
  8
SANINDUSA
100
AcDbPolyline
 90
        7
 70
   128
 43
0.0
 10
1361.570278991909
 20
1052.494654300969
 10
1361.570281460059
 20
1052.494724515598
 10
1361.570318159402
 20
1052.494931427574
 10
1361.570464054995
 20
1052.495233844688
 10
1361.570701827486
 20
1052.495470922182
 10
1361.571004674215
 20
1052.495615935495
 10
1361.571279013786
 20
1052.495654300968
  0
LWPOLYLINE
  5
1171
330
1F
100
AcDbEntity
  8
SANINDUSA
100
AcDbPolyline
 90
        7
 70
   128
 43
0.0
 10
1361.571279013786
 20
1052.483654300969
 10
1361.570974354182
 20
1052.483701837619
 10
1361.570676244257
 20
1052.483856375885
 10
1361.570522782127
 20
1052.483999978147
 10
1361.570348824243
 20
1052.484287170039
 10
1361.570279735142
 20
1052.484615753884
 10
1361.570278991909
 20
1052.484654300968
  0
LINE
  5
1175
330
1F
100
AcDbEntity
  8
SANINDUSA
100
AcDbLine
 10
1361.485684352729
 20
1052.436640603779
 30
0.0
 11
1361.485684352729
 21
1052.414654263447
 31
0.0
  0
LINE
  5
1176
330
1F
100
AcDbEntity
  8
SANINDUSA
100
AcDbLine
 10
1361.513582831889
 20
1052.405392621187
 30
0.0
 11
1361.514065472164
 21
1052.414601946252
 31
0.0
  0
LINE
  5
1177
330
1F
100
AcDbEntity
  8
SANINDUSA
100
AcDbLine
 10
1361.515217726452
 20
1052.436588267823
 30
0.0
 11
1361.514065472164
 21
1052.414601946252
 31
0.0
  0
LINE
  5
117B
330
1F
100
AcDbEntity
  8
SANINDUSA
100
AcDbLine
 10
1361.613661607796
 20
1052.46060054654
 30
0.0
 11
1361.625188377564
 21
1052.400466045124
 31
0.0
  0
LINE
  5
117C
330
1F
100
AcDbEntity
  8
SANINDUSA
100
AcDbLine
 10
1361.59983852527
 20
1052.479595580193
 30
0.0
 11
1361.620156852014
 21
1052.37359602672
 31
0.0
  0
ARC
  5
1181
330
1F
100
AcDbEntity
  8
SANINDUSA
100
AcDbCircle
 10
1361.602924429486
 20
1052.490654300969
 30
0.0
 40
0.0050000000000001
100
AcDbArc
 50
32.2039531094668
 51
90.0
  0
ARC
  5
1185
330
1F
100
AcDbEntity
  8
SANINDUSA
100
AcDbCircle
 10
1361.594927925162
 20
1052.478654300969
 30
0.0
 40
0.005
100
AcDbArc
 50
10.85101477090525
 51
90.0
  0
LINE
  5
1186
330
1F
100
AcDbEntity
  8
SANINDUSA
100
AcDbLine
 10
1361.681932343436
 20
1052.379537305944
 30
0.0
 11
1361.63593733252
 21
1052.379537305944
 31
0.0
  0
LINE
  5
1187
330
1F
100
AcDbEntity
  8
SANINDUSA
100
AcDbLine
 10
1361.63593733252
 20
1052.361537305944
 30
0.0
 11
1361.681932343436
 21
1052.361537305944
 31
0.0
  0
LINE
  5
1188
330
1F
100
AcDbEntity
  8
SANINDUSA
100
AcDbLine
 10
1361.684685041189
 20
1052.399654300969
 30
0.0
 11
1361.65488186819
 21
1052.399654300969
 31
0.0
  0
LINE
  5
1189
330
1F
100
AcDbEntity
  8
SANINDUSA
100
AcDbLine
 10
1361.684685041189
 20
1052.411654300969
 30
0.0
 11
1361.658936096556
 21
1052.411654300969
 31
0.0
  0
LWPOLYLINE
  5
118A
330
1F
100
AcDbEntity
  8
SANINDUSA
100
AcDbPolyline
 90
        4
 70
   128
 43
0.0
 10
1361.658936096556
 20
1052.411654300969
 10
1361.658493846221
 20
1052.412052597442
 10
1361.658097396753
 20
1052.412498115098
 10
1361.657751952596
 20
1052.412985005343
  0
ARC
  5
118B
330
1F
100
AcDbEntity
  8
SANINDUSA
100
AcDbCircle
 10
1361.625067452122
 20
1052.374537305944
 30
0.0
 40
0.0050000000000002
100
AcDbArc
 50
190.8510147709052
 51
250.9310268553371
  0
LINE
  5
118C
330
1F
100
AcDbEntity
  8
SANINDUSA
100
AcDbLine
 10
1361.636937332521
 20
1052.378537305944
 30
0.0
 11
1361.636937332521
 21
1052.362537305944
 31
0.0
  0
LINE
  5
118E
330
1F
100
AcDbEntity
  8
SANINDUSA
100
AcDbLine
 10
1361.630026586264
 20
1052.379537305944
 30
0.0
 11
1361.63593733252
 21
1052.379537305944
 31
0.0
  0
LINE
  5
118F
330
1F
100
AcDbEntity
  8
SANINDUSA
100
AcDbLine
 10
1361.625188377564
 20
1052.400466045124
 30
0.0
 11
1361.629044466243
 21
1052.380349050099
 31
0.0
  0
LINE
  5
1190
330
1F
100
AcDbEntity
  8
SANINDUSA
100
AcDbLine
 10
1361.63593733252
 20
1052.361537305944
 30
0.0
 11
1361.628908196532
 21
1052.361537305944
 31
0.0
  0
LINE
  5
1191
330
1F
100
AcDbEntity
  8
SANINDUSA
100
AcDbLine
 10
1361.685685041188
 20
1052.400654300968
 30
0.0
 11
1361.685685041188
 21
1052.410654300969
 31
0.0
  0
LINE
  5
1192
330
1F
100
AcDbEntity
  8
SANINDUSA
100
AcDbLine
 10
1361.696035722854
 20
1052.369537305944
 30
0.0
 11
1361.717045395799
 21
1052.369537305944
 31
0.0
  0
LINE
  5
1193
330
1F
100
AcDbEntity
  8
SANINDUSA
100
AcDbLine
 10
1361.681932343436
 20
1052.379537305944
 30
0.0
 11
1361.71678746404
 21
1052.379537305944
 31
0.0
  0
LINE
  5
1194
330
1F
100
AcDbEntity
  8
SANINDUSA
100
AcDbLine
 10
1361.680932343436
 20
1052.362537305944
 30
0.0
 11
1361.680932343436
 21
1052.378537305944
 31
0.0
  0
LINE
  5
1195
330
1F
100
AcDbEntity
  8
SANINDUSA
100
AcDbLine
 10
1361.688961479425
 20
1052.361537305944
 30
0.0
 11
1361.681932343436
 21
1052.361537305944
 31
0.0
  0
LINE
  5
1196
330
1F
100
AcDbEntity
  8
SANINDUSA
100
AcDbLine
 10
1361.873616752862
 20
1052.412985005343
 30
0.0
 11
1361.92421349398
 21
1052.493318974258
 31
0.0
  0
LINE
  5
1198
330
1F
100
AcDbEntity
  8
SANINDUSA
100
AcDbLine
 10
1361.845726788937
 20
1052.410654300969
 30
0.0
 11
1361.845726788937
 21
1052.400654300968
 31
0.0
  0
LINE
  5
1199
330
1F
100
AcDbEntity
  8
SANINDUSA
100
AcDbLine
 10
1361.872432608903
 20
1052.411654300969
 30
0.0
 11
1361.846726788937
 21
1052.411654300969
 31
0.0
  0
LINE
  5
119C
330
1F
100
AcDbEntity
  8
SANINDUSA
100
AcDbLine
 10
1361.935684352729
 20
1052.490654300969
 30
0.0
 11
1361.935684352729
 21
1052.405654300969
 31
0.0
  0
LINE
  5
11A0
330
1F
100
AcDbEntity
  8
SANINDUSA
100
AcDbLine
 10
1361.928444275972
 20
1052.495654300968
 30
0.0
 11
1361.930684352729
 21
1052.495654300968
 31
0.0
  0
ARC
  5
11A1
330
1F
100
AcDbEntity
  8
SANINDUSA
100
AcDbCircle
 10
1361.930684352729
 20
1052.490654300969
 30
0.0
 40
0.005
100
AcDbArc
 50
0.0
 51
90.0
  0
ARC
  5
11A2
330
1F
100
AcDbEntity
  8
SANINDUSA
100
AcDbCircle
 10
1361.928444275972
 20
1052.490654300969
 30
0.0
 40
0.0050000000000001
100
AcDbArc
 50
90.0
 51
147.7960468905332
  0
LINE
  5
11A4
330
1F
100
AcDbEntity
  8
SANINDUSA
100
AcDbLine
 10
1361.495684352729
 20
1052.436640603779
 30
0.0
 11
1361.495684352729
 21
1052.482654300969
 31
0.0
  0
LINE
  5
11A5
330
1F
100
AcDbEntity
  8
SANINDUSA
100
AcDbLine
 10
1361.505209488615
 20
1052.436692939735
 30
0.0
 11
1361.507449732542
 21
1052.479439340312
 31
0.0
  0
ARC
  5
11A6
330
1F
100
AcDbEntity
  8
SANINDUSA
100
AcDbCircle
 10
1361.522429175563
 20
1052.478654300969
 30
0.0
 40
0.015
100
AcDbArc
 50
165.5224878101442
 51
176.999999996727
  0
ARC
  5
11A7
330
1F
100
AcDbEntity
  8
SANINDUSA
100
AcDbCircle
 10
1361.506937242178
 20
1052.482654300969
 30
0.0
 40
0.001
100
AcDbArc
 50
345.5224878101442
 51
90.0
  0
LINE
  5
11A8
330
1F
100
AcDbEntity
  8
SANINDUSA
100
AcDbLine
 10
1361.496684352729
 20
1052.483654300969
 30
0.0
 11
1361.506937242178
 21
1052.483654300969
 31
0.0
  0
LINE
  5
11A9
330
1F
100
AcDbEntity
  8
SANINDUSA
100
AcDbLine
 10
1361.505209488615
 20
1052.436692939735
 30
0.0
 11
1361.504057234327
 21
1052.414706618164
 31
0.0
  0
LINE
  5
11AA
330
1F
100
AcDbEntity
  8
SANINDUSA
100
AcDbLine
 10
1361.495684352729
 20
1052.436640603779
 30
0.0
 11
1361.495684352729
 21
1052.414654263447
 31
0.0
  0
LINE
  5
11AB
330
1F
100
AcDbEntity
  8
SANINDUSA
100
AcDbLine
 10
1361.50389452635
 20
1052.411601965012
 30
0.0
 11
1361.504057234327
 21
1052.414706618164
 31
0.0
  0
LINE
  5
11AC
330
1F
100
AcDbEntity
  8
SANINDUSA
100
AcDbLine
 10
1361.495684352729
 20
1052.411654300969
 30
0.0
 11
1361.495684352729
 21
1052.414654263447
 31
0.0
  0
ARC
  5
11AD
330
1F
100
AcDbEntity
  8
SANINDUSA
100
AcDbCircle
 10
1361.496684352729
 20
1052.482654300969
 30
0.0
 40
0.001
100
AcDbArc
 50
90.0
 51
180.0
  0
ARC
  5
11AE
330
1F
100
AcDbEntity
  8
SANINDUSA
100
AcDbCircle
 10
1361.486684352729
 20
1052.494654300969
 30
0.0
 40
0.001
100
AcDbArc
 50
90.0
 51
180.0
  0
LINE
  5
11AF
330
1F
100
AcDbEntity
  8
SANINDUSA
100
AcDbLine
 10
1361.615489884216
 20
1052.461321737043
 30
0.0
 11
1361.654035711792
 21
1052.400121366311
 31
0.0
  0
ARC
  5
11B0
330
1F
100
AcDbEntity
  8
SANINDUSA
100
AcDbCircle
 10
1361.614643727818
 20
1052.460788802385
 30
0.0
 40
0.001
100
AcDbArc
 50
32.2039531094668
 51
190.8510147709052
  0
ARC
  5
11B1
330
1F
100
AcDbEntity
  8
SANINDUSA
100
AcDbCircle
 10
1361.630026586264
 20
1052.380537305944
 30
0.0
 40
0.001
100
AcDbArc
 50
190.8510147709052
 51
270.0
  0
ARC
  5
11B2
330
1F
100
AcDbEntity
  8
SANINDUSA
100
AcDbCircle
 10
1361.63593733252
 20
1052.378537305944
 30
0.0
 40
0.001
100
AcDbArc
 50
0.0
 51
90.0
  0
ARC
  5
11B3
330
1F
100
AcDbEntity
  8
SANINDUSA
100
AcDbCircle
 10
1361.63593733252
 20
1052.362537305944
 30
0.0
 40
0.001
100
AcDbArc
 50
270.0
 51
0.0
  0
ARC
  5
11B4
330
1F
100
AcDbEntity
  8
SANINDUSA
100
AcDbCircle
 10
1361.681932343436
 20
1052.378537305944
 30
0.0
 40
0.001
100
AcDbArc
 50
90.0
 51
180.0
  0
ARC
  5
11B5
330
1F
100
AcDbEntity
  8
SANINDUSA
100
AcDbCircle
 10
1361.681932343436
 20
1052.362537305944
 30
0.0
 40
0.001
100
AcDbArc
 50
180.0
 51
270.0
  0
ARC
  5
11B6
330
1F
100
AcDbEntity
  8
SANINDUSA
100
AcDbCircle
 10
1361.684685041189
 20
1052.410654300969
 30
0.0
 40
0.001
100
AcDbArc
 50
0.0
 51
90.0
  0
ARC
  5
11B7
330
1F
100
AcDbEntity
  8
SANINDUSA
100
AcDbCircle
 10
1361.846726788937
 20
1052.400654300968
 30
0.0
 40
0.001
100
AcDbArc
 50
180.0
 51
270.0
  0
ARC
  5
11B8
330
1F
100
AcDbEntity
  8
SANINDUSA
100
AcDbCircle
 10
1361.846726788937
 20
1052.410654300969
 30
0.0
 40
0.001
100
AcDbArc
 50
90.0
 51
180.0
  0
LINE
  5
11B9
330
1F
100
AcDbEntity
  8
SANINDUSA
100
AcDbLine
 10
1361.925684352729
 20
1052.473426141803
 30
0.0
 11
1361.925684352729
 21
1052.411654300969
 31
0.0
  0
LINE
  5
11BA
330
1F
100
AcDbEntity
  8
SANINDUSA
100
AcDbLine
 10
1361.892853957798
 20
1052.424764468267
 30
0.0
 11
1361.923838196331
 21
1052.473959076461
 31
0.0
  0
ARC
  5
11BB
330
1F
100
AcDbEntity
  8
SANINDUSA
100
AcDbCircle
 10
1361.924684352729
 20
1052.473426141803
 30
0.0
 40
0.001
100
AcDbArc
 50
0.0
 51
147.7960468905332
  0
LINE
  5
11C4
330
1F
100
AcDbEntity
  8
SANINDUSA
100
AcDbLine
 10
1361.607155211478
 20
1052.493318974258
 30
0.0
 11
1361.657751952596
 21
1052.412985005343
 31
0.0
  0
LINE
  5
11DD
330
1F
100
AcDbEntity
  8
SANINDUSA
100
AcDbLine
 10
1361.930684352729
 20
1052.400654300968
 30
0.0
 11
1361.874899355561
 21
1052.400654300968
 31
0.0
  0
ARC
  5
11DE
330
1F
100
AcDbEntity
  8
SANINDUSA
100
AcDbCircle
 10
1361.930684352729
 20
1052.405654300969
 30
0.0
 40
0.005
100
AcDbArc
 50
270.0
 51
0.0
  0
LINE
  5
11DF
330
1F
100
AcDbEntity
  8
SANINDUSA
100
AcDbLine
 10
1361.924684352729
 20
1052.410654300969
 30
0.0
 11
1361.909043636078
 21
1052.410654300969
 31
0.0
  0
ARC
  5
11E0
330
1F
100
AcDbEntity
  8
SANINDUSA
100
AcDbCircle
 10
1361.924684352729
 20
1052.411654300969
 30
0.0
 40
0.001
100
AcDbArc
 50
270.0
 51
0.0
  0
LINE
  5
11EB
330
1F
100
AcDbEntity
  8
SANINDUSA
100
AcDbLine
 10
1361.690957749021
 20
1052.363415208865
 30
0.0
 11
1361.691045048862
 21
1052.364842548642
 31
0.0
  0
ARC
  5
11EC
330
1F
100
AcDbEntity
  8
SANINDUSA
100
AcDbCircle
 10
1361.688961479425
 20
1052.363537305944
 30
0.0
 40
0.002
100
AcDbArc
 50
270.0
 51
356.500000004172
  0
ARC
  5
11ED
330
1F
100
AcDbEntity
  8
SANINDUSA
100
AcDbCircle
 10
1361.696035722854
 20
1052.364537305944
 30
0.0
 40
0.005
100
AcDbArc
 50
90.0
 51
176.500000004172
  0
ARC
  5
11EE
330
1F
100
AcDbEntity
  8
SANINDUSA
100
AcDbCircle
 10
1361.628908196532
 20
1052.363537305944
 30
0.0
 40
0.002
100
AcDbArc
 50
183.4999999958279
 51
270.0
  0
LINE
  5
11EF
330
1F
100
AcDbEntity
  8
SANINDUSA
100
AcDbLine
 10
1361.626911926935
 20
1052.363415208865
 30
0.0
 11
1361.626791064699
 21
1052.365391288953
 31
0.0
  0
ARC
  5
11F0
330
1F
100
AcDbEntity
  8
SANINDUSA
100
AcDbCircle
 10
1361.621800390707
 20
1052.365086046255
 30
0.0
 40
0.005
100
AcDbArc
 50
3.499999995827975
 51
70.93102685533714
  0
LINE
  5
11F1
330
1F
100
AcDbEntity
  8
hid
 62
     9
 48
0.3
100
AcDbLine
 10
1361.508589684215
 20
1052.400654300968
 30
0.0
 11
1361.513334507049
 21
1052.400654300968
 31
0.0
  0
ARC
  5
1205
330
1F
100
AcDbEntity
  8
SANINDUSA
100
AcDbCircle
 10
1361.508589684215
 20
1052.405654300969
 30
0.0
 40
0.005
100
AcDbArc
 50
270.0
 51
356.999999996727
  0
LINE
  5
1206
330
1F
100
AcDbEntity
  8
SANINDUSA
100
AcDbLine
 10
1361.508589684215
 20
1052.400654300968
 30
0.0
 11
1361.540553722117
 21
1052.400654300968
 31
0.0
  0
LINE
  5
1207
330
1F
100
AcDbEntity
  8
SANINDUSA
100
AcDbLine
 10
1361.540553722117
 20
1052.400654300968
 30
0.0
 11
1361.614970237172
 21
1052.400654300968
 31
0.0
  0
LINE
  5
1208
330
1F
100
AcDbEntity
  8
SANINDUSA
100
AcDbLine
 10
1361.485684352729
 20
1052.401654300969
 30
0.0
 11
1361.485684352729
 21
1052.414654263447
 31
0.0
  0
ARC
  5
1209
330
1F
100
AcDbEntity
  8
SANINDUSA
100
AcDbCircle
 10
1361.486684352729
 20
1052.401654300969
 30
0.0
 40
0.001
100
AcDbArc
 50
180.0
 51
270.0
  0
LINE
  5
121A
330
1F
100
AcDbEntity
  8
SANINDUSA
100
AcDbLine
 10
1361.502895896815
 20
1052.410654300969
 30
0.0
 11
1361.496684352729
 21
1052.410654300969
 31
0.0
  0
ARC
  5
121B
330
1F
100
AcDbEntity
  8
SANINDUSA
100
AcDbCircle
 10
1361.496684352729
 20
1052.411654300969
 30
0.0
 40
0.001
100
AcDbArc
 50
180.0
 51
270.0
  0
ARC
  5
121C
330
1F
100
AcDbEntity
  8
SANINDUSA
100
AcDbCircle
 10
1361.502895896815
 20
1052.411654300969
 30
0.0
 40
0.001
100
AcDbArc
 50
270.0
 51
356.999999996727
  0
LINE
  5
124F
330
1F
100
AcDbEntity
  8
hatch
100
AcDbLine
 10
1361.63636741699
 20
1052.361634517293
 30
0.0
 11
1361.636840121172
 21
1052.362107221475
 31
0.0
  0
LINE
  5
1251
330
1F
100
AcDbEntity
  8
SANINDUSA
100
AcDbLine
 10
1361.717115977576
 20
1052.369540949425
 30
0.0
 11
1361.855679208848
 21
1052.376693679659
 31
0.0
  0
LINE
  5
1252
330
1F
100
AcDbEntity
  8
SANINDUSA
100
AcDbLine
 10
1361.872499843241
 20
1052.411654300969
 30
0.0
 11
1361.846726788937
 21
1052.411654300969
 31
0.0
  0
LINE
  5
1253
330
1F
100
AcDbEntity
  8
SANINDUSA
100
AcDbLine
 10
1361.874899355561
 20
1052.400654300968
 30
0.0
 11
1361.870208213115
 21
1052.400654300968
 31
0.0
  0
ARC
  5
1255
330
1F
100
AcDbEntity
  8
SANINDUSA
100
AcDbCircle
 10
1361.930684352729
 20
1052.405654300969
 30
0.0
 40
0.005
100
AcDbArc
 50
270.0
 51
0.0
  0
LINE
  5
1256
330
1F
100
AcDbEntity
  8
SANINDUSA
100
AcDbLine
 10
1361.716729251421
 20
1052.379534300968
 30
0.0
 11
1361.850978901631
 21
1052.386464361153
 31
0.0
  0
ARC
  5
1258
330
1F
100
AcDbEntity
  8
SANINDUSA
100
AcDbCircle
 10
1361.855421448574
 20
1052.381687031203
 30
0.0
 40
0.0049999999999999
100
AcDbArc
 50
272.9550250417572
 51
342.8153894953542
  0
LINE
  5
1259
330
1F
100
AcDbEntity
  8
SANINDUSA
100
AcDbLine
 10
1361.879132469536
 20
1052.402993333837
 30
0.0
 11
1361.88409955921
 21
1052.410895068683
 31
0.0
  0
LINE
  5
125A
330
1F
100
AcDbEntity
  8
SANINDUSA
100
AcDbLine
 10
1361.89929448687
 20
1052.404614742515
 30
0.0
 11
1361.898304203387
 21
1052.409273660005
 31
0.0
  0
LINE
  5
125B
330
1F
100
AcDbEntity
  8
SANINDUSA
100
AcDbLine
 10
1361.930684352729
 20
1052.400654300968
 30
0.0
 11
1361.904185224874
 21
1052.400654300968
 31
0.0
  0
ARC
  5
125C
330
1F
100
AcDbEntity
  8
SANINDUSA
100
AcDbCircle
 10
1361.904185224874
 20
1052.405654300969
 30
0.0
 40
0.005
100
AcDbArc
 50
191.9999999939919
 51
270.0
  0
ARC
  5
125D
330
1F
100
AcDbEntity
  8
SANINDUSA
100
AcDbCircle
 10
1361.930684352729
 20
1052.405654300969
 30
0.0
 40
0.005
100
AcDbArc
 50
270.0
 51
0.0
  0
ARC
  5
125E
330
1F
100
AcDbEntity
  8
SANINDUSA
100
AcDbCircle
 10
1361.893413465383
 20
1052.408234101551
 30
0.0
 40
0.0050000000000002
100
AcDbArc
 50
11.99999999399198
 51
90.0
  0
ARC
  5
125F
330
1F
100
AcDbEntity
  8
SANINDUSA
100
AcDbCircle
 10
1361.888332673184
 20
1052.408234101551
 30
0.0
 40
0.005
100
AcDbArc
 50
90.0
 51
147.8462240458288
  0
LINE
  5
1260
330
1F
100
AcDbEntity
  8
SANINDUSA
100
AcDbLine
 10
1361.888332673184
 20
1052.413234101551
 30
0.0
 11
1361.893413465383
 21
1052.413234101551
 31
0.0
  0
ARC
  5
1261
330
1F
100
AcDbEntity
  8
SANINDUSA
100
AcDbCircle
 10
1361.868865509115
 20
1052.415838633584
 30
0.0
 40
0.0055422941073707
100
AcDbArc
 50
310.9761978814208
 51
329.0114524098779
  0
LINE
  5
1262
330
1F
100
AcDbEntity
  8
SANINDUSA
100
AcDbLine
 10
1361.924684352729
 20
1052.410654300969
 30
0.0
 11
1361.909043636078
 21
1052.410654300969
 31
0.0
  0
ARC
  5
1263
330
1F
100
AcDbEntity
  8
SANINDUSA
100
AcDbCircle
 10
1361.893413465383
 20
1052.408234101551
 30
0.0
 40
0.0150000000000002
100
AcDbArc
 50
12.34293389078099
 51
88.97345962830597
  0
ARC
  5
1264
330
1F
100
AcDbEntity
  8
SANINDUSA
100
AcDbCircle
 10
1361.924684352729
 20
1052.411654300969
 30
0.0
 40
0.001
100
AcDbArc
 50
270.0
 51
0.0
  0
ARC
  5
1265
330
1F
100
AcDbEntity
  8
SANINDUSA
100
AcDbCircle
 10
1361.909043636078
 20
1052.411654300969
 30
0.0
 40
0.001
100
AcDbArc
 50
192.342933890781
 51
270.0
  0
ARC
  5
1266
330
1F
100
AcDbEntity
  8
SANINDUSA
100
AcDbCircle
 10
1361.893700114196
 20
1052.424231533609
 30
0.0
 40
0.001
100
AcDbArc
 50
147.7960468905332
 51
268.973459628306
  0
LINE
  5
1267
330
1F
100
AcDbEntity
  8
SANINDUSA
100
AcDbLine
 10
1361.855343690229
 20
1052.398358849514
 30
0.0
 11
1361.85188270733
 21
1052.387167580008
 31
0.0
  0
ARC
  5
1268
330
1F
100
AcDbEntity
  8
SANINDUSA
100
AcDbCircle
 10
1361.850927349576
 20
1052.387463031462
 30
0.0
 40
0.001
100
AcDbArc
 50
272.9550250417572
 51
342.8153894953542
  0
LINE
  5
1269
330
1F
100
AcDbEntity
  8
SANINDUSA
100
AcDbLine
 10
1361.865431424345
 20
1052.397131558239
 30
0.0
 11
1361.860198237344
 21
1052.380209773933
 31
0.0
  0
LINE
  5
126A
330
1F
100
AcDbEntity
  8
SANINDUSA
100
AcDbLine
 10
1361.846726788937
 20
1052.399654300969
 30
0.0
 11
1361.854388332475
 21
1052.399654300969
 31
0.0
  0
LINE
  5
126B
330
1F
100
AcDbEntity
  8
SANINDUSA
100
AcDbLine
 10
1361.847579467882
 20
1052.399654300969
 30
0.0
 11
1361.854388332475
 21
1052.399654300969
 31
0.0
  0
LINE
  5
126D
330
1F
100
AcDbEntity
  8
SANINDUSA
100
AcDbLine
 10
1361.684685041189
 20
1052.399654300969
 30
0.0
 11
1361.846726788937
 21
1052.399654300969
 31
0.0
  0
ARC
  5
127C
330
1F
100
AcDbEntity
  8
SANINDUSA
100
AcDbCircle
 10
1361.65488186819
 20
1052.400654300968
 30
0.0
 40
0.001
100
AcDbArc
 50
212.2039531094668
 51
270.0
  0
ARC
  5
127D
330
1F
100
AcDbEntity
  8
SANINDUSA
100
AcDbCircle
 10
1361.684685041189
 20
1052.400654300968
 30
0.0
 40
0.001
100
AcDbArc
 50
270.0
 51
0.0
  0
ARC
  5
127E
330
1F
100
AcDbEntity
  8
SANINDUSA
100
AcDbCircle
 10
1361.870208213115
 20
1052.395654300968
 30
0.0
 40
0.005
100
AcDbArc
 50
90.0
 51
162.8153894953541
  0
ARC
  5
127F
330
1F
100
AcDbEntity
  8
SANINDUSA
100
AcDbCircle
 10
1361.874899355561
 20
1052.405654300969
 30
0.0
 40
0.005
100
AcDbArc
 50
270.0
 51
327.8462240458289
  0
ARC
  5
1280
330
1F
100
AcDbEntity
  8
SANINDUSA
100
AcDbCircle
 10
1361.854388332475
 20
1052.398654300969
 30
0.0
 40
0.001
100
AcDbArc
 50
342.8153894953542
 51
90.0
  0
LINE
  5
1595
330
1F
100
AcDbEntity
  8
SANINDUSA
100
AcDbLine
 10
1360.887867833108
 20
1052.363537305944
 30
0.0
 11
1360.947696115969
 21
1052.363537305944
 31
0.0
  0
LINE
  5
159A
330
1F
100
AcDbEntity
  8
SANINDUSA
100
AcDbLine
 10
1360.74453148929
 20
1052.402654300969
 30
0.0
 11
1361.18953148929
 21
1052.402654300969
 31
0.0
  0
LINE
  5
159C
330
1F
100
AcDbEntity
  8
SANINDUSA
100
AcDbLine
 10
1361.18953148929
 20
1052.497654300969
 30
0.0
 11
1360.74453148929
 21
1052.497654300969
 31
0.0
  0
LINE
  5
159D
330
1F
100
AcDbEntity
  8
SANINDUSA
100
AcDbLine
 10
1361.19453148929
 20
1052.407654300969
 30
0.0
 11
1361.19453148929
 21
1052.492654300968
 31
0.0
  0
ARC
  5
15A0
330
1F
100
AcDbEntity
  8
SANINDUSA
100
AcDbCircle
 10
1361.18953148929
 20
1052.407654300969
 30
0.0
 40
0.005
100
AcDbArc
 50
270.0
 51
0.0
  0
ARC
  5
15A3
330
1F
100
AcDbEntity
  8
SANINDUSA
100
AcDbCircle
 10
1361.18953148929
 20
1052.492654300968
 30
0.0
 40
0.005
100
AcDbArc
 50
0.0
 51
90.0
  0
LINE
  5
15AF
330
1F
100
AcDbEntity
  8
SANINDUSA
100
AcDbLine
 10
1360.949696115969
 20
1052.366537305944
 30
0.0
 11
1360.949696115969
 21
1052.365537305944
 31
0.0
  0
ARC
  5
15B0
330
1F
100
AcDbEntity
  8
SANINDUSA
100
AcDbCircle
 10
1360.947696115969
 20
1052.365537305944
 30
0.0
 40
0.0020000000000002
100
AcDbArc
 50
270.0
 51
0.0
  0
ARC
  5
15B1
330
1F
100
AcDbEntity
  8
SANINDUSA
100
AcDbCircle
 10
1360.954696115969
 20
1052.366537305944
 30
0.0
 40
0.005
100
AcDbArc
 50
90.0
 51
180.0
  0
LINE
  5
15B7
330
1F
100
AcDbEntity
  8
SANINDUSA
100
AcDbLine
 10
1360.74453148929
 20
1052.422654300968
 30
0.0
 11
1360.74453148929
 21
1052.492654300968
 31
0.0
  0
ARC
  5
15BD
330
1F
100
AcDbEntity
  8
SANINDUSA
100
AcDbCircle
 10
1360.883914588683
 20
1052.376537305944
 30
0.0
 40
0.005
100
AcDbArc
 50
190.8510147709052
 51
261.8048446857845
  0
LINE
  5
15BE
330
1F
100
AcDbEntity
  8
SANINDUSA
100
AcDbLine
 10
1360.885867833108
 20
1052.365537305944
 30
0.0
 11
1360.885867833108
 21
1052.36699464166
 31
0.0
  0
ARC
  5
15BF
330
1F
100
AcDbEntity
  8
SANINDUSA
100
AcDbCircle
 10
1360.887867833108
 20
1052.365537305944
 30
0.0
 40
0.0020000000000002
100
AcDbArc
 50
180.0
 51
270.0
  0
LINE
  5
15C0
330
1F
100
AcDbEntity
  8
SANINDUSA
100
AcDbLine
 10
1360.74453148929
 20
1052.492654300968
 30
0.0
 11
1360.74453148929
 21
1052.402654300969
 31
0.0
  0
LINE
  5
15C1
330
1F
100
AcDbEntity
  8
SANINDUSA
100
AcDbLine
 10
1360.74453148929
 20
1052.497654300969
 30
0.0
 11
1360.74453148929
 21
1052.492654300968
 31
0.0
  0
ARC
  5
15C2
330
1F
100
AcDbEntity
  8
SANINDUSA
100
AcDbCircle
 10
1360.880891225176
 20
1052.367176923859
 30
0.0
 40
0.0049799451110905
100
AcDbArc
 50
357.9023193949685
 51
62.35522041040083
  0
LINE
  5
15C3
330
1F
100
AcDbEntity
  8
SANINDUSA
100
AcDbLine
 10
1360.883296827258
 20
1052.371537305944
 30
0.0
 11
1360.97589253236
 21
1052.371537305944
 31
0.0
  0
LINE
  5
15CC
330
1F
100
AcDbEntity
  8
SANINDUSA
100
AcDbLine
 10
1360.873817373732
 20
1052.402654300969
 30
0.0
 11
1360.879003988575
 21
1052.37559602672
 31
0.0
  0
LINE
  5
15D3
330
1F
100
AcDbEntity
  8
SANINDUSA
100
AcDbLine
 10
1360.97589253236
 20
1052.371537305944
 30
0.0
 11
1361.114526345409
 21
1052.378693679659
 31
0.0
  0
ARC
  5
15D4
330
1F
100
AcDbEntity
  8
SANINDUSA
100
AcDbCircle
 10
1361.114268585134
 20
1052.383687031203
 30
0.0
 40
0.0049999999999999
100
AcDbArc
 50
272.9550250417572
 51
342.8153894953542
  0
LINE
  5
15D5
330
1F
100
AcDbEntity
  8
SANINDUSA
100
AcDbLine
 10
1361.124587818304
 20
1052.400131558239
 30
0.0
 11
1361.119045373904
 21
1052.382209773933
 31
0.0
  0
ARC
  5
15D6
330
1F
100
AcDbEntity
  8
SANINDUSA
100
AcDbCircle
 10
1361.129364607074
 20
1052.398654300969
 30
0.0
 40
0.005
100
AcDbArc
 50
126.8698976484495
 51
162.8153894953541
  0
ENDSEC
  0
SECTION
  2
OBJECTS
  0
DICTIONARY
  5
C
330
0
100
AcDbDictionary
281
     1
  3
ACAD_COLOR
350
BA9
  3
ACAD_GROUP
350
D
  3
ACAD_LAYOUT
350
1A
  3
ACAD_MATERIAL
350
BA8
  3
ACAD_MLEADERSTYLE
350
179E
  3
ACAD_MLINESTYLE
350
17
  3
ACAD_PLOTSETTINGS
350
19
  3
ACAD_PLOTSTYLENAME
350
E
  3
ACAD_SCALELIST
350
178C
  3
ACAD_TABLESTYLE
350
BAA
  3
ACAD_VISUALSTYLE
350
1778
  3
ACDB_RECOMPOSE_DATA
350
17CA
  3
AcDbVariableDictionary
350
3D
  3
ASE_INDEX_DICTIONARY
350
B91
  3
DWGPROPS
350
17CB
  0
DICTIONARY
  5
17A5
330
10
100
AcDbDictionary
280
     1
281
     1
  3
ADSK_XREC_LAYER_RECONCILED
360
17A6
  0
DICTIONARY
  5
17A7
330
2F
100
AcDbDictionary
280
     1
281
     1
  3
ADSK_XREC_LAYER_RECONCILED
360
17A8
  0
DICTIONARY
  5
17A9
330
30
100
AcDbDictionary
280
     1
281
     1
  3
ADSK_XREC_LAYER_RECONCILED
360
17AA
  0
DICTIONARY
  5
17AB
330
31
100
AcDbDictionary
280
     1
281
     1
  3
ADSK_XREC_LAYER_RECONCILED
360
17AC
  0
DICTIONARY
  5
17AD
330
32
100
AcDbDictionary
280
     1
281
     1
  3
ADSK_XREC_LAYER_RECONCILED
360
17AE
  0
DICTIONARY
  5
17AF
330
33
100
AcDbDictionary
280
     1
281
     1
  3
ADSK_XREC_LAYER_RECONCILED
360
17B0
  0
DICTIONARY
  5
17B1
330
34
100
AcDbDictionary
280
     1
281
     1
  3
ADSK_XREC_LAYER_RECONCILED
360
17B2
  0
DICTIONARY
  5
17B3
330
35
100
AcDbDictionary
280
     1
281
     1
  3
ADSK_XREC_LAYER_RECONCILED
360
17B4
  0
DICTIONARY
  5
17B5
330
36
100
AcDbDictionary
280
     1
281
     1
  3
ADSK_XREC_LAYER_RECONCILED
360
17B6
  0
DICTIONARY
  5
17B7
330
37
100
AcDbDictionary
280
     1
281
     1
  3
ADSK_XREC_LAYER_RECONCILED
360
17B8
  0
DICTIONARY
  5
17B9
330
5D6
100
AcDbDictionary
280
     1
281
     1
  3
ADSK_XREC_LAYER_RECONCILED
360
17BA
  0
DICTIONARY
  5
17BB
330
8AF
100
AcDbDictionary
280
     1
281
     1
  3
ADSK_XREC_LAYER_RECONCILED
360
17BC
  0
DICTIONARY
  5
17BD
330
8F8
100
AcDbDictionary
280
     1
281
     1
  3
ADSK_XREC_LAYER_RECONCILED
360
17BE
  0
DICTIONARY
  5
17BF
330
91D
100
AcDbDictionary
280
     1
281
     1
  3
ADSK_XREC_LAYER_RECONCILED
360
17C0
  0
DICTIONARY
  5
17C1
330
BA5
100
AcDbDictionary
280
     1
281
     1
  3
ADSK_XREC_LAYER_RECONCILED
360
17C2
  0
DICTIONARY
  5
BA9
102
{ACAD_REACTORS
330
C
102
}
330
C
100
AcDbDictionary
281
     1
  0
DICTIONARY
  5
D
102
{ACAD_REACTORS
330
C
102
}
330
C
100
AcDbDictionary
281
     1
  0
DICTIONARY
  5
1A
102
{ACAD_REACTORS
330
C
102
}
330
C
100
AcDbDictionary
281
     1
  3
Layout1
350
1E
  3
Layout2
350
26
  3
Model
350
22
  0
DICTIONARY
  5
BA8
102
{ACAD_REACTORS
330
C
102
}
330
C
100
AcDbDictionary
281
     1
  3
ByBlock
350
1768
  3
ByLayer
350
1760
  3
Global
350
1770
  0
DICTIONARY
  5
179E
102
{ACAD_REACTORS
330
C
102
}
330
C
100
AcDbDictionary
281
     1
  3
Standard
350
179F
  0
DICTIONARY
  5
17
102
{ACAD_REACTORS
330
C
102
}
330
C
100
AcDbDictionary
281
     1
  3
Standard
350
18
  0
DICTIONARY
  5
19
102
{ACAD_REACTORS
330
C
102
}
330
C
100
AcDbDictionary
281
     1
  0
ACDBDICTIONARYWDFLT
  5
E
102
{ACAD_REACTORS
330
C
102
}
330
C
100
AcDbDictionary
281
     1
  3
Normal
350
F
100
AcDbDictionaryWithDefault
340
F
  0
DICTIONARY
  5
178C
102
{ACAD_REACTORS
330
C
102
}
330
C
100
AcDbDictionary
281
     1
  3
A0
350
178D
  3
A1
350
178E
  3
A2
350
178F
  3
A3
350
1790
  3
A4
350
1791
  3
A5
350
1792
  3
A6
350
1793
  3
A7
350
1794
  3
A8
350
1795
  3
A9
350
1796
  3
B0
350
1797
  3
B1
350
1798
  3
B2
350
1799
  3
B3
350
179A
  3
B4
350
179B
  3
B5
350
179C
  3
B6
350
179D
  0
DICTIONARY
  5
BAA
102
{ACAD_REACTORS
330
C
102
}
330
C
100
AcDbDictionary
281
     1
  3
Standard
350
BAB
  0
DICTIONARY
  5
1778
102
{ACAD_REACTORS
330
C
102
}
330
C
100
AcDbDictionary
281
     1
  3
2dWireframe
350
177E
  3
3D Hidden
350
1780
  3
3dWireframe
350
177F
  3
Basic
350
177D
  3
Brighten
350
1784
  3
ColorChange
350
1788
  3
Conceptual
350
1781
  3
Dim
350
1783
  3
EdgeColorOff
350
178B
  3
Facepattern
350
1787
  3
Flat
350
1779
  3
FlatWithEdges
350
177A
  3
Gouraud
350
177B
  3
GouraudWithEdges
350
177C
  3
JitterOff
350
1789
  3
Linepattern
350
1786
  3
OverhangOff
350
178A
  3
Realistic
350
1782
  3
Thicken
350
1785
  0
XRECORD
  5
17CA
102
{ACAD_REACTORS
330
C
102
}
330
C
100
AcDbXrecord
280
     1
 90
        1
330
BAB
  0
DICTIONARY
  5
3D
102
{ACAD_REACTORS
330
C
102
}
330
C
100
AcDbDictionary
281
     1
  3
CANNOSCALE
350
17C4
  3
CMLEADERSTYLE
350
17C3
  3
CTABLESTYLE
350
BB1
  3
DIMASSOC
350
3F
  3
HIDETEXT
350
3E
  3
INDEXCTL
350
17C6
  3
PROJECTNAME
350
175E
  3
SORTENTS
350
17C5
  3
XCLIPFRAME
350
17C7
  0
DICTIONARY
  5
B91
102
{ACAD_REACTORS
330
C
102
}
330
C
100
AcDbDictionary
281
     1
  3
ASEBlockHierarchyIndexRecord
350
B92
1001
DCO15
1040
1485069952.593
  0
XRECORD
  5
17CB
102
{ACAD_REACTORS
330
C
102
}
330
C
100
AcDbXrecord
280
     1
  1
DWGPROPS COOKIE
  2

  3

  4

  6

  7

  8
Julio
  9

300
=
301
=
302
=
303
=
304
=
305
=
306
=
307
=
308
=
309
=
 40
0.0044843981481482
 41
2453913.464765255
 42
2456146.406423611
  1

 90
        0
  0
XRECORD
  5
17A6
102
{ACAD_REACTORS
330
17A5
102
}
330
17A5
100
AcDbXrecord
280
     1
290
     1
  0
XRECORD
  5
17A8
102
{ACAD_REACTORS
330
17A7
102
}
330
17A7
100
AcDbXrecord
280
     1
290
     1
  0
XRECORD
  5
17AA
102
{ACAD_REACTORS
330
17A9
102
}
330
17A9
100
AcDbXrecord
280
     1
290
     1
  0
XRECORD
  5
17AC
102
{ACAD_REACTORS
330
17AB
102
}
330
17AB
100
AcDbXrecord
280
     1
290
     1
  0
XRECORD
  5
17AE
102
{ACAD_REACTORS
330
17AD
102
}
330
17AD
100
AcDbXrecord
280
     1
290
     1
  0
XRECORD
  5
17B0
102
{ACAD_REACTORS
330
17AF
102
}
330
17AF
100
AcDbXrecord
280
     1
290
     1
  0
XRECORD
  5
17B2
102
{ACAD_REACTORS
330
17B1
102
}
330
17B1
100
AcDbXrecord
280
     1
290
     1
  0
XRECORD
  5
17B4
102
{ACAD_REACTORS
330
17B3
102
}
330
17B3
100
AcDbXrecord
280
     1
290
     1
  0
XRECORD
  5
17B6
102
{ACAD_REACTORS
330
17B5
102
}
330
17B5
100
AcDbXrecord
280
     1
290
     1
  0
XRECORD
  5
17B8
102
{ACAD_REACTORS
330
17B7
102
}
330
17B7
100
AcDbXrecord
280
     1
290
     1
  0
XRECORD
  5
17BA
102
{ACAD_REACTORS
330
17B9
102
}
330
17B9
100
AcDbXrecord
280
     1
290
     1
  0
XRECORD
  5
17BC
102
{ACAD_REACTORS
330
17BB
102
}
330
17BB
100
AcDbXrecord
280
     1
290
     1
  0
XRECORD
  5
17BE
102
{ACAD_REACTORS
330
17BD
102
}
330
17BD
100
AcDbXrecord
280
     1
290
     1
  0
XRECORD
  5
17C0
102
{ACAD_REACTORS
330
17BF
102
}
330
17BF
100
AcDbXrecord
280
     1
290
     1
  0
XRECORD
  5
17C2
102
{ACAD_REACTORS
330
17C1
102
}
330
17C1
100
AcDbXrecord
280
     1
290
     1
  0
LAYOUT
  5
1E
102
{ACAD_XDICTIONARY
360
17CC
102
}
102
{ACAD_REACTORS
330
1A
102
}
330
1A
100
AcDbPlotSettings
  1

  2
Ploter HP500
  4

  6

 40
0.0
 41
0.0
 42
0.0
 43
0.0
 44
0.0
 45
0.0
 46
0.0
 47
0.0
 48
0.0
 49
0.0
140
0.0
141
0.0
142
1.0
143
1.0
 70
   688
 72
     0
 73
     0
 74
     5
  7
monochrome.ctb
 75
    16
147
1.0
148
0.0
149
0.0
100
AcDbLayout
  1
Layout1
 70
     1
 71
     1
 10
0.0
 20
0.0
 11
420.0
 21
297.0
 12
0.0
 22
0.0
 32
0.0
 14
1.000000000000000E+20
 24
1.000000000000000E+20
 34
1.000000000000000E+20
 15
-1.000000000000000E+20
 25
-1.000000000000000E+20
 35
-1.000000000000000E+20
146
0.0
 13
0.0
 23
0.0
 33
0.0
 16
1.0
 26
0.0
 36
0.0
 17
0.0
 27
1.0
 37
0.0
 76
     0
330
1B
  0
LAYOUT
  5
26
102
{ACAD_XDICTIONARY
360
17D0
102
}
102
{ACAD_REACTORS
330
1A
102
}
330
1A
100
AcDbPlotSettings
  1

  2
Ploter HP500
  4

  6

 40
0.0
 41
0.0
 42
0.0
 43
0.0
 44
0.0
 45
0.0
 46
0.0
 47
0.0
 48
0.0
 49
0.0
140
0.0
141
0.0
142
1.0
143
1.0
 70
   688
 72
     0
 73
     0
 74
     5
  7
monochrome.ctb
 75
    16
147
1.0
148
0.0
149
0.0
100
AcDbLayout
  1
Layout2
 70
     1
 71
     2
 10
0.0
 20
0.0
 11
12.0
 21
9.0
 12
0.0
 22
0.0
 32
0.0
 14
0.0
 24
0.0
 34
0.0
 15
0.0
 25
0.0
 35
0.0
146
0.0
 13
0.0
 23
0.0
 33
0.0
 16
1.0
 26
0.0
 36
0.0
 17
0.0
 27
1.0
 37
0.0
 76
     0
330
23
  0
LAYOUT
  5
22
102
{ACAD_XDICTIONARY
360
17CE
102
}
102
{ACAD_REACTORS
330
1A
102
}
330
1A
100
AcDbPlotSettings
  1

  2
Ploter HP500
  4
User268
  6

 40
4.995333194732666
 41
16.97565841674804
 42
4.995330810546875
 43
16.97567749023437
 44
209.9733276367187
 45
296.9259948730469
 46
0.0
 47
0.0
 48
0.0
 49
0.0
140
0.0
141
0.0
142
1.0
143
1.0
 70
 11952
 72
     1
 73
     1
 74
     0
  7
sanindusa.ctb
 75
     0
147
1.0
148
-427.5957866592534
149
7.362384574453926
100
AcDbLayout
  1
Model
 70
     1
 71
     0
 10
0.0
 20
0.0
 11
12.0
 21
9.0
 12
0.0
 22
0.0
 32
0.0
 14
0.0
 24
0.0
 34
0.0
 15
0.0
 25
0.0
 35
0.0
146
0.0
 13
0.0
 23
0.0
 33
0.0
 16
1.0
 26
0.0
 36
0.0
 17
0.0
 27
1.0
 37
0.0
 76
     0
330
1F
331
1756
  0
MATERIAL
  5
1768
102
{ACAD_XDICTIONARY
360
1769
102
}
102
{ACAD_REACTORS
330
BA8
102
}
330
BA8
100
AcDbMaterial
  1
ByBlock
 72
     0
 43
0.0008202099737533
 43
0.0
 43
0.0
 43
0.0
 43
0.0
 43
0.0008202099737533
 43
0.0
 43
0.0
 43
0.0
 43
0.0
 43
1.0
 43
0.0
 43
0.0
 43
0.0
 43
0.0
 43
1.0
 77
     0
 47
0.0008202099737533
 47
0.0
 47
0.0
 47
0.0
 47
0.0
 47
0.0008202099737533
 47
0.0
 47
0.0
 47
0.0
 47
0.0
 47
1.0
 47
0.0
 47
0.0
 47
0.0
 47
0.0
 47
1.0
171
     0
 49
0.0008202099737533
 49
0.0
 49
0.0
 49
0.0
 49
0.0
 49
0.0008202099737533
 49
0.0
 49
0.0
 49
0.0
 49
0.0
 49
1.0
 49
0.0
 49
0.0
 49
0.0
 49
0.0
 49
1.0
175
     0
142
0.0008202099737533
142
0.0
142
0.0
142
0.0
142
0.0
142
0.0008202099737533
142
0.0
142
0.0
142
0.0
142
0.0
142
1.0
142
0.0
142
0.0
142
0.0
142
0.0
142
1.0
179
     0
144
0.0008202099737533
144
0.0
144
0.0
144
0.0
144
0.0
144
0.0008202099737533
144
0.0
144
0.0
144
0.0
144
0.0
144
1.0
144
0.0
144
0.0
144
0.0
144
0.0
144
1.0
147
0.0008202099737533
147
0.0
147
0.0
147
0.0
147
0.0
147
0.0008202099737533
147
0.0
147
0.0
147
0.0
147
0.0
147
1.0
147
0.0
147
0.0
147
0.0
147
0.0
147
1.0
  0
MATERIAL
  5
1760
102
{ACAD_XDICTIONARY
360
1761
102
}
102
{ACAD_REACTORS
330
BA8
102
}
330
BA8
100
AcDbMaterial
  1
ByLayer
 72
     0
 43
0.0008202099737533
 43
0.0
 43
0.0
 43
0.0
 43
0.0
 43
0.0008202099737533
 43
0.0
 43
0.0
 43
0.0
 43
0.0
 43
1.0
 43
0.0
 43
0.0
 43
0.0
 43
0.0
 43
1.0
 77
     0
 47
0.0008202099737533
 47
0.0
 47
0.0
 47
0.0
 47
0.0
 47
0.0008202099737533
 47
0.0
 47
0.0
 47
0.0
 47
0.0
 47
1.0
 47
0.0
 47
0.0
 47
0.0
 47
0.0
 47
1.0
171
     0
 49
0.0008202099737533
 49
0.0
 49
0.0
 49
0.0
 49
0.0
 49
0.0008202099737533
 49
0.0
 49
0.0
 49
0.0
 49
0.0
 49
1.0
 49
0.0
 49
0.0
 49
0.0
 49
0.0
 49
1.0
175
     0
142
0.0008202099737533
142
0.0
142
0.0
142
0.0
142
0.0
142
0.0008202099737533
142
0.0
142
0.0
142
0.0
142
0.0
142
1.0
142
0.0
142
0.0
142
0.0
142
0.0
142
1.0
179
     0
144
0.0008202099737533
144
0.0
144
0.0
144
0.0
144
0.0
144
0.0008202099737533
144
0.0
144
0.0
144
0.0
144
0.0
144
1.0
144
0.0
144
0.0
144
0.0
144
0.0
144
1.0
147
0.0008202099737533
147
0.0
147
0.0
147
0.0
147
0.0
147
0.0008202099737533
147
0.0
147
0.0
147
0.0
147
0.0
147
1.0
147
0.0
147
0.0
147
0.0
147
0.0
147
1.0
  0
MATERIAL
  5
1770
102
{ACAD_XDICTIONARY
360
1771
102
}
102
{ACAD_REACTORS
330
BA8
102
}
330
BA8
100
AcDbMaterial
  1
Global
 72
     0
 43
0.0008202099737533
 43
0.0
 43
0.0
 43
0.0
 43
0.0
 43
0.0008202099737533
 43
0.0
 43
0.0
 43
0.0
 43
0.0
 43
1.0
 43
0.0
 43
0.0
 43
0.0
 43
0.0
 43
1.0
 77
     0
 47
0.0008202099737533
 47
0.0
 47
0.0
 47
0.0
 47
0.0
 47
0.0008202099737533
 47
0.0
 47
0.0
 47
0.0
 47
0.0
 47
1.0
 47
0.0
 47
0.0
 47
0.0
 47
0.0
 47
1.0
171
     0
 49
0.0008202099737533
 49
0.0
 49
0.0
 49
0.0
 49
0.0
 49
0.0008202099737533
 49
0.0
 49
0.0
 49
0.0
 49
0.0
 49
1.0
 49
0.0
 49
0.0
 49
0.0
 49
0.0
 49
1.0
175
     0
142
0.0008202099737533
142
0.0
142
0.0
142
0.0
142
0.0
142
0.0008202099737533
142
0.0
142
0.0
142
0.0
142
0.0
142
1.0
142
0.0
142
0.0
142
0.0
142
0.0
142
1.0
179
     0
144
0.0008202099737533
144
0.0
144
0.0
144
0.0
144
0.0
144
0.0008202099737533
144
0.0
144
0.0
144
0.0
144
0.0
144
1.0
144
0.0
144
0.0
144
0.0
144
0.0
144
1.0
147
0.0008202099737533
147
0.0
147
0.0
147
0.0
147
0.0
147
0.0008202099737533
147
0.0
147
0.0
147
0.0
147
0.0
147
1.0
147
0.0
147
0.0
147
0.0
147
0.0
147
1.0
  0
MLEADERSTYLE
  5
179F
102
{ACAD_REACTORS
330
179E
102
}
330
179E
100
AcDbMLeaderStyle
170
     2
171
     1
172
     0
 90
        2
 40
0.0
 41
0.0
173
     1
 91
-1056964608
340
14
 92
       -2
290
     1
 42
2.0
291
     1
 43
0.36
  3
Standard
 44
4.0
300

342
11
174
     1
178
     6
175
     1
176
     0
 93
-1056964608
 45
4.0
292
     0
297
     0
 46
4.0
 94
-1056964608
 47
1.0
 49
1.0
140
1.0
293
     1
141
0.0
294
     1
177
     0
142
1.0
295
     0
296
     0
143
0.125
1001
ACAD_MLEADERVER
1070
     2
  0
MLINESTYLE
  5
18
102
{ACAD_REACTORS
330
17
102
}
330
17
100
AcDbMlineStyle
  2
STANDARD
 70
     0
  3

 62
   256
 51
90.0
 52
90.0
 71
     2
 49
0.5
 62
   256
  6
BYLAYER
 49
-0.5
 62
   256
  6
BYLAYER
  0
ACDBPLACEHOLDER
  5
F
102
{ACAD_REACTORS
330
E
102
}
330
E
  0
SCALE
  5
178D
102
{ACAD_REACTORS
330
178C
102
}
330
178C
100
AcDbScale
 70
     0
300
1:1
140
1.0
141
1.0
290
     1
  0
SCALE
  5
178E
102
{ACAD_REACTORS
330
178C
102
}
330
178C
100
AcDbScale
 70
     0
300
1:2
140
1.0
141
2.0
290
     0
  0
SCALE
  5
178F
102
{ACAD_REACTORS
330
178C
102
}
330
178C
100
AcDbScale
 70
     0
300
1:4
140
1.0
141
4.0
290
     0
  0
SCALE
  5
1790
102
{ACAD_REACTORS
330
178C
102
}
330
178C
100
AcDbScale
 70
     0
300
1:5
140
1.0
141
5.0
290
     0
  0
SCALE
  5
1791
102
{ACAD_REACTORS
330
178C
102
}
330
178C
100
AcDbScale
 70
     0
300
1:8
140
1.0
141
8.0
290
     0
  0
SCALE
  5
1792
102
{ACAD_REACTORS
330
178C
102
}
330
178C
100
AcDbScale
 70
     0
300
1:10
140
1.0
141
10.0
290
     0
  0
SCALE
  5
1793
102
{ACAD_REACTORS
330
178C
102
}
330
178C
100
AcDbScale
 70
     0
300
1:16
140
1.0
141
16.0
290
     0
  0
SCALE
  5
1794
102
{ACAD_REACTORS
330
178C
102
}
330
178C
100
AcDbScale
 70
     0
300
1:20
140
1.0
141
20.0
290
     0
  0
SCALE
  5
1795
102
{ACAD_REACTORS
330
178C
102
}
330
178C
100
AcDbScale
 70
     0
300
1:30
140
1.0
141
30.0
290
     0
  0
SCALE
  5
1796
102
{ACAD_REACTORS
330
178C
102
}
330
178C
100
AcDbScale
 70
     0
300
1:40
140
1.0
141
40.0
290
     0
  0
SCALE
  5
1797
102
{ACAD_REACTORS
330
178C
102
}
330
178C
100
AcDbScale
 70
     0
300
1:50
140
1.0
141
50.0
290
     0
  0
SCALE
  5
1798
102
{ACAD_REACTORS
330
178C
102
}
330
178C
100
AcDbScale
 70
     0
300
1:100
140
1.0
141
100.0
290
     0
  0
SCALE
  5
1799
102
{ACAD_REACTORS
330
178C
102
}
330
178C
100
AcDbScale
 70
     0
300
2:1
140
2.0
141
1.0
290
     0
  0
SCALE
  5
179A
102
{ACAD_REACTORS
330
178C
102
}
330
178C
100
AcDbScale
 70
     0
300
4:1
140
4.0
141
1.0
290
     0
  0
SCALE
  5
179B
102
{ACAD_REACTORS
330
178C
102
}
330
178C
100
AcDbScale
 70
     0
300
8:1
140
8.0
141
1.0
290
     0
  0
SCALE
  5
179C
102
{ACAD_REACTORS
330
178C
102
}
330
178C
100
AcDbScale
 70
     0
300
10:1
140
10.0
141
1.0
290
     0
  0
SCALE
  5
179D
102
{ACAD_REACTORS
330
178C
102
}
330
178C
100
AcDbScale
 70
     0
300
100:1
140
100.0
141
1.0
290
     0
  0
TABLESTYLE
  5
BAB
102
{ACAD_XDICTIONARY
360
17C8
102
}
102
{ACAD_REACTORS
330
BAA
102
}
330
BAA
100
AcDbTableStyle
  3
Standard
 70
     0
 71
     0
 40
1.5
 41
1.5
280
     0
281
     0
  7
Standard
140
4.5
170
     2
 62
     0
 63
     7
283
     0
274
    -2
284
     1
 64
     0
275
    -2
285
     1
 65
     0
276
    -2
286
     1
 66
     0
277
    -2
287
     1
 67
     0
278
    -2
288
     1
 68
     0
279
    -2
289
     1
 69
     0
  7
Standard
140
6.0
170
     5
 62
     0
 63
     7
283
     0
274
    -2
284
     1
 64
     0
275
    -2
285
     1
 65
     0
276
    -2
286
     1
 66
     0
277
    -2
287
     1
 67
     0
278
    -2
288
     1
 68
     0
279
    -2
289
     1
 69
     0
  7
Standard
140
4.5
170
     5
 62
     0
 63
     7
283
     0
274
    -2
284
     1
 64
     0
275
    -2
285
     1
 65
     0
276
    -2
286
     1
 66
     0
277
    -2
287
     1
 67
     0
278
    -2
288
     1
 68
     0
279
    -2
289
     1
 69
     0
  0
VISUALSTYLE
  5
177E
102
{ACAD_XDICTIONARY
360
1806
102
}
102
{ACAD_REACTORS
330
1778
102
}
330
1778
100
AcDbVisualStyle
  2
2dWireframe
 70
     4
 71
     0
 72
     2
 73
     0
 90
        0
 40
-0.6
 41
-30.0
 62
     5
 63
     7
 74
     1
 91
        4
 64
     7
 65
   257
 75
     1
175
     1
 42
1.0
 92
        0
 66
   257
 43
1.0
 76
     1
 77
     6
 78
     2
 67
     7
 79
     5
170
     0
171
     0
290
     0
174
     0
 93
        1
 44
0.0
173
     0
291
     0
 45
0.0
1001
ACAD
1000
AcDbSavedByObjectVersion
1070
     0
  0
VISUALSTYLE
  5
1780
102
{ACAD_XDICTIONARY
360
180A
102
}
102
{ACAD_REACTORS
330
1778
102
}
330
1778
100
AcDbVisualStyle
  2
3D Hidden
 70
     6
 71
     1
 72
     2
 73
     2
 90
        0
 40
-0.6
 41
-30.0
 62
     5
 63
     7
 74
     2
 91
        2
 64
     7
 65
   257
 75
     2
175
     1
 42
179.0
 92
        0
 66
   257
 43
1.0
 76
     1
 77
     6
 78
     2
 67
     7
 79
     3
170
     0
171
     0
290
     0
174
     0
 93
        1
 44
0.0
173
     0
291
     0
 45
0.0
1001
ACAD
1000
AcDbSavedByObjectVersion
1070
     0
  0
VISUALSTYLE
  5
177F
102
{ACAD_XDICTIONARY
360
1808
102
}
102
{ACAD_REACTORS
330
1778
102
}
330
1778
100
AcDbVisualStyle
  2
3dWireframe
 70
     5
 71
     0
 72
     2
 73
     0
 90
        0
 40
-0.6
 41
-30.0
 62
     5
 63
     7
 74
     1
 91
        4
 64
     7
 65
   257
 75
     1
175
     1
 42
1.0
 92
        0
 66
   257
 43
1.0
 76
     1
 77
     6
 78
     2
 67
     7
 79
     5
170
     0
171
     0
290
     0
174
     0
 93
        1
 44
0.0
173
     0
291
     0
 45
0.0
1001
ACAD
1000
AcDbSavedByObjectVersion
1070
     0
  0
VISUALSTYLE
  5
177D
102
{ACAD_XDICTIONARY
360
1804
102
}
102
{ACAD_REACTORS
330
1778
102
}
330
1778
100
AcDbVisualStyle
  2
Basic
 70
     7
 71
     1
 72
     0
 73
     1
 90
        0
 40
-0.6
 41
-30.0
 62
     5
 63
     7
 74
     0
 91
        4
 64
     7
 65
   257
 75
     1
175
     1
 42
1.0
 92
        8
 66
     7
 43
1.0
 76
     1
 77
     6
 78
     2
 67
     7
 79
     5
170
     0
171
     0
290
     0
174
     0
 93
        1
 44
0.0
173
     0
291
     1
 45
0.0
1001
ACAD
1000
AcDbSavedByObjectVersion
1070
     0
  0
VISUALSTYLE
  5
1784
102
{ACAD_XDICTIONARY
360
1812
102
}
102
{ACAD_REACTORS
330
1778
102
}
330
1778
100
AcDbVisualStyle
  2
Brighten
 70
    12
 71
     2
 72
     2
 73
     0
 90
        0
 40
-0.6
 41
-30.0
 62
     5
 63
     7
 74
     1
 91
        4
 64
     7
 65
   257
 75
     1
175
     1
 42
1.0
 92
        8
 66
     7
 43
1.0
 76
     1
 77
     6
 78
     2
 67
     7
 79
     5
170
     0
171
     0
290
     0
174
     0
 93
        1
 44
50.0
173
     0
291
     1
 45
0.0
1001
ACAD
1000
AcDbSavedByObjectVersion
1070
     0
  0
VISUALSTYLE
  5
1788
102
{ACAD_XDICTIONARY
360
181A
102
}
102
{ACAD_REACTORS
330
1778
102
}
330
1778
100
AcDbVisualStyle
  2
ColorChange
 70
    16
 71
     2
 72
     2
 73
     3
 90
        0
 40
-0.6
 41
-30.0
 62
     5
 63
     8
 74
     1
 91
        4
 64
     7
 65
   257
 75
     1
175
     1
 42
1.0
 92
        8
 66
     8
 43
1.0
 76
     1
 77
     6
 78
     2
 67
     7
 79
     5
170
     0
171
     0
290
     0
174
     0
 93
        1
 44
0.0
173
     0
291
     1
 45
0.0
1001
ACAD
1000
AcDbSavedByObjectVersion
1070
     0
  0
VISUALSTYLE
  5
1781
102
{ACAD_XDICTIONARY
360
180C
102
}
102
{ACAD_REACTORS
330
1778
102
}
330
1778
100
AcDbVisualStyle
  2
Conceptual
 70
     9
 71
     3
 72
     2
 73
     0
 90
        0
 40
-0.6
 41
-30.0
 62
     5
 63
     7
 74
     2
 91
        2
 64
     7
 65
   257
 75
     1
175
     1
 42
179.0
 92
        8
 66
     7
 43
1.0
 76
     1
 77
     6
 78
     2
 67
     7
 79
     3
170
     0
171
     0
290
     0
174
     0
 93
        1
 44
0.0
173
     0
291
     0
 45
0.0
1001
ACAD
1000
AcDbSavedByObjectVersion
1070
     0
  0
VISUALSTYLE
  5
1783
102
{ACAD_XDICTIONARY
360
1810
102
}
102
{ACAD_REACTORS
330
1778
102
}
330
1778
100
AcDbVisualStyle
  2
Dim
 70
    11
 71
     2
 72
     2
 73
     0
 90
        0
 40
-0.6
 41
-30.0
 62
     5
 63
     7
 74
     1
 91
        4
 64
     7
 65
   257
 75
     1
175
     1
 42
1.0
 92
        8
 66
     7
 43
1.0
 76
     1
 77
     6
 78
     2
 67
     7
 79
     5
170
     0
171
     0
290
     0
174
     0
 93
        1
 44
-50.0
173
     0
291
     1
 45
0.0
1001
ACAD
1000
AcDbSavedByObjectVersion
1070
     0
  0
VISUALSTYLE
  5
178B
102
{ACAD_XDICTIONARY
360
1820
102
}
102
{ACAD_REACTORS
330
1778
102
}
330
1778
100
AcDbVisualStyle
  2
EdgeColorOff
 70
    22
 71
     2
 72
     2
 73
     0
 90
        0
 40
-0.6
 41
-30.0
 62
     5
 63
     7
 74
     1
 91
        4
 64
     7
 65
   257
 75
     1
175
     1
 42
1.0
 92
        8
 66
     7
 43
1.0
 76
     1
 77
     6
 78
     2
 67
     7
 79
     5
170
     0
171
     0
290
     0
174
     0
 93
        1
 44
0.0
173
     0
291
     1
 45
0.0
1001
ACAD
1000
AcDbSavedByObjectVersion
1070
     0
  0
VISUALSTYLE
  5
1787
102
{ACAD_XDICTIONARY
360
1818
102
}
102
{ACAD_REACTORS
330
1778
102
}
330
1778
100
AcDbVisualStyle
  2
Facepattern
 70
    15
 71
     2
 72
     2
 73
     0
 90
        0
 40
-0.6
 41
-30.0
 62
     5
 63
     7
 74
     1
 91
        4
 64
     7
 65
   257
 75
     1
175
     1
 42
1.0
 92
        8
 66
     7
 43
1.0
 76
     1
 77
     6
 78
     2
 67
     7
 79
     5
170
     0
171
     0
290
     0
174
     0
 93
        1
 44
0.0
173
     0
291
     1
 45
0.0
1001
ACAD
1000
AcDbSavedByObjectVersion
1070
     0
  0
VISUALSTYLE
  5
1779
102
{ACAD_XDICTIONARY
360
17FC
102
}
102
{ACAD_REACTORS
330
1778
102
}
330
1778
100
AcDbVisualStyle
  2
Flat
 70
     0
 71
     2
 72
     1
 73
     1
 90
        2
 40
-0.6
 41
30.0
 62
     5
 63
     7
 74
     0
 91
        4
 64
     7
 65
   257
 75
     1
175
     1
 42
1.0
 92
        8
 66
     7
 43
1.0
 76
     1
 77
     6
 78
     2
 67
     7
 79
     5
170
     0
171
     0
290
     0
174
     0
 93
       13
 44
0.0
173
     0
291
     1
 45
0.0
1001
ACAD
1000
AcDbSavedByObjectVersion
1070
     0
  0
VISUALSTYLE
  5
177A
102
{ACAD_XDICTIONARY
360
17FE
102
}
102
{ACAD_REACTORS
330
1778
102
}
330
1778
100
AcDbVisualStyle
  2
FlatWithEdges
 70
     1
 71
     2
 72
     1
 73
     1
 90
        2
 40
-0.6
 41
30.0
 62
     5
 63
     7
 74
     1
 91
        4
 64
     7
 65
   257
 75
     1
175
     1
 42
1.0
 92
        0
 66
   257
 43
1.0
 76
     1
 77
     6
 78
     2
 67
     7
 79
     5
170
     0
171
     0
290
     0
174
     0
 93
       13
 44
0.0
173
     0
291
     1
 45
0.0
1001
ACAD
1000
AcDbSavedByObjectVersion
1070
     0
  0
VISUALSTYLE
  5
177B
102
{ACAD_XDICTIONARY
360
1800
102
}
102
{ACAD_REACTORS
330
1778
102
}
330
1778
100
AcDbVisualStyle
  2
Gouraud
 70
     2
 71
     2
 72
     2
 73
     1
 90
        2
 40
-0.6
 41
30.0
 62
     5
 63
     7
 74
     0
 91
        4
 64
     7
 65
   257
 75
     1
175
     1
 42
1.0
 92
        0
 66
     7
 43
1.0
 76
     1
 77
     6
 78
     2
 67
     7
 79
     5
170
     0
171
     0
290
     0
174
     0
 93
       13
 44
0.0
173
     0
291
     1
 45
0.0
1001
ACAD
1000
AcDbSavedByObjectVersion
1070
     0
  0
VISUALSTYLE
  5
177C
102
{ACAD_XDICTIONARY
360
1802
102
}
102
{ACAD_REACTORS
330
1778
102
}
330
1778
100
AcDbVisualStyle
  2
GouraudWithEdges
 70
     3
 71
     2
 72
     2
 73
     1
 90
        2
 40
-0.6
 41
30.0
 62
     5
 63
     7
 74
     1
 91
        4
 64
     7
 65
   257
 75
     1
175
     1
 42
1.0
 92
        0
 66
   257
 43
1.0
 76
     1
 77
     6
 78
     2
 67
     7
 79
     5
170
     0
171
     0
290
     0
174
     0
 93
       13
 44
0.0
173
     0
291
     1
 45
0.0
1001
ACAD
1000
AcDbSavedByObjectVersion
1070
     0
  0
VISUALSTYLE
  5
1789
102
{ACAD_XDICTIONARY
360
181C
102
}
102
{ACAD_REACTORS
330
1778
102
}
330
1778
100
AcDbVisualStyle
  2
JitterOff
 70
    20
 71
     2
 72
     2
 73
     0
 90
        0
 40
-0.6
 41
-30.0
 62
     5
 63
     7
 74
     1
 91
        4
 64
     7
 65
   257
 75
     1
175
     1
 42
1.0
 92
       10
 66
     7
 43
1.0
 76
     1
 77
     6
 78
     2
 67
     7
 79
     5
170
     0
171
     0
290
     0
174
     0
 93
        1
 44
0.0
173
     0
291
     1
 45
0.0
1001
ACAD
1000
AcDbSavedByObjectVersion
1070
     0
  0
VISUALSTYLE
  5
1786
102
{ACAD_XDICTIONARY
360
1816
102
}
102
{ACAD_REACTORS
330
1778
102
}
330
1778
100
AcDbVisualStyle
  2
Linepattern
 70
    14
 71
     2
 72
     2
 73
     0
 90
        0
 40
-0.6
 41
-30.0
 62
     5
 63
     7
 74
     1
 91
        4
 64
     7
 65
   257
 75
     7
175
     7
 42
1.0
 92
        8
 66
     7
 43
1.0
 76
     1
 77
     6
 78
     2
 67
     7
 79
     5
170
     0
171
     0
290
     0
174
     0
 93
        1
 44
0.0
173
     0
291
     1
 45
0.0
1001
ACAD
1000
AcDbSavedByObjectVersion
1070
     0
  0
VISUALSTYLE
  5
178A
102
{ACAD_XDICTIONARY
360
181E
102
}
102
{ACAD_REACTORS
330
1778
102
}
330
1778
100
AcDbVisualStyle
  2
OverhangOff
 70
    21
 71
     2
 72
     2
 73
     0
 90
        0
 40
-0.6
 41
-30.0
 62
     5
 63
     7
 74
     1
 91
        4
 64
     7
 65
   257
 75
     1
175
     1
 42
1.0
 92
        9
 66
     7
 43
1.0
 76
     1
 77
     6
 78
     2
 67
     7
 79
     5
170
     0
171
     0
290
     0
174
     0
 93
        1
 44
0.0
173
     0
291
     1
 45
0.0
1001
ACAD
1000
AcDbSavedByObjectVersion
1070
     0
  0
VISUALSTYLE
  5
1782
102
{ACAD_XDICTIONARY
360
180E
102
}
102
{ACAD_REACTORS
330
1778
102
}
330
1778
100
AcDbVisualStyle
  2
Realistic
 70
     8
 71
     2
 72
     2
 73
     0
 90
        0
 40
-0.6
 41
-30.0
 62
     5
 63
     7
 74
     1
 91
        0
 64
     7
 65
   257
 75
     1
175
     1
 42
1.0
 92
        8
 66
     8
 43
1.0
 76
     1
 77
     6
 78
     2
 67
     7
 79
     5
170
     0
171
     0
290
     0
174
     0
 93
       13
 44
0.0
173
     0
291
     0
 45
0.0
1001
ACAD
1000
AcDbSavedByObjectVersion
1070
     0
  0
VISUALSTYLE
  5
1785
102
{ACAD_XDICTIONARY
360
1814
102
}
102
{ACAD_REACTORS
330
1778
102
}
330
1778
100
AcDbVisualStyle
  2
Thicken
 70
    13
 71
     2
 72
     2
 73
     0
 90
        0
 40
-0.6
 41
-30.0
 62
     5
 63
     7
 74
     1
 91
        4
 64
     7
 65
   257
 75
     1
175
     1
 42
1.0
 92
       12
 66
     7
 43
1.0
 76
     1
 77
     6
 78
     2
 67
     7
 79
     5
170
     0
171
     0
290
     0
174
     0
 93
        1
 44
0.0
173
     0
291
     1
 45
0.0
1001
ACAD
1000
AcDbSavedByObjectVersion
1070
     0
  0
DICTIONARYVAR
  5
17C4
102
{ACAD_REACTORS
330
3D
102
}
330
3D
100
DictionaryVariables
280
     0
  1
1:1
  0
DICTIONARYVAR
  5
17C3
102
{ACAD_REACTORS
330
3D
102
}
330
3D
100
DictionaryVariables
280
     0
  1
STANDARD
  0
DICTIONARYVAR
  5
BB1
102
{ACAD_REACTORS
330
3D
102
}
330
3D
100
DictionaryVariables
280
     0
  1
STANDARD
  0
DICTIONARYVAR
  5
3F
102
{ACAD_REACTORS
330
3D
102
}
330
3D
100
DictionaryVariables
280
     0
  1
2
  0
DICTIONARYVAR
  5
3E
102
{ACAD_REACTORS
330
3D
102
}
330
3D
100
DictionaryVariables
280
     0
  1
1
  0
DICTIONARYVAR
  5
17C6
102
{ACAD_REACTORS
330
3D
102
}
330
3D
100
DictionaryVariables
280
     0
  1
0
  0
DICTIONARYVAR
  5
175E
102
{ACAD_REACTORS
330
3D
102
}
330
3D
100
DictionaryVariables
280
     0
  1

  0
DICTIONARYVAR
  5
17C5
102
{ACAD_REACTORS
330
3D
102
}
330
3D
100
DictionaryVariables
280
     0
  1
127
  0
DICTIONARYVAR
  5
17C7
102
{ACAD_REACTORS
330
3D
102
}
330
3D
100
DictionaryVariables
280
     0
  1
2
  0
XRECORD
  5
B92
102
{ACAD_REACTORS
330
B91
102
}
330
B91
100
AcDbXrecord
280
     1
  0
DICTIONARY
  5
17CC
330
1E
100
AcDbDictionary
280
     1
281
     1
  3
ACAD_XREC_ROUNDTRIP
360
17CD
  0
DICTIONARY
  5
17D0
330
26
100
AcDbDictionary
280
     1
281
     1
  3
ACAD_XREC_ROUNDTRIP
360
17D1
  0
DICTIONARY
  5
17CE
330
22
100
AcDbDictionary
280
     1
281
     1
  3
ACAD_XREC_ROUNDTRIP
360
17CF
  0
DICTIONARY
  5
1769
330
1768
100
AcDbDictionary
280
     1
281
     1
  3
ACAD_XREC_ROUNDTRIP
360
17FA
  3
BUMPTILE
360
176B
  3
DIFFUSETILE
360
176A
  3
OPACITYTILE
360
176E
  3
REFLECTIONTILE
360
176D
  3
REFRACTIONTILE
360
176F
  3
SPECULARTILE
360
176C
  0
DICTIONARY
  5
1761
330
1760
100
AcDbDictionary
280
     1
281
     1
  3
ACAD_XREC_ROUNDTRIP
360
17F9
  3
BUMPTILE
360
1763
  3
DIFFUSETILE
360
1762
  3
OPACITYTILE
360
1766
  3
REFLECTIONTILE
360
1765
  3
REFRACTIONTILE
360
1767
  3
SPECULARTILE
360
1764
  0
DICTIONARY
  5
1771
330
1770
100
AcDbDictionary
280
     1
281
     1
  3
ACAD_XREC_ROUNDTRIP
360
17FB
  3
BUMPTILE
360
1773
  3
DIFFUSETILE
360
1772
  3
OPACITYTILE
360
1776
  3
REFLECTIONTILE
360
1775
  3
REFRACTIONTILE
360
1777
  3
SPECULARTILE
360
1774
  0
DICTIONARY
  5
17C8
330
BAB
100
AcDbDictionary
280
     1
281
     1
  3
ACAD_ROUNDTRIP_2008_TABLESTYLE_CELLSTYLEMAP
360
17C9
  3
ACAD_XREC_ROUNDTRIP
360
17D2
  0
DICTIONARY
  5
1806
330
177E
100
AcDbDictionary
280
     1
281
     1
  3
ACAD_XREC_ROUNDTRIP
360
1807
  0
DICTIONARY
  5
180A
330
1780
100
AcDbDictionary
280
     1
281
     1
  3
ACAD_XREC_ROUNDTRIP
360
180B
  0
DICTIONARY
  5
1808
330
177F
100
AcDbDictionary
280
     1
281
     1
  3
ACAD_XREC_ROUNDTRIP
360
1809
  0
DICTIONARY
  5
1804
330
177D
100
AcDbDictionary
280
     1
281
     1
  3
ACAD_XREC_ROUNDTRIP
360
1805
  0
DICTIONARY
  5
1812
330
1784
100
AcDbDictionary
280
     1
281
     1
  3
ACAD_XREC_ROUNDTRIP
360
1813
  0
DICTIONARY
  5
181A
330
1788
100
AcDbDictionary
280
     1
281
     1
  3
ACAD_XREC_ROUNDTRIP
360
181B
  0
DICTIONARY
  5
180C
330
1781
100
AcDbDictionary
280
     1
281
     1
  3
ACAD_XREC_ROUNDTRIP
360
180D
  0
DICTIONARY
  5
1810
330
1783
100
AcDbDictionary
280
     1
281
     1
  3
ACAD_XREC_ROUNDTRIP
360
1811
  0
DICTIONARY
  5
1820
330
178B
100
AcDbDictionary
280
     1
281
     1
  3
ACAD_XREC_ROUNDTRIP
360
1821
  0
DICTIONARY
  5
1818
330
1787
100
AcDbDictionary
280
     1
281
     1
  3
ACAD_XREC_ROUNDTRIP
360
1819
  0
DICTIONARY
  5
17FC
330
1779
100
AcDbDictionary
280
     1
281
     1
  3
ACAD_XREC_ROUNDTRIP
360
17FD
  0
DICTIONARY
  5
17FE
330
177A
100
AcDbDictionary
280
     1
281
     1
  3
ACAD_XREC_ROUNDTRIP
360
17FF
  0
DICTIONARY
  5
1800
330
177B
100
AcDbDictionary
280
     1
281
     1
  3
ACAD_XREC_ROUNDTRIP
360
1801
  0
DICTIONARY
  5
1802
330
177C
100
AcDbDictionary
280
     1
281
     1
  3
ACAD_XREC_ROUNDTRIP
360
1803
  0
DICTIONARY
  5
181C
330
1789
100
AcDbDictionary
280
     1
281
     1
  3
ACAD_XREC_ROUNDTRIP
360
181D
  0
DICTIONARY
  5
1816
330
1786
100
AcDbDictionary
280
     1
281
     1
  3
ACAD_XREC_ROUNDTRIP
360
1817
  0
DICTIONARY
  5
181E
330
178A
100
AcDbDictionary
280
     1
281
     1
  3
ACAD_XREC_ROUNDTRIP
360
181F
  0
DICTIONARY
  5
180E
330
1782
100
AcDbDictionary
280
     1
281
     1
  3
ACAD_XREC_ROUNDTRIP
360
180F
  0
DICTIONARY
  5
1814
330
1785
100
AcDbDictionary
280
     1
281
     1
  3
ACAD_XREC_ROUNDTRIP
360
1815
  0
XRECORD
  5
17CD
102
{ACAD_REACTORS
330
17CC
102
}
330
17CC
100
AcDbXrecord
280
     1
102
SHADEPLOT
 70
     0
102
SHADEPLOTRESLEVEL
 70
     2
102
SHADEPLOTCUSTOMDPI
 70
   300
  0
XRECORD
  5
17D1
102
{ACAD_REACTORS
330
17D0
102
}
330
17D0
100
AcDbXrecord
280
     1
102
SHADEPLOT
 70
     0
102
SHADEPLOTRESLEVEL
 70
     2
102
SHADEPLOTCUSTOMDPI
 70
   300
  0
XRECORD
  5
17CF
102
{ACAD_REACTORS
330
17CE
102
}
330
17CE
100
AcDbXrecord
280
     1
102
SHADEPLOT
 70
     0
102
SHADEPLOTRESLEVEL
 70
     2
102
SHADEPLOTCUSTOMDPI
 70
   300
  0
XRECORD
  5
17FA
102
{ACAD_REACTORS
330
1769
102
}
330
1769
100
AcDbXrecord
280
     1
102
MATERIAL
148
0.0
149
0.0
149
0.0
 93
        0
 94
      127
282
     0
 72
     0
 77
     0
171
     0
175
     0
179
     0
273
     0
  0
XRECORD
  5
176B
102
{ACAD_REACTORS
330
1769
102
}
330
1769
100
AcDbXrecord
280
     1
270
     1
271
     1
  0
XRECORD
  5
176A
102
{ACAD_REACTORS
330
1769
102
}
330
1769
100
AcDbXrecord
280
     1
270
     1
271
     1
  0
XRECORD
  5
176E
102
{ACAD_REACTORS
330
1769
102
}
330
1769
100
AcDbXrecord
280
     1
270
     1
271
     1
  0
XRECORD
  5
176D
102
{ACAD_REACTORS
330
1769
102
}
330
1769
100
AcDbXrecord
280
     1
270
     1
271
     1
  0
XRECORD
  5
176F
102
{ACAD_REACTORS
330
1769
102
}
330
1769
100
AcDbXrecord
280
     1
270
     1
271
     1
  0
XRECORD
  5
176C
102
{ACAD_REACTORS
330
1769
102
}
330
1769
100
AcDbXrecord
280
     1
270
     1
271
     1
  0
XRECORD
  5
17F9
102
{ACAD_REACTORS
330
1761
102
}
330
1761
100
AcDbXrecord
280
     1
102
MATERIAL
148
0.0
149
0.0
149
0.0
 93
        0
 94
      127
282
     0
 72
     0
 77
     0
171
     0
175
     0
179
     0
273
     0
  0
XRECORD
  5
1763
102
{ACAD_REACTORS
330
1761
102
}
330
1761
100
AcDbXrecord
280
     1
270
     1
271
     1
  0
XRECORD
  5
1762
102
{ACAD_REACTORS
330
1761
102
}
330
1761
100
AcDbXrecord
280
     1
270
     1
271
     1
  0
XRECORD
  5
1766
102
{ACAD_REACTORS
330
1761
102
}
330
1761
100
AcDbXrecord
280
     1
270
     1
271
     1
  0
XRECORD
  5
1765
102
{ACAD_REACTORS
330
1761
102
}
330
1761
100
AcDbXrecord
280
     1
270
     1
271
     1
  0
XRECORD
  5
1767
102
{ACAD_REACTORS
330
1761
102
}
330
1761
100
AcDbXrecord
280
     1
270
     1
271
     1
  0
XRECORD
  5
1764
102
{ACAD_REACTORS
330
1761
102
}
330
1761
100
AcDbXrecord
280
     1
270
     1
271
     1
  0
XRECORD
  5
17FB
102
{ACAD_REACTORS
330
1771
102
}
330
1771
100
AcDbXrecord
280
     1
102
MATERIAL
148
0.0
149
0.0
149
0.0
 93
        0
 94
      127
282
     0
 72
     0
 77
     0
171
     0
175
     0
179
     0
273
     0
  0
XRECORD
  5
1773
102
{ACAD_REACTORS
330
1771
102
}
330
1771
100
AcDbXrecord
280
     1
270
     1
271
     1
  0
XRECORD
  5
1772
102
{ACAD_REACTORS
330
1771
102
}
330
1771
100
AcDbXrecord
280
     1
270
     1
271
     1
  0
XRECORD
  5
1776
102
{ACAD_REACTORS
330
1771
102
}
330
1771
100
AcDbXrecord
280
     1
270
     1
271
     1
  0
XRECORD
  5
1775
102
{ACAD_REACTORS
330
1771
102
}
330
1771
100
AcDbXrecord
280
     1
270
     1
271
     1
  0
XRECORD
  5
1777
102
{ACAD_REACTORS
330
1771
102
}
330
1771
100
AcDbXrecord
280
     1
270
     1
271
     1
  0
XRECORD
  5
1774
102
{ACAD_REACTORS
330
1771
102
}
330
1771
100
AcDbXrecord
280
     1
270
     1
271
     1
  0
CELLSTYLEMAP
  5
17C9
102
{ACAD_REACTORS
330
17C8
102
}
330
17C8
100
AcDbCellStyleMap
 90
        3
300
CELLSTYLE
  1
TABLEFORMAT_BEGIN
 90
        5
170
     1
 91
        0
 92
    32768
 62
   257
 93
        1
300
CONTENTFORMAT
  1
CONTENTFORMAT_BEGIN
 90
        0
 91
        0
 92
        4
 93
        0
300

 40
0.0
140
1.0
 94
        5
 62
     0
340
11
144
6.0
309
CONTENTFORMAT_END
171
     1
301
MARGIN
  1
CELLMARGIN_BEGIN
 40
1.5
 40
1.5
 40
1.5
 40
1.5
 40
0.18
 40
0.18
309
CELLMARGIN_END
 94
        6
 95
        1
302
GRIDFORMAT
  1
GRIDFORMAT_BEGIN
 90
        0
 91
        1
 62
     0
 92
       -2
340
0
 93
        0
 40
0.045
309
GRIDFORMAT_END
 95
        2
302
GRIDFORMAT
  1
GRIDFORMAT_BEGIN
 90
        0
 91
        1
 62
     0
 92
       -2
340
0
 93
        0
 40
0.045
309
GRIDFORMAT_END
 95
        4
302
GRIDFORMAT
  1
GRIDFORMAT_BEGIN
 90
        0
 91
        1
 62
     0
 92
       -2
340
0
 93
        0
 40
0.045
309
GRIDFORMAT_END
 95
        8
302
GRIDFORMAT
  1
GRIDFORMAT_BEGIN
 90
        0
 91
        1
 62
     0
 92
       -2
340
0
 93
        0
 40
0.045
309
GRIDFORMAT_END
 95
       16
302
GRIDFORMAT
  1
GRIDFORMAT_BEGIN
 90
        0
 91
        1
 62
     0
 92
       -2
340
0
 93
        0
 40
0.045
309
GRIDFORMAT_END
 95
       32
302
GRIDFORMAT
  1
GRIDFORMAT_BEGIN
 90
        0
 91
        1
 62
     0
 92
       -2
340
0
 93
        0
 40
0.045
309
GRIDFORMAT_END
309
TABLEFORMAT_END
  1
CELLSTYLE_BEGIN
 90
        1
 91
        1
300
_TITLE
309
CELLSTYLE_END
300
CELLSTYLE
  1
TABLEFORMAT_BEGIN
 90
        5
170
     1
 91
        0
 92
        0
 62
   257
 93
        1
300
CONTENTFORMAT
  1
CONTENTFORMAT_BEGIN
 90
        0
 91
        0
 92
        4
 93
        0
300

 40
0.0
140
1.0
 94
        5
 62
     0
340
11
144
4.5
309
CONTENTFORMAT_END
171
     1
301
MARGIN
  1
CELLMARGIN_BEGIN
 40
1.5
 40
1.5
 40
1.5
 40
1.5
 40
0.18
 40
0.18
309
CELLMARGIN_END
 94
        6
 95
        1
302
GRIDFORMAT
  1
GRIDFORMAT_BEGIN
 90
        0
 91
        1
 62
     0
 92
       -2
340
0
 93
        0
 40
0.045
309
GRIDFORMAT_END
 95
        2
302
GRIDFORMAT
  1
GRIDFORMAT_BEGIN
 90
        0
 91
        1
 62
     0
 92
       -2
340
0
 93
        0
 40
0.045
309
GRIDFORMAT_END
 95
        4
302
GRIDFORMAT
  1
GRIDFORMAT_BEGIN
 90
        0
 91
        1
 62
     0
 92
       -2
340
0
 93
        0
 40
0.045
309
GRIDFORMAT_END
 95
        8
302
GRIDFORMAT
  1
GRIDFORMAT_BEGIN
 90
        0
 91
        1
 62
     0
 92
       -2
340
0
 93
        0
 40
0.045
309
GRIDFORMAT_END
 95
       16
302
GRIDFORMAT
  1
GRIDFORMAT_BEGIN
 90
        0
 91
        1
 62
     0
 92
       -2
340
0
 93
        0
 40
0.045
309
GRIDFORMAT_END
 95
       32
302
GRIDFORMAT
  1
GRIDFORMAT_BEGIN
 90
        0
 91
        1
 62
     0
 92
       -2
340
0
 93
        0
 40
0.045
309
GRIDFORMAT_END
309
TABLEFORMAT_END
  1
CELLSTYLE_BEGIN
 90
        2
 91
        1
300
_HEADER
309
CELLSTYLE_END
300
CELLSTYLE
  1
TABLEFORMAT_BEGIN
 90
        5
170
     1
 91
        0
 92
        0
 62
   257
 93
        1
300
CONTENTFORMAT
  1
CONTENTFORMAT_BEGIN
 90
        0
 91
        0
 92
        4
 93
        0
300

 40
0.0
140
1.0
 94
        2
 62
     0
340
11
144
4.5
309
CONTENTFORMAT_END
171
     1
301
MARGIN
  1
CELLMARGIN_BEGIN
 40
1.5
 40
1.5
 40
1.5
 40
1.5
 40
0.18
 40
0.18
309
CELLMARGIN_END
 94
        6
 95
        1
302
GRIDFORMAT
  1
GRIDFORMAT_BEGIN
 90
        0
 91
        1
 62
     0
 92
       -2
340
0
 93
        0
 40
0.045
309
GRIDFORMAT_END
 95
        2
302
GRIDFORMAT
  1
GRIDFORMAT_BEGIN
 90
        0
 91
        1
 62
     0
 92
       -2
340
0
 93
        0
 40
0.045
309
GRIDFORMAT_END
 95
        4
302
GRIDFORMAT
  1
GRIDFORMAT_BEGIN
 90
        0
 91
        1
 62
     0
 92
       -2
340
0
 93
        0
 40
0.045
309
GRIDFORMAT_END
 95
        8
302
GRIDFORMAT
  1
GRIDFORMAT_BEGIN
 90
        0
 91
        1
 62
     0
 92
       -2
340
0
 93
        0
 40
0.045
309
GRIDFORMAT_END
 95
       16
302
GRIDFORMAT
  1
GRIDFORMAT_BEGIN
 90
        0
 91
        1
 62
     0
 92
       -2
340
0
 93
        0
 40
0.045
309
GRIDFORMAT_END
 95
       32
302
GRIDFORMAT
  1
GRIDFORMAT_BEGIN
 90
        0
 91
        1
 62
     0
 92
       -2
340
0
 93
        0
 40
0.045
309
GRIDFORMAT_END
309
TABLEFORMAT_END
  1
CELLSTYLE_BEGIN
 90
        3
 91
        2
300
_DATA
309
CELLSTYLE_END
  0
XRECORD
  5
17D2
102
{ACAD_REACTORS
330
17C8
102
}
330
17C8
100
AcDbXrecord
280
     1
102
ACAD_ROUNDTRIP_PRE2007_TABLESTYLE
 90
        4
 91
        0
  1

 92
        4
 93
        0
  2

 94
        4
 95
        0
  3

  0
XRECORD
  5
1807
102
{ACAD_REACTORS
330
1806
102
}
330
1806
100
AcDbXrecord
280
     1
102
RTVSPropertyOp0
 70
     1
102
RTVSPropertyOp1
 70
     1
102
RTVSPropertyOp2
 70
     1
102
RTVSPropertyOp3
 70
     1
102
RTVSPropertyOp4
 70
     1
102
RTVSPropertyOp5
 70
     1
102
RTVSPropertyOp6
 70
     1
102
RTVSPropertyOp7
 70
     1
102
RTVSPropertyOp8
 70
     1
102
RTVSPropertyOp9
 70
     1
102
RTVSPropertyOp10
 70
     1
102
RTVSPropertyOp11
 70
     1
102
RTVSPropertyOp12
 70
     1
102
RTVSPropertyOp13
 70
     1
102
RTVSPropertyOp14
 70
     1
102
RTVSPropertyOp15
 70
     1
102
RTVSPropertyOp16
 70
     1
102
RTVSPropertyOp17
 70
     1
102
RTVSPropertyOp18
 70
     1
102
RTVSPropertyOp19
 70
     1
102
RTVSPropertyOp20
 70
     1
102
RTVSPropertyOp21
 70
     1
102
RTVSPropertyOp22
 70
     1
102
RTVSPropertyOp23
 70
     1
102
RTVSPropertyOp24
 70
     1
102
RTVSPropertyOp25
 70
     1
102
RTVSPropertyOp26
 70
     1
102
RTVSPropertyOp27
 70
     1
  0
XRECORD
  5
180B
102
{ACAD_REACTORS
330
180A
102
}
330
180A
100
AcDbXrecord
280
     1
102
RTVSPropertyOp0
 70
     1
102
RTVSPropertyOp1
 70
     1
102
RTVSPropertyOp2
 70
     1
102
RTVSPropertyOp3
 70
     1
102
RTVSPropertyOp4
 70
     1
102
RTVSPropertyOp5
 70
     1
102
RTVSPropertyOp6
 70
     1
102
RTVSPropertyOp7
 70
     1
102
RTVSPropertyOp8
 70
     1
102
RTVSPropertyOp9
 70
     1
102
RTVSPropertyOp10
 70
     1
102
RTVSPropertyOp11
 70
     1
102
RTVSPropertyOp12
 70
     1
102
RTVSPropertyOp13
 70
     1
102
RTVSPropertyOp14
 70
     1
102
RTVSPropertyOp15
 70
     1
102
RTVSPropertyOp16
 70
     1
102
RTVSPropertyOp17
 70
     1
102
RTVSPropertyOp18
 70
     1
102
RTVSPropertyOp19
 70
     1
102
RTVSPropertyOp20
 70
     1
102
RTVSPropertyOp21
 70
     1
102
RTVSPropertyOp22
 70
     1
102
RTVSPropertyOp23
 70
     1
102
RTVSPropertyOp24
 70
     1
102
RTVSPropertyOp25
 70
     1
102
RTVSPropertyOp26
 70
     1
102
RTVSPropertyOp27
 70
     1
  0
XRECORD
  5
1809
102
{ACAD_REACTORS
330
1808
102
}
330
1808
100
AcDbXrecord
280
     1
102
RTVSPropertyOp0
 70
     1
102
RTVSPropertyOp1
 70
     1
102
RTVSPropertyOp2
 70
     1
102
RTVSPropertyOp3
 70
     1
102
RTVSPropertyOp4
 70
     1
102
RTVSPropertyOp5
 70
     1
102
RTVSPropertyOp6
 70
     1
102
RTVSPropertyOp7
 70
     1
102
RTVSPropertyOp8
 70
     1
102
RTVSPropertyOp9
 70
     1
102
RTVSPropertyOp10
 70
     1
102
RTVSPropertyOp11
 70
     1
102
RTVSPropertyOp12
 70
     1
102
RTVSPropertyOp13
 70
     1
102
RTVSPropertyOp14
 70
     1
102
RTVSPropertyOp15
 70
     1
102
RTVSPropertyOp16
 70
     1
102
RTVSPropertyOp17
 70
     1
102
RTVSPropertyOp18
 70
     1
102
RTVSPropertyOp19
 70
     1
102
RTVSPropertyOp20
 70
     1
102
RTVSPropertyOp21
 70
     1
102
RTVSPropertyOp22
 70
     1
102
RTVSPropertyOp23
 70
     1
102
RTVSPropertyOp24
 70
     1
102
RTVSPropertyOp25
 70
     1
102
RTVSPropertyOp26
 70
     1
102
RTVSPropertyOp27
 70
     1
  0
XRECORD
  5
1805
102
{ACAD_REACTORS
330
1804
102
}
330
1804
100
AcDbXrecord
280
     1
102
RTVSPropertyOp0
 70
     1
102
RTVSPropertyOp1
 70
     1
102
RTVSPropertyOp2
 70
     1
102
RTVSPropertyOp3
 70
     1
102
RTVSPropertyOp4
 70
     1
102
RTVSPropertyOp5
 70
     1
102
RTVSPropertyOp6
 70
     1
102
RTVSPropertyOp7
 70
     1
102
RTVSPropertyOp8
 70
     1
102
RTVSPropertyOp9
 70
     1
102
RTVSPropertyOp10
 70
     1
102
RTVSPropertyOp11
 70
     1
102
RTVSPropertyOp12
 70
     1
102
RTVSPropertyOp13
 70
     1
102
RTVSPropertyOp14
 70
     1
102
RTVSPropertyOp15
 70
     1
102
RTVSPropertyOp16
 70
     1
102
RTVSPropertyOp17
 70
     1
102
RTVSPropertyOp18
 70
     1
102
RTVSPropertyOp19
 70
     1
102
RTVSPropertyOp20
 70
     1
102
RTVSPropertyOp21
 70
     1
102
RTVSPropertyOp22
 70
     1
102
RTVSPropertyOp23
 70
     1
102
RTVSPropertyOp24
 70
     1
102
RTVSPropertyOp25
 70
     1
102
RTVSPropertyOp26
 70
     1
102
RTVSPropertyOp27
 70
     1
  0
XRECORD
  5
1813
102
{ACAD_REACTORS
330
1812
102
}
330
1812
100
AcDbXrecord
280
     1
102
RTVSPropertyOp0
 70
     1
102
RTVSPropertyOp1
 70
     1
102
RTVSPropertyOp2
 70
     1
102
RTVSPropertyOp3
 70
     1
102
RTVSPropertyOp4
 70
     1
102
RTVSPropertyOp5
 70
     1
102
RTVSPropertyOp6
 70
     1
102
RTVSPropertyOp7
 70
     1
102
RTVSPropertyOp8
 70
     1
102
RTVSPropertyOp9
 70
     1
102
RTVSPropertyOp10
 70
     1
102
RTVSPropertyOp11
 70
     1
102
RTVSPropertyOp12
 70
     1
102
RTVSPropertyOp13
 70
     1
102
RTVSPropertyOp14
 70
     1
102
RTVSPropertyOp15
 70
     1
102
RTVSPropertyOp16
 70
     1
102
RTVSPropertyOp17
 70
     1
102
RTVSPropertyOp18
 70
     1
102
RTVSPropertyOp19
 70
     1
102
RTVSPropertyOp20
 70
     1
102
RTVSPropertyOp21
 70
     1
102
RTVSPropertyOp22
 70
     1
102
RTVSPropertyOp23
 70
     1
102
RTVSPropertyOp24
 70
     1
102
RTVSPropertyOp25
 70
     1
102
RTVSPropertyOp26
 70
     1
102
RTVSPropertyOp27
 70
     1
  0
XRECORD
  5
181B
102
{ACAD_REACTORS
330
181A
102
}
330
181A
100
AcDbXrecord
280
     1
102
RTVSPropertyOp0
 70
     1
102
RTVSPropertyOp1
 70
     1
102
RTVSPropertyOp2
 70
     1
102
RTVSPropertyOp3
 70
     1
102
RTVSPropertyOp4
 70
     1
102
RTVSPropertyOp5
 70
     1
102
RTVSPropertyOp6
 70
     1
102
RTVSPropertyOp7
 70
     1
102
RTVSPropertyOp8
 70
     1
102
RTVSPropertyOp9
 70
     1
102
RTVSPropertyOp10
 70
     1
102
RTVSPropertyOp11
 70
     1
102
RTVSPropertyOp12
 70
     1
102
RTVSPropertyOp13
 70
     1
102
RTVSPropertyOp14
 70
     1
102
RTVSPropertyOp15
 70
     1
102
RTVSPropertyOp16
 70
     1
102
RTVSPropertyOp17
 70
     1
102
RTVSPropertyOp18
 70
     1
102
RTVSPropertyOp19
 70
     1
102
RTVSPropertyOp20
 70
     1
102
RTVSPropertyOp21
 70
     1
102
RTVSPropertyOp22
 70
     1
102
RTVSPropertyOp23
 70
     1
102
RTVSPropertyOp24
 70
     1
102
RTVSPropertyOp25
 70
     1
102
RTVSPropertyOp26
 70
     1
102
RTVSPropertyOp27
 70
     1
  0
XRECORD
  5
180D
102
{ACAD_REACTORS
330
180C
102
}
330
180C
100
AcDbXrecord
280
     1
102
RTVSPropertyOp0
 70
     1
102
RTVSPropertyOp1
 70
     1
102
RTVSPropertyOp2
 70
     1
102
RTVSPropertyOp3
 70
     1
102
RTVSPropertyOp4
 70
     1
102
RTVSPropertyOp5
 70
     1
102
RTVSPropertyOp6
 70
     1
102
RTVSPropertyOp7
 70
     1
102
RTVSPropertyOp8
 70
     1
102
RTVSPropertyOp9
 70
     1
102
RTVSPropertyOp10
 70
     1
102
RTVSPropertyOp11
 70
     1
102
RTVSPropertyOp12
 70
     1
102
RTVSPropertyOp13
 70
     1
102
RTVSPropertyOp14
 70
     1
102
RTVSPropertyOp15
 70
     1
102
RTVSPropertyOp16
 70
     1
102
RTVSPropertyOp17
 70
     1
102
RTVSPropertyOp18
 70
     1
102
RTVSPropertyOp19
 70
     1
102
RTVSPropertyOp20
 70
     1
102
RTVSPropertyOp21
 70
     1
102
RTVSPropertyOp22
 70
     1
102
RTVSPropertyOp23
 70
     1
102
RTVSPropertyOp24
 70
     1
102
RTVSPropertyOp25
 70
     1
102
RTVSPropertyOp26
 70
     1
102
RTVSPropertyOp27
 70
     1
  0
XRECORD
  5
1811
102
{ACAD_REACTORS
330
1810
102
}
330
1810
100
AcDbXrecord
280
     1
102
RTVSPropertyOp0
 70
     1
102
RTVSPropertyOp1
 70
     1
102
RTVSPropertyOp2
 70
     1
102
RTVSPropertyOp3
 70
     1
102
RTVSPropertyOp4
 70
     1
102
RTVSPropertyOp5
 70
     1
102
RTVSPropertyOp6
 70
     1
102
RTVSPropertyOp7
 70
     1
102
RTVSPropertyOp8
 70
     1
102
RTVSPropertyOp9
 70
     1
102
RTVSPropertyOp10
 70
     1
102
RTVSPropertyOp11
 70
     1
102
RTVSPropertyOp12
 70
     1
102
RTVSPropertyOp13
 70
     1
102
RTVSPropertyOp14
 70
     1
102
RTVSPropertyOp15
 70
     1
102
RTVSPropertyOp16
 70
     1
102
RTVSPropertyOp17
 70
     1
102
RTVSPropertyOp18
 70
     1
102
RTVSPropertyOp19
 70
     1
102
RTVSPropertyOp20
 70
     1
102
RTVSPropertyOp21
 70
     1
102
RTVSPropertyOp22
 70
     1
102
RTVSPropertyOp23
 70
     1
102
RTVSPropertyOp24
 70
     1
102
RTVSPropertyOp25
 70
     1
102
RTVSPropertyOp26
 70
     1
102
RTVSPropertyOp27
 70
     1
  0
XRECORD
  5
1821
102
{ACAD_REACTORS
330
1820
102
}
330
1820
100
AcDbXrecord
280
     1
102
RTVSPropertyOp0
 70
     0
102
RTVSPropertyOp1
 70
     0
102
RTVSPropertyOp2
 70
     0
102
RTVSPropertyOp3
 70
     0
102
RTVSPropertyOp4
 70
     0
102
RTVSPropertyOp5
 70
     0
102
RTVSPropertyOp6
 70
     0
102
RTVSPropertyOp7
 70
     0
102
RTVSPropertyOp8
 70
     0
102
RTVSPropertyOp9
 70
     0
102
RTVSPropertyOp10
 70
     0
102
RTVSPropertyOp11
 70
     0
102
RTVSPropertyOp12
 70
     0
102
RTVSPropertyOp13
 70
     0
102
RTVSPropertyOp14
 70
     2
102
RTVSPropertyOp15
 70
     0
102
RTVSPropertyOp16
 70
     0
102
RTVSPropertyOp17
 70
     0
102
RTVSPropertyOp18
 70
     0
102
RTVSPropertyOp19
 70
     0
102
RTVSPropertyOp20
 70
     0
102
RTVSPropertyOp21
 70
     0
102
RTVSPropertyOp22
 70
     0
102
RTVSPropertyOp23
 70
     0
102
RTVSPropertyOp24
 70
     0
102
RTVSPropertyOp25
 70
     0
102
RTVSPropertyOp26
 70
     0
102
RTVSPropertyOp27
 70
     0
  0
XRECORD
  5
1819
102
{ACAD_REACTORS
330
1818
102
}
330
1818
100
AcDbXrecord
280
     1
102
RTVSPropertyOp0
 70
     1
102
RTVSPropertyOp1
 70
     1
102
RTVSPropertyOp2
 70
     1
102
RTVSPropertyOp3
 70
     1
102
RTVSPropertyOp4
 70
     1
102
RTVSPropertyOp5
 70
     1
102
RTVSPropertyOp6
 70
     1
102
RTVSPropertyOp7
 70
     1
102
RTVSPropertyOp8
 70
     1
102
RTVSPropertyOp9
 70
     1
102
RTVSPropertyOp10
 70
     1
102
RTVSPropertyOp11
 70
     1
102
RTVSPropertyOp12
 70
     1
102
RTVSPropertyOp13
 70
     1
102
RTVSPropertyOp14
 70
     1
102
RTVSPropertyOp15
 70
     1
102
RTVSPropertyOp16
 70
     1
102
RTVSPropertyOp17
 70
     1
102
RTVSPropertyOp18
 70
     1
102
RTVSPropertyOp19
 70
     1
102
RTVSPropertyOp20
 70
     1
102
RTVSPropertyOp21
 70
     1
102
RTVSPropertyOp22
 70
     1
102
RTVSPropertyOp23
 70
     1
102
RTVSPropertyOp24
 70
     1
102
RTVSPropertyOp25
 70
     1
102
RTVSPropertyOp26
 70
     1
102
RTVSPropertyOp27
 70
     1
  0
XRECORD
  5
17FD
102
{ACAD_REACTORS
330
17FC
102
}
330
17FC
100
AcDbXrecord
280
     1
102
RTVSPropertyOp0
 70
     1
102
RTVSPropertyOp1
 70
     1
102
RTVSPropertyOp2
 70
     1
102
RTVSPropertyOp3
 70
     1
102
RTVSPropertyOp4
 70
     1
102
RTVSPropertyOp5
 70
     1
102
RTVSPropertyOp6
 70
     1
102
RTVSPropertyOp7
 70
     1
102
RTVSPropertyOp8
 70
     1
102
RTVSPropertyOp9
 70
     1
102
RTVSPropertyOp10
 70
     1
102
RTVSPropertyOp11
 70
     1
102
RTVSPropertyOp12
 70
     1
102
RTVSPropertyOp13
 70
     1
102
RTVSPropertyOp14
 70
     1
102
RTVSPropertyOp15
 70
     1
102
RTVSPropertyOp16
 70
     1
102
RTVSPropertyOp17
 70
     1
102
RTVSPropertyOp18
 70
     1
102
RTVSPropertyOp19
 70
     1
102
RTVSPropertyOp20
 70
     1
102
RTVSPropertyOp21
 70
     1
102
RTVSPropertyOp22
 70
     1
102
RTVSPropertyOp23
 70
     1
102
RTVSPropertyOp24
 70
     1
102
RTVSPropertyOp25
 70
     1
102
RTVSPropertyOp26
 70
     1
102
RTVSPropertyOp27
 70
     1
  0
XRECORD
  5
17FF
102
{ACAD_REACTORS
330
17FE
102
}
330
17FE
100
AcDbXrecord
280
     1
102
RTVSPropertyOp0
 70
     1
102
RTVSPropertyOp1
 70
     1
102
RTVSPropertyOp2
 70
     1
102
RTVSPropertyOp3
 70
     1
102
RTVSPropertyOp4
 70
     1
102
RTVSPropertyOp5
 70
     1
102
RTVSPropertyOp6
 70
     1
102
RTVSPropertyOp7
 70
     1
102
RTVSPropertyOp8
 70
     1
102
RTVSPropertyOp9
 70
     1
102
RTVSPropertyOp10
 70
     1
102
RTVSPropertyOp11
 70
     1
102
RTVSPropertyOp12
 70
     1
102
RTVSPropertyOp13
 70
     1
102
RTVSPropertyOp14
 70
     1
102
RTVSPropertyOp15
 70
     1
102
RTVSPropertyOp16
 70
     1
102
RTVSPropertyOp17
 70
     1
102
RTVSPropertyOp18
 70
     1
102
RTVSPropertyOp19
 70
     1
102
RTVSPropertyOp20
 70
     1
102
RTVSPropertyOp21
 70
     1
102
RTVSPropertyOp22
 70
     1
102
RTVSPropertyOp23
 70
     1
102
RTVSPropertyOp24
 70
     1
102
RTVSPropertyOp25
 70
     1
102
RTVSPropertyOp26
 70
     1
102
RTVSPropertyOp27
 70
     1
  0
XRECORD
  5
1801
102
{ACAD_REACTORS
330
1800
102
}
330
1800
100
AcDbXrecord
280
     1
102
RTVSPropertyOp0
 70
     1
102
RTVSPropertyOp1
 70
     1
102
RTVSPropertyOp2
 70
     1
102
RTVSPropertyOp3
 70
     1
102
RTVSPropertyOp4
 70
     1
102
RTVSPropertyOp5
 70
     1
102
RTVSPropertyOp6
 70
     1
102
RTVSPropertyOp7
 70
     1
102
RTVSPropertyOp8
 70
     1
102
RTVSPropertyOp9
 70
     1
102
RTVSPropertyOp10
 70
     1
102
RTVSPropertyOp11
 70
     1
102
RTVSPropertyOp12
 70
     1
102
RTVSPropertyOp13
 70
     1
102
RTVSPropertyOp14
 70
     1
102
RTVSPropertyOp15
 70
     1
102
RTVSPropertyOp16
 70
     1
102
RTVSPropertyOp17
 70
     1
102
RTVSPropertyOp18
 70
     1
102
RTVSPropertyOp19
 70
     1
102
RTVSPropertyOp20
 70
     1
102
RTVSPropertyOp21
 70
     1
102
RTVSPropertyOp22
 70
     1
102
RTVSPropertyOp23
 70
     1
102
RTVSPropertyOp24
 70
     1
102
RTVSPropertyOp25
 70
     1
102
RTVSPropertyOp26
 70
     1
102
RTVSPropertyOp27
 70
     1
  0
XRECORD
  5
1803
102
{ACAD_REACTORS
330
1802
102
}
330
1802
100
AcDbXrecord
280
     1
102
RTVSPropertyOp0
 70
     1
102
RTVSPropertyOp1
 70
     1
102
RTVSPropertyOp2
 70
     1
102
RTVSPropertyOp3
 70
     1
102
RTVSPropertyOp4
 70
     1
102
RTVSPropertyOp5
 70
     1
102
RTVSPropertyOp6
 70
     1
102
RTVSPropertyOp7
 70
     1
102
RTVSPropertyOp8
 70
     1
102
RTVSPropertyOp9
 70
     1
102
RTVSPropertyOp10
 70
     1
102
RTVSPropertyOp11
 70
     1
102
RTVSPropertyOp12
 70
     1
102
RTVSPropertyOp13
 70
     1
102
RTVSPropertyOp14
 70
     1
102
RTVSPropertyOp15
 70
     1
102
RTVSPropertyOp16
 70
     1
102
RTVSPropertyOp17
 70
     1
102
RTVSPropertyOp18
 70
     1
102
RTVSPropertyOp19
 70
     1
102
RTVSPropertyOp20
 70
     1
102
RTVSPropertyOp21
 70
     1
102
RTVSPropertyOp22
 70
     1
102
RTVSPropertyOp23
 70
     1
102
RTVSPropertyOp24
 70
     1
102
RTVSPropertyOp25
 70
     1
102
RTVSPropertyOp26
 70
     1
102
RTVSPropertyOp27
 70
     1
  0
XRECORD
  5
181D
102
{ACAD_REACTORS
330
181C
102
}
330
181C
100
AcDbXrecord
280
     1
102
RTVSPropertyOp0
 70
     0
102
RTVSPropertyOp1
 70
     0
102
RTVSPropertyOp2
 70
     0
102
RTVSPropertyOp3
 70
     0
102
RTVSPropertyOp4
 70
     0
102
RTVSPropertyOp5
 70
     0
102
RTVSPropertyOp6
 70
     0
102
RTVSPropertyOp7
 70
     0
102
RTVSPropertyOp8
 70
     0
102
RTVSPropertyOp9
 70
     0
102
RTVSPropertyOp10
 70
     0
102
RTVSPropertyOp11
 70
     0
102
RTVSPropertyOp12
 70
     0
102
RTVSPropertyOp13
 70
     0
102
RTVSPropertyOp14
 70
     2
102
RTVSPropertyOp15
 70
     0
102
RTVSPropertyOp16
 70
     0
102
RTVSPropertyOp17
 70
     0
102
RTVSPropertyOp18
 70
     0
102
RTVSPropertyOp19
 70
     0
102
RTVSPropertyOp20
 70
     0
102
RTVSPropertyOp21
 70
     0
102
RTVSPropertyOp22
 70
     0
102
RTVSPropertyOp23
 70
     0
102
RTVSPropertyOp24
 70
     0
102
RTVSPropertyOp25
 70
     0
102
RTVSPropertyOp26
 70
     0
102
RTVSPropertyOp27
 70
     0
  0
XRECORD
  5
1817
102
{ACAD_REACTORS
330
1816
102
}
330
1816
100
AcDbXrecord
280
     1
102
RTVSPropertyOp0
 70
     1
102
RTVSPropertyOp1
 70
     1
102
RTVSPropertyOp2
 70
     1
102
RTVSPropertyOp3
 70
     1
102
RTVSPropertyOp4
 70
     1
102
RTVSPropertyOp5
 70
     1
102
RTVSPropertyOp6
 70
     1
102
RTVSPropertyOp7
 70
     1
102
RTVSPropertyOp8
 70
     1
102
RTVSPropertyOp9
 70
     1
102
RTVSPropertyOp10
 70
     1
102
RTVSPropertyOp11
 70
     1
102
RTVSPropertyOp12
 70
     1
102
RTVSPropertyOp13
 70
     1
102
RTVSPropertyOp14
 70
     1
102
RTVSPropertyOp15
 70
     1
102
RTVSPropertyOp16
 70
     1
102
RTVSPropertyOp17
 70
     1
102
RTVSPropertyOp18
 70
     1
102
RTVSPropertyOp19
 70
     1
102
RTVSPropertyOp20
 70
     1
102
RTVSPropertyOp21
 70
     1
102
RTVSPropertyOp22
 70
     1
102
RTVSPropertyOp23
 70
     1
102
RTVSPropertyOp24
 70
     1
102
RTVSPropertyOp25
 70
     1
102
RTVSPropertyOp26
 70
     1
102
RTVSPropertyOp27
 70
     1
  0
XRECORD
  5
181F
102
{ACAD_REACTORS
330
181E
102
}
330
181E
100
AcDbXrecord
280
     1
102
RTVSPropertyOp0
 70
     0
102
RTVSPropertyOp1
 70
     0
102
RTVSPropertyOp2
 70
     0
102
RTVSPropertyOp3
 70
     0
102
RTVSPropertyOp4
 70
     0
102
RTVSPropertyOp5
 70
     0
102
RTVSPropertyOp6
 70
     0
102
RTVSPropertyOp7
 70
     0
102
RTVSPropertyOp8
 70
     0
102
RTVSPropertyOp9
 70
     0
102
RTVSPropertyOp10
 70
     0
102
RTVSPropertyOp11
 70
     0
102
RTVSPropertyOp12
 70
     0
102
RTVSPropertyOp13
 70
     0
102
RTVSPropertyOp14
 70
     2
102
RTVSPropertyOp15
 70
     0
102
RTVSPropertyOp16
 70
     0
102
RTVSPropertyOp17
 70
     0
102
RTVSPropertyOp18
 70
     0
102
RTVSPropertyOp19
 70
     0
102
RTVSPropertyOp20
 70
     0
102
RTVSPropertyOp21
 70
     0
102
RTVSPropertyOp22
 70
     0
102
RTVSPropertyOp23
 70
     0
102
RTVSPropertyOp24
 70
     0
102
RTVSPropertyOp25
 70
     0
102
RTVSPropertyOp26
 70
     0
102
RTVSPropertyOp27
 70
     0
  0
XRECORD
  5
180F
102
{ACAD_REACTORS
330
180E
102
}
330
180E
100
AcDbXrecord
280
     1
102
RTVSPropertyOp0
 70
     1
102
RTVSPropertyOp1
 70
     1
102
RTVSPropertyOp2
 70
     1
102
RTVSPropertyOp3
 70
     1
102
RTVSPropertyOp4
 70
     1
102
RTVSPropertyOp5
 70
     1
102
RTVSPropertyOp6
 70
     1
102
RTVSPropertyOp7
 70
     1
102
RTVSPropertyOp8
 70
     1
102
RTVSPropertyOp9
 70
     1
102
RTVSPropertyOp10
 70
     1
102
RTVSPropertyOp11
 70
     1
102
RTVSPropertyOp12
 70
     1
102
RTVSPropertyOp13
 70
     1
102
RTVSPropertyOp14
 70
     1
102
RTVSPropertyOp15
 70
     1
102
RTVSPropertyOp16
 70
     1
102
RTVSPropertyOp17
 70
     1
102
RTVSPropertyOp18
 70
     1
102
RTVSPropertyOp19
 70
     1
102
RTVSPropertyOp20
 70
     1
102
RTVSPropertyOp21
 70
     1
102
RTVSPropertyOp22
 70
     1
102
RTVSPropertyOp23
 70
     1
102
RTVSPropertyOp24
 70
     1
102
RTVSPropertyOp25
 70
     1
102
RTVSPropertyOp26
 70
     1
102
RTVSPropertyOp27
 70
     1
  0
XRECORD
  5
1815
102
{ACAD_REACTORS
330
1814
102
}
330
1814
100
AcDbXrecord
280
     1
102
RTVSPropertyOp0
 70
     1
102
RTVSPropertyOp1
 70
     1
102
RTVSPropertyOp2
 70
     1
102
RTVSPropertyOp3
 70
     1
102
RTVSPropertyOp4
 70
     1
102
RTVSPropertyOp5
 70
     1
102
RTVSPropertyOp6
 70
     1
102
RTVSPropertyOp7
 70
     1
102
RTVSPropertyOp8
 70
     1
102
RTVSPropertyOp9
 70
     1
102
RTVSPropertyOp10
 70
     1
102
RTVSPropertyOp11
 70
     1
102
RTVSPropertyOp12
 70
     1
102
RTVSPropertyOp13
 70
     1
102
RTVSPropertyOp14
 70
     1
102
RTVSPropertyOp15
 70
     1
102
RTVSPropertyOp16
 70
     1
102
RTVSPropertyOp17
 70
     1
102
RTVSPropertyOp18
 70
     1
102
RTVSPropertyOp19
 70
     1
102
RTVSPropertyOp20
 70
     1
102
RTVSPropertyOp21
 70
     1
102
RTVSPropertyOp22
 70
     1
102
RTVSPropertyOp23
 70
     1
102
RTVSPropertyOp24
 70
     1
102
RTVSPropertyOp25
 70
     1
102
RTVSPropertyOp26
 70
     1
102
RTVSPropertyOp27
 70
     1
  0
ENDSEC
  0
EOF
