  0
SECTION
  2
HEADER
  9
$ACADVER
  1
AC1015
  9
$ACADMAINTVER
 70
    20
  9
$DWGCODEPAGE
  3
ANSI_1252
  9
$INSBASE
 10
0.0
 20
0.0
 30
0.0
  9
$EXTMIN
 10
867.8358569630594
 20
1387.580732806408
 30
-0.0000000000000025
  9
$EXTMAX
 10
870.6346728956095
 20
1388.14064232576
 30
0.0000000000000023
  9
$LIMMIN
 10
0.0
 20
0.0
  9
$LIMMAX
 10
420.0
 20
297.0
  9
$ORTHOMODE
 70
     1
  9
$REGENMODE
 70
     1
  9
$FILLMODE
 70
     1
  9
$QTEXTMODE
 70
     0
  9
$MIRRTEXT
 70
     0
  9
$LTSCALE
 40
1.0
  9
$ATTMODE
 70
     1
  9
$TEXTSIZE
 40
2.5
  9
$TRACEWID
 40
1.0
  9
$TEXTSTYLE
  7
Standard
  9
$CLAYER
  8
0
  9
$CELTYPE
  6
ByLayer
  9
$CECOLOR
 62
   256
  9
$CELTSCALE
 40
1.0
  9
$DISPSILH
 70
     0
  9
$DIMSCALE
 40
1.0
  9
$DIMASZ
 40
2.5
  9
$DIMEXO
 40
0.625
  9
$DIMDLI
 40
3.75
  9
$DIMRND
 40
0.0
  9
$DIMDLE
 40
0.0
  9
$DIMEXE
 40
1.25
  9
$DIMTP
 40
0.0
  9
$DIMTM
 40
0.0
  9
$DIMTXT
 40
2.5
  9
$DIMCEN
 40
2.5
  9
$DIMTSZ
 40
0.0
  9
$DIMTOL
 70
     0
  9
$DIMLIM
 70
     0
  9
$DIMTIH
 70
     0
  9
$DIMTOH
 70
     0
  9
$DIMSE1
 70
     0
  9
$DIMSE2
 70
     0
  9
$DIMTAD
 70
     1
  9
$DIMZIN
 70
     8
  9
$DIMBLK
  1

  9
$DIMASO
 70
     1
  9
$DIMSHO
 70
     1
  9
$DIMPOST
  1

  9
$DIMAPOST
  1

  9
$DIMALT
 70
     0
  9
$DIMALTD
 70
     3
  9
$DIMALTF
 40
0.03937007874016
  9
$DIMLFAC
 40
1.0
  9
$DIMTOFL
 70
     1
  9
$DIMTVP
 40
0.0
  9
$DIMTIX
 70
     0
  9
$DIMSOXD
 70
     0
  9
$DIMSAH
 70
     0
  9
$DIMBLK1
  1

  9
$DIMBLK2
  1

  9
$DIMSTYLE
  2
ISO-25
  9
$DIMCLRD
 70
     0
  9
$DIMCLRE
 70
     0
  9
$DIMCLRT
 70
     0
  9
$DIMTFAC
 40
1.0
  9
$DIMGAP
 40
0.625
  9
$DIMJUST
 70
     0
  9
$DIMSD1
 70
     0
  9
$DIMSD2
 70
     0
  9
$DIMTOLJ
 70
     0
  9
$DIMTZIN
 70
     8
  9
$DIMALTZ
 70
     0
  9
$DIMALTTZ
 70
     0
  9
$DIMUPT
 70
     0
  9
$DIMDEC
 70
     2
  9
$DIMTDEC
 70
     2
  9
$DIMALTU
 70
     2
  9
$DIMALTTD
 70
     3
  9
$DIMTXSTY
  7
Standard
  9
$DIMAUNIT
 70
     0
  9
$DIMADEC
 70
     0
  9
$DIMALTRND
 40
0.0
  9
$DIMAZIN
 70
     0
  9
$DIMDSEP
 70
    44
  9
$DIMATFIT
 70
     3
  9
$DIMFRAC
 70
     0
  9
$DIMLDRBLK
  1

  9
$DIMLUNIT
 70
     2
  9
$DIMLWD
 70
    -2
  9
$DIMLWE
 70
    -2
  9
$DIMTMOVE
 70
     0
  9
$LUNITS
 70
     2
  9
$LUPREC
 70
     4
  9
$SKETCHINC
 40
1.0
  9
$FILLETRAD
 40
0.0
  9
$AUNITS
 70
     0
  9
$AUPREC
 70
     0
  9
$MENU
  1
.
  9
$ELEVATION
 40
0.0
  9
$PELEVATION
 40
0.0
  9
$THICKNESS
 40
0.0
  9
$LIMCHECK
 70
     0
  9
$CHAMFERA
 40
0.0
  9
$CHAMFERB
 40
0.0
  9
$CHAMFERC
 40
0.0
  9
$CHAMFERD
 40
0.0
  9
$SKPOLY
 70
     0
  9
$TDCREATE
 40
2454862.634129954
  9
$TDUCREATE
 40
2454862.592463287
  9
$TDUPDATE
 40
2454929.625506366
  9
$TDUUPDATE
 40
2454929.583839699
  9
$TDINDWG
 40
0.0034425579
  9
$TDUSRTIMER
 40
0.0034425579
  9
$USRTIMER
 70
     1
  9
$ANGBASE
 50
0.0
  9
$ANGDIR
 70
     0
  9
$PDMODE
 70
     0
  9
$PDSIZE
 40
0.0
  9
$PLINEWID
 40
0.0
  9
$SPLFRAME
 70
     0
  9
$SPLINETYPE
 70
     6
  9
$SPLINESEGS
 70
     8
  9
$HANDSEED
  5
1086
  9
$SURFTAB1
 70
     6
  9
$SURFTAB2
 70
     6
  9
$SURFTYPE
 70
     6
  9
$SURFU
 70
     6
  9
$SURFV
 70
     6
  9
$UCSBASE
  2

  9
$UCSNAME
  2

  9
$UCSORG
 10
0.0
 20
0.0
 30
0.0
  9
$UCSXDIR
 10
1.0
 20
0.0
 30
0.0
  9
$UCSYDIR
 10
0.0
 20
1.0
 30
0.0
  9
$UCSORTHOREF
  2

  9
$UCSORTHOVIEW
 70
     0
  9
$UCSORGTOP
 10
0.0
 20
0.0
 30
0.0
  9
$UCSORGBOTTOM
 10
0.0
 20
0.0
 30
0.0
  9
$UCSORGLEFT
 10
0.0
 20
0.0
 30
0.0
  9
$UCSORGRIGHT
 10
0.0
 20
0.0
 30
0.0
  9
$UCSORGFRONT
 10
0.0
 20
0.0
 30
0.0
  9
$UCSORGBACK
 10
0.0
 20
0.0
 30
0.0
  9
$PUCSBASE
  2

  9
$PUCSNAME
  2

  9
$PUCSORG
 10
0.0
 20
0.0
 30
0.0
  9
$PUCSXDIR
 10
1.0
 20
0.0
 30
0.0
  9
$PUCSYDIR
 10
0.0
 20
1.0
 30
0.0
  9
$PUCSORTHOREF
  2

  9
$PUCSORTHOVIEW
 70
     0
  9
$PUCSORGTOP
 10
0.0
 20
0.0
 30
0.0
  9
$PUCSORGBOTTOM
 10
0.0
 20
0.0
 30
0.0
  9
$PUCSORGLEFT
 10
0.0
 20
0.0
 30
0.0
  9
$PUCSORGRIGHT
 10
0.0
 20
0.0
 30
0.0
  9
$PUCSORGFRONT
 10
0.0
 20
0.0
 30
0.0
  9
$PUCSORGBACK
 10
0.0
 20
0.0
 30
0.0
  9
$USERI1
 70
     0
  9
$USERI2
 70
     0
  9
$USERI3
 70
     0
  9
$USERI4
 70
     0
  9
$USERI5
 70
     0
  9
$USERR1
 40
0.0
  9
$USERR2
 40
0.0
  9
$USERR3
 40
0.0
  9
$USERR4
 40
0.0
  9
$USERR5
 40
0.0
  9
$WORLDVIEW
 70
     1
  9
$SHADEDGE
 70
     3
  9
$SHADEDIF
 70
    70
  9
$TILEMODE
 70
     1
  9
$MAXACTVP
 70
    64
  9
$PINSBASE
 10
0.0
 20
0.0
 30
0.0
  9
$PLIMCHECK
 70
     0
  9
$PEXTMIN
 10
1.000000000000000E+20
 20
1.000000000000000E+20
 30
1.000000000000000E+20
  9
$PEXTMAX
 10
-1.000000000000000E+20
 20
-1.000000000000000E+20
 30
-1.000000000000000E+20
  9
$PLIMMIN
 10
0.0
 20
0.0
  9
$PLIMMAX
 10
420.0
 20
297.0
  9
$UNITMODE
 70
     0
  9
$VISRETAIN
 70
     1
  9
$PLINEGEN
 70
     0
  9
$PSLTSCALE
 70
     1
  9
$TREEDEPTH
 70
  3020
  9
$CMLSTYLE
  2
Standard
  9
$CMLJUST
 70
     0
  9
$CMLSCALE
 40
20.0
  9
$PROXYGRAPHICS
 70
     1
  9
$MEASUREMENT
 70
     1
  9
$CELWEIGHT
370
    -1
  9
$ENDCAPS
280
     0
  9
$JOINSTYLE
280
     0
  9
$LWDISPLAY
290
     0
  9
$INSUNITS
 70
     4
  9
$HYPERLINKBASE
  1

  9
$STYLESHEET
  1

  9
$XEDIT
290
     1
  9
$CEPSNTYPE
380
     0
  9
$PSTYLEMODE
290
     1
  9
$FINGERPRINTGUID
  2
{CF2C9FCA-2128-4F23-9DDB-6D5DB1E42EB7}
  9
$VERSIONGUID
  2
{F7C33F96-5C98-43F3-8D2C-03F903468B1F}
  9
$EXTNAMES
290
     1
  9
$PSVPSCALE
 40
0.0
  9
$OLESTARTUP
290
     0
  0
ENDSEC
  0
SECTION
  2
CLASSES
  0
CLASS
  1
ACDBDICTIONARYWDFLT
  2
AcDbDictionaryWithDefault
  3
ObjectDBX Classes
 90
        0
280
     0
281
     0
  0
CLASS
  1
TABLESTYLE
  2
AcDbTableStyle
  3
ObjectDBX Classes
 90
     2047
280
     0
281
     0
  0
CLASS
  1
DIMASSOC
  2
AcDbDimAssoc
  3
"AcDbDimAssoc|Product Desc:     AcDim ARX App For Dimension|Company:          Autodesk, Inc.|WEB Address:      www.autodesk.com"
 90
    32768
280
     0
281
     0
  0
CLASS
  1
SORTENTSTABLE
  2
AcDbSortentsTable
  3
ObjectDBX Classes
 90
    32768
280
     0
281
     0
  0
CLASS
  1
DICTIONARYVAR
  2
AcDbDictionaryVar
  3
ObjectDBX Classes
 90
        0
280
     0
281
     0
  0
CLASS
  1
ACDBPLACEHOLDER
  2
AcDbPlaceHolder
  3
ObjectDBX Classes
 90
        0
280
     0
281
     0
  0
CLASS
  1
LAYOUT
  2
AcDbLayout
  3
ObjectDBX Classes
 90
        0
280
     0
281
     0
  0
ENDSEC
  0
SECTION
  2
TABLES
  0
TABLE
  2
VPORT
  5
8
330
0
100
AcDbSymbolTable
 70
     6
  0
VPORT
  5
107E
330
8
100
AcDbSymbolTableRecord
100
AcDbViewportTableRecord
  2
*Active
 70
     0
 10
0.0
 20
0.0
 11
1.0
 21
1.0
 12
869.2352649293345
 22
1387.860687566084
 13
0.0
 23
0.0
 14
10.0
 24
10.0
 15
10.0
 25
10.0
 16
0.0
 26
0.0
 36
1.0
 17
0.0
 27
0.0
 37
0.0
 40
1.753678909923451
 41
1.602030456852791
 42
50.0
 43
0.0
 44
0.0
 50
0.0
 51
0.0
 71
     0
 72
  1000
 73
     1
 74
     3
 75
     0
 76
     0
 77
     0
 78
     0
281
     0
 65
     1
110
0.0
120
0.0
130
0.0
111
1.0
121
0.0
131
0.0
112
0.0
122
1.0
132
0.0
 79
     0
146
0.0
  0
ENDTAB
  0
TABLE
  2
LTYPE
  5
5
330
0
100
AcDbSymbolTable
 70
     3
  0
LTYPE
  5
14
330
5
100
AcDbSymbolTableRecord
100
AcDbLinetypeTableRecord
  2
ByBlock
 70
     0
  3

 72
    65
 73
     0
 40
0.0
  0
LTYPE
  5
15
330
5
100
AcDbSymbolTableRecord
100
AcDbLinetypeTableRecord
  2
ByLayer
 70
     0
  3

 72
    65
 73
     0
 40
0.0
  0
LTYPE
  5
16
330
5
100
AcDbSymbolTableRecord
100
AcDbLinetypeTableRecord
  2
Continuous
 70
     0
  3
Solid line
 72
    65
 73
     0
 40
0.0
  0
LTYPE
  5
37F
330
5
100
AcDbSymbolTableRecord
100
AcDbLinetypeTableRecord
  2
DASHDOT
 70
     0
  3
Dash dot __ . __ . __ . __ . __ . __ . __ . __
 72
    65
 73
     4
 40
25.4
 49
12.7
 74
     0
 49
-6.349999999999999
 74
     0
 49
0.0
 74
     0
 49
-6.349999999999999
 74
     0
  0
LTYPE
  5
380
330
5
100
AcDbSymbolTableRecord
100
AcDbLinetypeTableRecord
  2
HIDDEN
 70
     0
  3
Hidden __ __ __ __ __ __ __ __ __ __ __ __ __ _
 72
    65
 73
     2
 40
9.524999999999998
 49
6.349999999999999
 74
     0
 49
-3.174999999999999
 74
     0
  0
ENDTAB
  0
TABLE
  2
LAYER
  5
2
330
0
100
AcDbSymbolTable
 70
    10
  0
LAYER
  5
10
330
2
100
AcDbSymbolTableRecord
100
AcDbLayerTableRecord
  2
0
 70
     0
 62
     7
  6
Continuous
370
    -3
390
F
  0
LAYER
  5
381
330
2
100
AcDbSymbolTableRecord
100
AcDbLayerTableRecord
  2
1
 70
     0
 62
     1
  6
Continuous
370
    -3
390
F
  0
LAYER
  5
382
330
2
100
AcDbSymbolTableRecord
100
AcDbLayerTableRecord
  2
4
 70
     0
 62
     4
  6
Continuous
370
    -3
390
F
  0
LAYER
  5
383
330
2
100
AcDbSymbolTableRecord
100
AcDbLayerTableRecord
  2
cen
 70
     0
 62
     7
  6
DASHDOT
370
    -3
390
F
  0
LAYER
  5
384
330
2
100
AcDbSymbolTableRecord
100
AcDbLayerTableRecord
  2
hid
 70
     0
 62
     7
  6
HIDDEN
370
    -3
390
F
  0
LAYER
  5
385
330
2
100
AcDbSymbolTableRecord
100
AcDbLayerTableRecord
  2
9
 70
     0
 62
     9
  6
Continuous
370
    -3
390
F
  0
LAYER
  5
386
330
2
100
AcDbSymbolTableRecord
100
AcDbLayerTableRecord
  2
cotas
 70
     0
 62
     1
  6
Continuous
370
    -3
390
F
  0
LAYER
  5
387
330
2
100
AcDbSymbolTableRecord
100
AcDbLayerTableRecord
  2
Defpoints
 70
     0
 62
     7
  6
Continuous
290
     0
370
    -3
390
F
  0
LAYER
  5
388
330
2
100
AcDbSymbolTableRecord
100
AcDbLayerTableRecord
  2
SANINDUSA
 70
     0
 62
     3
  6
Continuous
370
    -3
390
F
  0
LAYER
  5
389
330
2
100
AcDbSymbolTableRecord
100
AcDbLayerTableRecord
  2
hid1
 70
     0
 62
     9
  6
HIDDEN
370
    -3
390
F
1001
AcAecLayerStandard
1000

1000

  0
ENDTAB
  0
TABLE
  2
STYLE
  5
3
330
0
100
AcDbSymbolTable
 70
     2
  0
STYLE
  5
11
330
3
100
AcDbSymbolTableRecord
100
AcDbTextStyleTableRecord
  2
Standard
 70
     0
 40
0.0
 41
1.0
 50
0.0
 71
     0
 42
2.5
  3
txt
  4

  0
STYLE
  5
38A
330
3
100
AcDbSymbolTableRecord
100
AcDbTextStyleTableRecord
  2
SANINDUSA
 70
     0
 40
0.0
 41
1.0
 50
0.0
 71
     0
 42
2.5
  3
verdana.TTF
  4

1001
ACAD
1000
Verdana
1071
       34
  0
ENDTAB
  0
TABLE
  2
VIEW
  5
6
330
0
100
AcDbSymbolTable
 70
     0
  0
ENDTAB
  0
TABLE
  2
UCS
  5
7
330
0
100
AcDbSymbolTable
 70
     0
  0
ENDTAB
  0
TABLE
  2
APPID
  5
9
330
0
100
AcDbSymbolTable
 70
     7
  0
APPID
  5
12
330
9
100
AcDbSymbolTableRecord
100
AcDbRegAppTableRecord
  2
ACAD
 70
     0
  0
APPID
  5
38C
330
9
100
AcDbSymbolTableRecord
100
AcDbRegAppTableRecord
  2
ACAD_DSTYLE_DIMEXT_LENGTH
 70
     0
  0
APPID
  5
38D
330
9
100
AcDbSymbolTableRecord
100
AcDbRegAppTableRecord
  2
ACAD_DSTYLE_DIMEXT_ENABLED
 70
     0
  0
APPID
  5
38E
330
9
100
AcDbSymbolTableRecord
100
AcDbRegAppTableRecord
  2
ACAD_DSTYLE_DIMJOGGED_JOGANGLE_SYMBOL
 70
     0
  0
APPID
  5
38F
330
9
100
AcDbSymbolTableRecord
100
AcDbRegAppTableRecord
  2
ACAD_DSTYLE_DIMARC_LENGTH_SYMBOL
 70
     0
  0
APPID
  5
390
330
9
100
AcDbSymbolTableRecord
100
AcDbRegAppTableRecord
  2
AcAecLayerStandard
 70
     0
  0
APPID
  5
391
330
9
100
AcDbSymbolTableRecord
100
AcDbRegAppTableRecord
  2
ACAD_PSEXT
 70
     0
  0
ENDTAB
  0
TABLE
  2
DIMSTYLE
  5
A
330
0
100
AcDbSymbolTable
 70
     2
100
AcDbDimStyleTable
 71
     1
340
2B
  0
DIMSTYLE
105
2B
330
A
100
AcDbSymbolTableRecord
100
AcDbDimStyleTableRecord
  2
ISO-25
 70
     0
 41
2.5
 42
0.625
 43
3.75
 44
1.25
 73
     0
 74
     0
 77
     1
 78
     8
140
2.5
141
2.5
143
0.03937007874016
147
0.625
171
     3
172
     1
271
     2
272
     2
274
     3
278
    44
283
     0
284
     8
340
11
  0
DIMSTYLE
105
38B
330
A
100
AcDbSymbolTableRecord
100
AcDbDimStyleTableRecord
  2
SANINDUSA
 70
     0
 40
5.0
 41
2.0
 42
1.0
 43
1.0
 44
1.0
 73
     0
 74
     0
 77
     1
 78
     8
140
2.0
141
0.0
143
0.03937007874016
147
1.0
171
     3
172
     1
176
   256
177
   256
178
   256
179
     1
271
     1
272
     1
274
     3
278
    44
283
     0
284
     8
340
38A
371
    -1
372
    -1
1001
ACAD_DSTYLE_DIMEXT_LENGTH
1070
   378
1040
1.0
1001
ACAD_DSTYLE_DIMEXT_ENABLED
1070
   383
1070
     0
1001
ACAD_DSTYLE_DIMARC_LENGTH_SYMBOL
1070
   379
1070
     0
1001
ACAD_DSTYLE_DIMJOGGED_JOGANGLE_SYMBOL
1070
   384
1040
1.570796326794896
  0
ENDTAB
  0
TABLE
  2
BLOCK_RECORD
  5
1
330
0
100
AcDbSymbolTable
 70
   151
  0
BLOCK_RECORD
  5
23
330
1
100
AcDbSymbolTableRecord
100
AcDbBlockTableRecord
  2
*Model_Space
340
26
  0
BLOCK_RECORD
  5
1F
330
1
100
AcDbSymbolTableRecord
100
AcDbBlockTableRecord
  2
*Paper_Space
340
22
  0
BLOCK_RECORD
  5
27
330
1
100
AcDbSymbolTableRecord
100
AcDbBlockTableRecord
  2
*Paper_Space0
340
2A
  0
ENDTAB
  0
ENDSEC
  0
SECTION
  2
BLOCKS
  0
BLOCK
  5
24
330
23
100
AcDbEntity
  8
0
100
AcDbBlockBegin
  2
*Model_Space
 70
     0
 10
0.0
 20
0.0
 30
0.0
  3
*Model_Space
  1

  0
ENDBLK
  5
25
330
23
100
AcDbEntity
  8
0
100
AcDbBlockEnd
  0
BLOCK
  5
20
330
1F
100
AcDbEntity
 67
     1
  8
0
100
AcDbBlockBegin
  2
*Paper_Space
 70
     0
 10
0.0
 20
0.0
 30
0.0
  3
*Paper_Space
  1

  0
ENDBLK
  5
21
330
1F
100
AcDbEntity
 67
     1
  8
0
100
AcDbBlockEnd
  0
BLOCK
  5
28
330
27
100
AcDbEntity
 67
     1
  8
0
100
AcDbBlockBegin
  2
*Paper_Space0
 70
     0
 10
0.0
 20
0.0
 30
0.0
  3
*Paper_Space0
  1

  0
ENDBLK
  5
29
330
27
100
AcDbEntity
 67
     1
  8
0
100
AcDbBlockEnd
  0
ENDSEC
  0
SECTION
  2
ENTITIES
  0
ARC
  5
79A
330
23
100
AcDbEntity
  8
SANINDUSA
100
AcDbCircle
 10
869.62544186305
 20
1387.947650592172
 30
0.0
 40
0.0698748181147012
100
AcDbArc
 50
274.4233152555359
 51
0.0817170019678335
  0
LINE
  5
79B
330
23
100
AcDbEntity
  8
SANINDUSA
100
AcDbLine
 10
869.6953538033957
 20
1387.947749042754
 30
0.0
 11
869.6953538153167
 21
1387.995655456131
 31
0.0
  0
LWPOLYLINE
  5
79C
330
23
100
AcDbEntity
  8
SANINDUSA
100
AcDbPolyline
 90
        3
 70
   128
 43
0.0
 10
869.5434895727629
 20
1387.870255665724
 10
869.5806463334555
 20
1387.873534204309
 10
869.6314061853881
 20
1387.878013016527
  0
LWPOLYLINE
  5
79D
330
23
100
AcDbEntity
  8
SANINDUSA
100
AcDbPolyline
 90
       15
 70
   128
 43
0.0
 10
869.6698969576354
 20
1388.025986164679
 10
869.6688157293792
 20
1388.028841409703
 10
869.66727775073
 20
1388.032168218737
 10
869.6654798958297
 20
1388.035358524752
 10
869.6634375426764
 20
1388.038328321521
 10
869.6614474627967
 20
1388.040720377919
 10
869.6593276832098
 20
1388.042842599434
 10
869.6570879194732
 20
1388.044697521125
 10
869.6545119855398
 20
1388.046423323323
 10
869.6519995305534
 20
1388.047762975433
 10
869.649194237947
 20
1388.048919025214
 10
869.6463059160704
 20
1388.049779569542
 10
869.6433461282248
 20
1388.050349779298
 10
869.6403216097349
 20
1388.050633802457
 10
869.6387944791311
 20
1388.050633619763
  0
ARC
  5
79E
330
23
100
AcDbEntity
  8
SANINDUSA
100
AcDbCircle
 10
869.8275621930529
 20
1388.079256285122
 30
0.0
 40
0.1664436221278863
100
AcDbArc
 50
198.6762217254729
 51
205.8298247209342
  0
ARC
  5
79F
330
23
100
AcDbEntity
  8
SANINDUSA
100
AcDbCircle
 10
869.6903538153167
 20
1387.995655456131
 30
0.0
 40
0.005
100
AcDbArc
 50
0.0
 51
90.0
  0
ARC
  5
7A0
330
23
100
AcDbEntity
  8
SANINDUSA
100
AcDbCircle
 10
869.6866085094178
 20
1388.005655456131
 30
0.0
 40
0.0050000001111745
100
AcDbArc
 50
252.5075778418592
 51
269.9962700034262
  0
ARC
  5
7A1
330
23
100
AcDbEntity
  8
SANINDUSA
100
AcDbCircle
 10
869.688777864675
 20
1388.013057735984
 30
0.0
 40
0.0127129946816958
100
AcDbArc
 50
209.8148467465055
 51
253.2103856197536
  0
ARC
  5
7A2
330
23
100
AcDbEntity
  8
SANINDUSA
100
AcDbCircle
 10
869.5461253245227
 20
1387.840371680768
 30
0.0
 40
0.0300000000000092
100
AcDbArc
 50
95.03685052922916
 51
175.0000013771831
  0
LINE
  5
7A7
330
23
100
AcDbEntity
  8
SANINDUSA
100
AcDbLine
 10
869.1353538153165
 20
1387.942384124078
 30
0.0
 11
869.1353538153165
 21
1387.873449277461
 31
0.0
  0
LINE
  5
7AE
330
23
100
AcDbEntity
  8
SANINDUSA
100
AcDbLine
 10
869.1353538153165
 20
1388.020655456131
 30
0.0
 11
869.1353538153165
 21
1387.942384124078
 31
0.0
  0
ARC
  5
7B0
330
23
100
AcDbEntity
  8
SANINDUSA
100
AcDbCircle
 10
869.2555459789453
 20
1388.040692918777
 30
0.0
 40
0.0400219864661792
100
AcDbArc
 50
206.430930591174
 51
269.9835200683581
  0
ARC
  5
7B4
330
23
100
AcDbEntity
  8
SANINDUSA
100
AcDbCircle
 10
869.2448639618367
 20
1388.03627705903
 30
0.0
 40
0.0285022051084165
100
AcDbArc
 50
184.0319724821832
 51
208.0403015868836
  0
LINE
  5
7B8
330
23
100
AcDbEntity
  8
SANINDUSA
100
AcDbLine
 10
869.680499709119
 20
1388.000670934405
 30
0.0
 11
869.5053538153166
 21
1388.000670934404
 31
0.0
  0
LINE
  5
7BD
330
23
100
AcDbEntity
  8
SANINDUSA
100
AcDbLine
 10
869.5467146169184
 20
1388.050655456131
 30
0.0
 11
869.1353538153165
 21
1388.050655456131
 31
0.0
  0
LINE
  5
7C0
330
23
100
AcDbEntity
  8
SANINDUSA
100
AcDbLine
 10
869.1353538153165
 20
1388.050655456131
 30
0.0
 11
869.1353538153165
 21
1388.020655456131
 31
0.0
  0
LINE
  5
7C1
330
23
100
AcDbEntity
  8
SANINDUSA
100
AcDbLine
 10
869.5053538153166
 20
1388.000670934404
 30
0.0
 11
869.2555344590877
 21
1388.000670934405
 31
0.0
  0
LINE
  5
7C5
330
23
100
AcDbEntity
  8
SANINDUSA
100
AcDbLine
 10
869.2164323024915
 20
1388.034272979441
 30
0.0
 11
869.2165236210405
 21
1388.036818112654
 31
0.0
  0
LINE
  5
7CA
330
23
100
AcDbEntity
  8
SANINDUSA
100
AcDbLine
 10
869.2165236210405
 20
1388.036818112654
 30
0.0
 11
869.2166327315147
 21
1388.039510362584
 31
0.0
  0
ARC
  5
7D5
330
23
100
AcDbEntity
  8
SANINDUSA
100
AcDbCircle
 10
869.1908062079283
 20
1388.04072264895
 30
0.0
 40
0.0258549646057258
100
AcDbArc
 50
357.3125329899072
 51
18.06055875054354
  0
ARC
  5
7DA
330
23
100
AcDbEntity
  8
SANINDUSA
100
AcDbCircle
 10
869.5314804177465
 20
1383.739305840928
 30
0.0
 40
4.130970722057341
100
AcDbArc
 50
89.83343919790634
 51
91.26783946769716
  0
LWPOLYLINE
  5
7DB
330
23
100
AcDbEntity
  8
SANINDUSA
100
AcDbPolyline
 90
        3
 70
   128
 43
0.0
 10
869.4400778684611
 20
1387.869265245144
 10
869.4224969122405
 20
1387.869033636396
 10
869.4224968526357
 20
1387.869033636396
  0
LWPOLYLINE
  5
7DC
330
23
100
AcDbEntity
  8
SANINDUSA
100
AcDbPolyline
 90
        4
 70
   128
 43
0.0
 10
869.4224968526357
 20
1387.869033636396
 10
869.4224967930312
 20
1387.869033636396
 10
869.3625346395965
 20
1387.86940403456
 10
869.1353538159127
 20
1387.870807351415
  0
LINE
  5
7DD
330
23
100
AcDbEntity
  8
SANINDUSA
100
AcDbLine
 10
869.1353538153165
 20
1387.873449277461
 30
0.0
 11
869.1353538159127
 21
1387.870807351415
 31
0.0
  0
LINE
  5
7E0
330
23
100
AcDbEntity
  8
SANINDUSA
100
AcDbLine
 10
869.1353538159127
 20
1387.870807351415
 30
0.0
 11
869.1353538159127
 21
1387.842304395382
 31
0.0
  0
LINE
  5
7E7
330
23
100
AcDbEntity
  8
SANINDUSA
100
AcDbLine
 10
869.1353538159127
 20
1387.842304395382
 30
0.0
 11
869.1353538159127
 21
1387.749320002143
 31
0.0
  0
LINE
  5
7E9
330
23
100
AcDbEntity
  8
SANINDUSA
100
AcDbLine
 10
869.1353538159127
 20
1387.673112930601
 30
0.0
 11
869.3032857158266
 21
1387.676044188559
 31
0.0
  0
LINE
  5
7EA
330
23
100
AcDbEntity
  8
SANINDUSA
100
AcDbLine
 10
869.1353538159127
 20
1387.749320002143
 30
0.0
 11
869.1353538159127
 21
1387.673112930601
 31
0.0
  0
LINE
  5
7EB
330
23
100
AcDbEntity
  8
SANINDUSA
100
AcDbLine
 10
869.508197698102
 20
1387.751068324428
 30
0.0
 11
869.5162397961174
 21
1387.84298992537
 31
0.0
  0
ARC
  5
7ED
330
23
100
AcDbEntity
  8
SANINDUSA
100
AcDbCircle
 10
869.3041583361486
 20
1387.626051803801
 30
0.0
 40
0.05
100
AcDbArc
 50
61.02583425180288
 51
90.99999999692187
  0
ARC
  5
7EF
330
23
100
AcDbEntity
  8
SANINDUSA
100
AcDbCircle
 10
869.4034634544678
 20
1387.805393637949
 30
0.0
 40
0.1549999999999999
100
AcDbArc
 50
241.0258342518029
 51
263.8163903475065
  0
ARC
  5
7F1
330
23
100
AcDbEntity
  8
SANINDUSA
100
AcDbCircle
 10
869.398611688096
 20
1387.760660054221
 30
0.0
 40
0.1100055173314491
100
AcDbArc
 50
283.1627528302926
 51
346.5841626342188
  0
ARC
  5
7F2
330
23
100
AcDbEntity
  8
SANINDUSA
100
AcDbCircle
 10
869.3986162813118
 20
1387.760655456131
 30
0.0
 40
0.1100000000000001
100
AcDbArc
 50
263.8163903475065
 51
283.160974406279
  0
ARC
  5
7F3
330
23
100
AcDbEntity
  8
SANINDUSA
100
AcDbCircle
 10
869.3986162813118
 20
1387.760655456131
 30
0.0
 40
0.11
100
AcDbArc
 50
346.5859341635598
 51
355.0000000042766
  0
LWPOLYLINE
  5
7F5
330
23
100
AcDbEntity
  8
SANINDUSA
100
AcDbPolyline
 90
        3
 70
   128
 43
0.0
 10
869.6832629415984
 20
1388.000655455386
 10
869.6820445630546
 20
1388.000663878267
 10
869.6804997298713
 20
1388.000670933967
  0
LINE
  5
7F9
330
23
100
AcDbEntity
  8
SANINDUSA
100
AcDbLine
 10
869.6832629494078
 20
1388.000655456131
 30
0.0
 11
869.6903538153167
 21
1388.000655456131
 31
0.0
  0
LINE
  5
7FA
330
23
100
AcDbEntity
  8
SANINDUSA
100
AcDbLine
 10
869.6833245201204
 20
1388.000655456131
 30
0.0
 11
869.6865773174758
 21
1388.000655455386
 31
0.0
  0
LINE
  5
7FB
330
23
100
AcDbEntity
  8
SANINDUSA
100
AcDbLine
 10
869.5467146169184
 20
1388.050655456131
 30
0.0
 11
869.6388106094829
 21
1388.050655456131
 31
0.0
  0
CIRCLE
  5
809
330
23
100
AcDbEntity
  8
SANINDUSA
100
AcDbCircle
 10
867.9482648155786
 20
1388.041642932297
 30
0.0
 40
0.0075
  0
LINE
  5
816
330
23
100
AcDbEntity
  8
SANINDUSA
100
AcDbLine
 10
868.1858569630595
 20
1388.14064232576
 30
0.0
 11
867.8658569630593
 21
1388.14064232576
 31
0.0
  0
CIRCLE
  5
817
330
23
100
AcDbEntity
  8
SANINDUSA
100
AcDbCircle
 10
868.1032648155786
 20
1388.041642932297
 30
0.0
 40
0.0075000000000001
  0
LINE
  5
81A
330
23
100
AcDbEntity
  8
SANINDUSA
100
AcDbLine
 10
868.0827132634041
 20
1387.620214860566
 30
0.0
 11
868.0827132637412
 21
1387.642896230102
 31
0.0
  0
LINE
  5
81D
330
23
100
AcDbEntity
  8
SANINDUSA
100
AcDbLine
 10
867.9690006627147
 20
1387.620214860566
 30
0.0
 11
867.9690006623776
 21
1387.642896230102
 31
0.0
  0
SPLINE
  5
81E
330
23
100
AcDbEntity
  8
SANINDUSA
100
AcDbSpline
210
0.0
220
0.0
230
1.0
 70
    12
 71
     3
 72
    35
 73
    31
 74
     0
 42
0.0000000001
 43
0.0000000001
 40
0.0
 40
0.0
 40
0.0
 40
0.0
 40
0.0172480863627831
 40
0.0348250585850282
 40
0.0527312402996672
 40
0.0709669334567764
 40
0.0895324197021752
 40
0.1084279616389647
 40
0.1276538039836403
 40
0.1472101746270117
 40
0.1670972856090755
 40
0.1873153340159794
 40
0.20786450280634
 40
0.2287449615734379
 40
0.2499568672490716
 40
0.2968820243658207
 40
0.3542287618092201
 40
0.4219948222963395
 40
0.5001767407461175
 40
0.5783916398495926
 40
0.6461465159619321
 40
0.7034453566183135
 40
0.7502919876035456
 40
0.7893780967413511
 40
0.8273230877531375
 40
0.8641287953011941
 40
0.8997971714490502
 40
0.9343303039941003
 40
0.9677304378367194
 40
1.0
 40
1.0
 40
1.0
 40
1.0
 10
868.1092515786993
 20
1387.672973732785
 30
0.0
 41
1.0
 10
868.1094760673932
 20
1387.673206968698
 30
0.0
 41
1.0
 10
868.1099293253231
 20
1387.673677887857
 30
0.0
 41
1.0
 10
868.1106077441448
 20
1387.674398443373
 30
0.0
 41
1.0
 10
868.1112927792197
 20
1387.675138111382
 30
0.0
 41
1.0
 10
868.1119834514499
 20
1387.675897709695
 30
0.0
 41
1.0
 10
868.1126794961059
 20
1387.676677352684
 30
0.0
 41
1.0
 10
868.1133804364298
 20
1387.677477346791
 30
0.0
 41
1.0
 10
868.1140858385763
 20
1387.678297943417
 30
0.0
 41
1.0
 10
868.1147952412219
 20
1387.679139406445
 30
0.0
 41
1.0
 10
868.115508174856
 20
1387.680001993116
 30
0.0
 41
1.0
 10
868.1162241559089
 20
1387.680885958838
 30
0.0
 41
1.0
 10
868.1169426897104
 20
1387.681791555029
 30
0.0
 41
1.0
 10
868.1176632637543
 20
1387.682719030219
 30
0.0
 41
1.0
 10
868.1186733897352
 20
1387.68404737841
 30
0.0
 41
1.0
 10
868.1200653045442
 20
1387.685943170703
 30
0.0
 41
1.0
 10
868.1219061213388
 20
1387.688589473186
 30
0.0
 41
1.0
 10
868.1239847195213
 20
1387.69178093189
 30
0.0
 41
1.0
 10
868.1261499482792
 20
1387.695378656237
 30
0.0
 41
1.0
 10
868.1281772422545
 20
1387.699055617339
 30
0.0
 41
1.0
 10
868.1298974068679
 20
1387.702453132827
 30
0.0
 41
1.0
 10
868.1312651005287
 20
1387.705369329075
 30
0.0
 41
1.0
 10
868.132343953129
 20
1387.707827519303
 30
0.0
 41
1.0
 10
868.1332336215717
 20
1387.709972927188
 30
0.0
 41
1.0
 10
868.1340149979313
 20
1387.711959635361
 30
0.0
 41
1.0
 10
868.1347386194453
 20
1387.713900369139
 30
0.0
 41
1.0
 10
868.13540765598
 20
1387.715793297052
 30
0.0
 41
1.0
 10
868.1360243093601
 20
1387.717637005926
 30
0.0
 41
1.0
 10
868.136594038078
 20
1387.719429247422
 30
0.0
 41
1.0
 10
868.1369443504957
 20
1387.720610950587
 30
0.0
 41
1.0
 10
868.1371164912095
 20
1387.721191630049
 30
0.0
 41
1.0
  0
SPLINE
  5
822
330
23
100
AcDbEntity
  8
SANINDUSA
100
AcDbSpline
210
0.0
220
0.0
230
1.0
 70
    12
 71
     3
 72
    10
 73
     6
 74
     0
 42
0.0000000001
 43
0.0000000001
 40
0.0
 40
0.0
 40
0.0
 40
0.0
 40
0.5
 40
0.5
 40
1.0
 40
1.0
 40
1.0
 40
1.0
 10
867.9145974349095
 20
1387.721191630049
 30
0.0
 41
1.0
 10
867.9172202605235
 20
1387.712199085087
 30
0.0
 41
1.0
 10
867.920908147528
 20
1387.70351328899
 30
0.0
 41
1.0
 10
867.9302685077683
 20
1387.687270658604
 30
0.0
 41
1.0
 10
867.9359408879646
 20
1387.679715571022
 30
0.0
 41
1.0
 10
867.9424623474195
 20
1387.672973732785
 30
0.0
 41
1.0
  0
SPLINE
  5
824
330
23
100
AcDbEntity
  8
SANINDUSA
100
AcDbSpline
210
0.0
220
0.0
230
1.0
 70
    12
 71
     3
 72
    80
 73
    76
 74
     0
 42
0.0000000001
 43
0.0000000001
 40
0.0
 40
0.0
 40
0.0
 40
0.0
 40
0.0055771818123245
 40
0.0111891108815709
 40
0.0168357982637338
 40
0.0225172546502574
 40
0.0282334903748954
 40
0.0339845154203756
 40
0.0397703394248609
 40
0.0455909716882379
 40
0.0514464211782103
 40
0.0573366965362312
 40
0.0632618060832569
 40
0.0692217578253402
 40
0.0752165594590713
 40
0.0812462183768579
 40
0.0873107416720668
 40
0.0934101361440147
 40
0.0995444083028263
 40
0.105713564374159
 40
0.1119176103037937
 40
0.1181565517621091
 40
0.1244303941484253
 40
0.1307391425952356
 40
0.1370828019723272
 40
0.143461376890786
 40
0.1498748717068987
 40
0.1563232905259525
 40
0.1628066372059324
 40
0.1693249153611214
 40
0.1758781283656116
 40
0.1824662793567192
 40
0.1890893712383141
 40
0.1957474066840609
 40
0.202440388140584
 40
0.2091683178305424
 40
0.2159311977556355
 40
0.2227290296995269
 40
0.2295618152307003
 40
0.2364295557052386
 40
0.2433322522695366
 40
0.2502699058629499
 40
0.297212142577255
 40
0.3545862549762337
 40
0.4223790914407623
 40
0.5005738684297598
 40
0.5366203766140231
 40
0.5705980733843868
 40
0.6025082436604372
 40
0.6323520938949303
 40
0.6601307550371179
 40
0.6858452866881211
 40
0.7094966830706915
 40
0.7310858818511467
 40
0.7506137776168382
 40
0.7644151347065047
 40
0.778075489525914
 40
0.791594968081487
 40
0.8049736972638164
 40
0.8182118049364495
 40
0.8313094200292901
 40
0.844266672636906
 40
0.8570836941220626
 40
0.8697606172247919
 40
0.8822975761773756
 40
0.8946947068256076
 40
0.9069521467567492
 40
0.9190700354346256
 40
0.9310485143423338
 40
0.9428877271330662
 40
0.9545878197896142
 40
0.9661489407931396
 40
0.9775712413018549
 40
0.9888548753403028
 40
1.0
 40
1.0
 40
1.0
 40
1.0
 10
868.1513670140182
 20
1387.823642254122
 30
0.0
 41
1.0
 10
868.1513660786174
 20
1387.824008503699
 30
0.0
 41
1.0
 10
868.1513642019881
 20
1387.824743284681
 30
0.0
 41
1.0
 10
868.1513489534244
 20
1387.825848789841
 30
0.0
 41
1.0
 10
868.1513243948732
 20
1387.826960959928
 30
0.0
 41
1.0
 10
868.1512894507205
 20
1387.828079700954
 30
0.0
 41
1.0
 10
868.1512441831241
 20
1387.829204915645
 30
0.0
 41
1.0
 10
868.1511883463469
 20
1387.830336503407
 30
0.0
 41
1.0
 10
868.1511217777746
 20
1387.83147436028
 30
0.0
 41
1.0
 10
868.1510442922467
 20
1387.832618378901
 30
0.0
 41
1.0
 10
868.1509557106991
 20
1387.833768448467
 30
0.0
 41
1.0
 10
868.1508558524908
 20
1387.834924454692
 30
0.0
 41
1.0
 10
868.1507445375512
 20
1387.836086279772
 30
0.0
 41
1.0
 10
868.1506215858743
 20
1387.837253802346
 30
0.0
 41
1.0
 10
868.1504868177313
 20
1387.83842689746
 30
0.0
 41
1.0
 10
868.1503400536918
 20
1387.839605436531
 30
0.0
 41
1.0
 10
868.1501811146969
 20
1387.840789287311
 30
0.0
 41
1.0
 10
868.150009822121
 20
1387.841978313853
 30
0.0
 41
1.0
 10
868.1498259978377
 20
1387.843172376472
 30
0.0
 41
1.0
 10
868.1496294642872
 20
1387.844371331722
 30
0.0
 41
1.0
 10
868.149420044544
 20
1387.845575032352
 30
0.0
 41
1.0
 10
868.1491975623869
 20
1387.846783327284
 30
0.0
 41
1.0
 10
868.1489618423691
 20
1387.847996061575
 30
0.0
 41
1.0
 10
868.1487127098922
 20
1387.849213076392
 30
0.0
 41
1.0
 10
868.1484499912778
 20
1387.850434208981
 30
0.0
 41
1.0
 10
868.1481735138438
 20
1387.85165929264
 30
0.0
 41
1.0
 10
868.1478831059804
 20
1387.852888156691
 30
0.0
 41
1.0
 10
868.1475785972276
 20
1387.854120626455
 30
0.0
 41
1.0
 10
868.1472598183542
 20
1387.855356523229
 30
0.0
 41
1.0
 10
868.1469266014383
 20
1387.856595664259
 30
0.0
 41
1.0
 10
868.146578779949
 20
1387.857837862723
 30
0.0
 41
1.0
 10
868.1462161888291
 20
1387.859082927702
 30
0.0
 41
1.0
 10
868.1458386645793
 20
1387.86033066417
 30
0.0
 41
1.0
 10
868.145446045345
 20
1387.861580872966
 30
0.0
 41
1.0
 10
868.1450381709993
 20
1387.862833350789
 30
0.0
 41
1.0
 10
868.1446148832444
 20
1387.864087890159
 30
0.0
 41
1.0
 10
868.1441760256539
 20
1387.865344279464
 30
0.0
 41
1.0
 10
868.1437214439375
 20
1387.866602302737
 30
0.0
 41
1.0
 10
868.143250985382
 20
1387.867861740438
 30
0.0
 41
1.0
 10
868.142764501391
 20
1387.869122366443
 30
0.0
 41
1.0
 10
868.1422618383807
 20
1387.870383959335
 30
0.0
 41
1.0
 10
868.1407462399988
 20
1387.874070407054
 30
0.0
 41
1.0
 10
868.1376855455958
 20
1387.880698650703
 30
0.0
 41
1.0
 10
868.1321257027649
 20
1387.890529412966
 30
0.0
 41
1.0
 10
868.1244458164464
 20
1387.901446732384
 30
0.0
 41
1.0
 10
868.1164915382373
 20
1387.910374402465
 30
0.0
 41
1.0
 10
868.1094072451012
 20
1387.917018242145
 30
0.0
 41
1.0
 10
868.1042910685697
 20
1387.921314312464
 30
0.0
 41
1.0
 10
868.0992843380748
 20
1387.925095417968
 30
0.0
 41
1.0
 10
868.094435928643
 20
1387.928401171831
 30
0.0
 41
1.0
 10
868.0897884355376
 20
1387.931271443237
 30
0.0
 41
1.0
 10
868.085378368041
 20
1387.933746014952
 30
0.0
 41
1.0
 10
868.0812367577175
 20
1387.935863748922
 30
0.0
 41
1.0
 10
868.0773897225366
 20
1387.937661975074
 30
0.0
 41
1.0
 10
868.0740798760933
 20
1387.939081325641
 30
0.0
 41
1.0
 10
868.071216988527
 20
1387.940221698664
 30
0.0
 41
1.0
 10
868.0686990916392
 20
1387.941162485528
 30
0.0
 41
1.0
 10
868.0661876536316
 20
1387.942040484472
 30
0.0
 41
1.0
 10
868.0636843616129
 20
1387.94285694949
 30
0.0
 41
1.0
 10
868.0611908381042
 20
1387.943613170495
 30
0.0
 41
1.0
 10
868.0587086382686
 20
1387.944310461848
 30
0.0
 41
1.0
 10
868.056239251441
 20
1387.94495016192
 30
0.0
 41
1.0
 10
868.0537841016274
 20
1387.945533629852
 30
0.0
 41
1.0
 10
868.0513445483724
 20
1387.946062243171
 30
0.0
 41
1.0
 10
868.0489218876171
 20
1387.946537395242
 30
0.0
 41
1.0
 10
868.0465173526451
 20
1387.946960493083
 30
0.0
 41
1.0
 10
868.0441321150809
 20
1387.947332954426
 30
0.0
 41
1.0
 10
868.041767285946
 20
1387.947656207893
 30
0.0
 41
1.0
 10
868.0394239167657
 20
1387.947931682173
 30
0.0
 41
1.0
 10
868.0371030007206
 20
1387.948160835962
 30
0.0
 41
1.0
 10
868.0348054738434
 20
1387.948345038811
 30
0.0
 41
1.0
 10
868.0325322162458
 20
1387.948485998997
 30
0.0
 41
1.0
 10
868.0302840534041
 20
1387.948584186564
 30
0.0
 41
1.0
 10
868.0280617573854
 20
1387.948644604573
 30
0.0
 41
1.0
 10
868.0265888625347
 20
1387.948652003421
 30
0.0
 41
1.0
 10
868.0258569630595
 20
1387.94865568
 30
0.0
 41
1.0
  0
SPLINE
  5
826
330
23
100
AcDbEntity
  8
SANINDUSA
100
AcDbSpline
210
0.0
220
0.0
230
1.0
 70
    12
 71
     3
 72
    14
 73
    10
 74
     0
 42
0.0000000001
 43
0.0000000001
 40
0.0
 40
0.0
 40
0.0
 40
0.0
 40
0.2499999999999998
 40
0.2499999999999998
 40
0.5
 40
0.5
 40
0.75
 40
0.75
 40
1.0
 40
1.0
 40
1.0
 40
1.0
 10
868.0258569630595
 20
1387.94865568
 30
0.0
 41
1.0
 10
868.0094907603649
 20
1387.94865568
 30
0.0
 41
1.0
 10
867.9931324717342
 20
1387.945434480046
 30
0.0
 41
1.0
 10
867.9628409344472
 20
1387.932988107066
 30
0.0
 41
1.0
 10
867.9489216698149
 20
1387.923766023583
 30
0.0
 41
1.0
 10
867.9256454070211
 20
1387.900665348423
 30
0.0
 41
1.0
 10
867.9162988042458
 20
1387.886794608717
 30
0.0
 41
1.0
 10
867.9036461622491
 20
1387.856491755225
 30
0.0
 41
1.0
 10
867.9003469088799
 20
1387.840075411304
 30
0.0
 41
1.0
 10
867.9003469121006
 20
1387.823642254122
 30
0.0
 41
1.0
  0
SPLINE
  5
828
330
23
100
AcDbEntity
  8
SANINDUSA
100
AcDbSpline
210
0.0
220
0.0
230
1.0
 70
    12
 71
     3
 72
    44
 73
    40
 74
     0
 42
0.0000000001
 43
0.0000000001
 40
0.0
 40
0.0
 40
0.0
 40
0.0
 40
0.0131364468754531
 40
0.0264649575643294
 40
0.039985936175063
 40
0.0536997684832052
 40
0.0676068228791751
 40
0.0817074512558494
 40
0.0960019898403447
 40
0.1104907599739767
 40
0.1251740688440461
 40
0.1400522101708652
 40
0.1551254648531537
 40
0.1703941015746667
 40
0.1858583773747562
 40
0.2015185381852809
 40
0.2173748193361993
 40
0.2334274460318632
 40
0.249676633800084
 40
0.2966036476618399
 40
0.3539939755439535
 40
0.4218475556587337
 40
0.5001625119732358
 40
0.5461982268059879
 40
0.5888104725153171
 40
0.6280001996910835
 40
0.6637683603333012
 40
0.6961159367744681
 40
0.7250439876820351
 40
0.7505537248577311
 40
0.7810573607297719
 40
0.8108593408836764
 40
0.8399615300234872
 40
0.8683659106530189
 40
0.8960745953567521
 40
0.9230898405674199
 40
0.949414062032709
 40
0.9750498522276654
 40
1.0
 40
1.0
 40
1.0
 40
1.0
 10
868.1371164912095
 20
1387.721191630049
 30
0.0
 41
1.0
 10
868.1372436076543
 20
1387.721629362298
 30
0.0
 41
1.0
 10
868.1374996990733
 20
1387.722511226741
 30
0.0
 41
1.0
 10
868.1378797536304
 20
1387.723845569757
 30
0.0
 41
1.0
 10
868.1382601031277
 20
1387.725200553249
 30
0.0
 41
1.0
 10
868.1386400210644
 20
1387.726576359979
 30
0.0
 41
1.0
 10
868.1390194117241
 20
1387.727972986766
 30
0.0
 41
1.0
 10
868.1393980022088
 20
1387.729390479961
 30
0.0
 41
1.0
 10
868.1397755635853
 20
1387.730828870916
 30
0.0
 41
1.0
 10
868.140151850369
 20
1387.732288193554
 30
0.0
 41
1.0
 10
868.140526617079
 20
1387.733768479479
 30
0.0
 41
1.0
 10
868.1408996137049
 20
1387.735269759223
 30
0.0
 41
1.0
 10
868.1412705869632
 20
1387.736792061834
 30
0.0
 41
1.0
 10
868.1416392798949
 20
1387.73833541484
 30
0.0
 41
1.0
 10
868.1420054322053
 20
1387.739899844385
 30
0.0
 41
1.0
 10
868.1423687793074
 20
1387.741485374282
 30
0.0
 41
1.0
 10
868.1427290558836
 20
1387.743092029287
 30
0.0
 41
1.0
 10
868.1430859823873
 20
1387.744719822301
 30
0.0
 41
1.0
 10
868.1436602494246
 20
1387.74739987889
 30
0.0
 41
1.0
 10
868.1444950837482
 20
1387.751483552733
 30
0.0
 41
1.0
 10
868.1455975386153
 20
1387.757328170832
 30
0.0
 41
1.0
 10
868.1467756038806
 20
1387.764257088079
 30
0.0
 41
1.0
 10
868.1477502250714
 20
1387.770818291003
 30
0.0
 41
1.0
 10
868.1484961513618
 20
1387.776531123076
 30
0.0
 41
1.0
 10
868.1490131367842
 20
1387.780913253634
 30
0.0
 41
1.0
 10
868.1494424916213
 20
1387.784949562938
 30
0.0
 41
1.0
 10
868.1497959228593
 20
1387.788638474273
 30
0.0
 41
1.0
 10
868.1500840827478
 20
1387.791978645108
 30
0.0
 41
1.0
 10
868.1503166122851
 20
1387.794969004755
 30
0.0
 41
1.0
 10
868.1505226218346
 20
1387.797898938502
 30
0.0
 41
1.0
 10
868.1507084878324
 20
1387.800862284592
 30
0.0
 41
1.0
 10
868.1508769222094
 20
1387.803952739188
 30
0.0
 41
1.0
 10
868.1510174477923
 20
1387.806973380561
 30
0.0
 41
1.0
 10
868.1511318110224
 20
1387.809923932477
 30
0.0
 41
1.0
 10
868.1512216972681
 20
1387.81280417913
 30
0.0
 41
1.0
 10
868.1512889077
 20
1387.815613923534
 30
0.0
 41
1.0
 10
868.1513346249047
 20
1387.818352996559
 30
0.0
 41
1.0
 10
868.1513620725189
 20
1387.821021251478
 30
0.0
 41
1.0
 10
868.1513653818031
 20
1387.82277651687
 30
0.0
 41
1.0
 10
868.1513670140182
 20
1387.823642254122
 30
0.0
 41
1.0
  0
SPLINE
  5
829
330
23
100
AcDbEntity
  8
SANINDUSA
100
AcDbSpline
210
0.0
220
0.0
230
1.0
 70
    12
 71
     3
 72
    35
 73
    31
 74
     0
 42
0.0000000001
 43
0.0000000001
 40
0.0
 40
0.0
 40
0.0
 40
0.0
 40
0.0153857201514735
 40
0.0307445910426977
 40
0.0460841169342486
 40
0.0614118317947496
 40
0.0767352881484425
 40
0.0920620457884475
 40
0.1073996604384981
 40
0.1227556724467719
 40
0.138137595594977
 40
0.1535529061037449
 40
0.1690090319121389
 40
0.1845133423044157
 40
0.2000731379514922
 40
0.2156956414278697
 40
0.2313879882573055
 40
0.2471572185325388
 40
0.3074887146294325
 40
0.3685272971495535
 40
0.4306314707882241
 40
0.4941411810739306
 40
0.5727414859482292
 40
0.6561026428197422
 40
0.7446779496884407
 40
0.77911642572001
 40
0.8218563173064501
 40
0.8729119709082272
 40
0.93229155315219
 40
1.0
 40
1.0
 40
1.0
 40
1.0
 10
868.0869856267181
 20
1387.655657625564
 30
0.0
 41
1.0
 10
868.0870697976317
 20
1387.655702175086
 30
0.0
 41
1.0
 10
868.0872379925745
 20
1387.655791196388
 30
0.0
 41
1.0
 10
868.0874986015922
 20
1387.655931535489
 30
0.0
 41
1.0
 10
868.0877649221294
 20
1387.656076747415
 30
0.0
 41
1.0
 10
868.088037537265
 20
1387.656227378609
 30
0.0
 41
1.0
 10
868.0883162458584
 20
1387.656383350654
 30
0.0
 41
1.0
 10
868.0886010548901
 20
1387.656544753727
 30
0.0
 41
1.0
 10
868.0888919139007
 20
1387.656711634256
 30
0.0
 41
1.0
 10
868.0891887860843
 20
1387.656884051768
 30
0.0
 41
1.0
 10
868.0894916292198
 20
1387.657062063636
 30
0.0
 41
1.0
 10
868.0898004007527
 20
1387.657245729147
 30
0.0
 41
1.0
 10
868.0901150564544
 20
1387.657435108417
 30
0.0
 41
1.0
 10
868.090435550601
 20
1387.657630262554
 30
0.0
 41
1.0
 10
868.0907618365022
 20
1387.657831254011
 30
0.0
 41
1.0
 10
868.0910938640941
 20
1387.658038144895
 30
0.0
 41
1.0
 10
868.0914315889905
 20
1387.658251003321
 30
0.0
 41
1.0
 10
868.0920977063287
 20
1387.65867563545
 30
0.0
 41
1.0
 10
868.0931194453686
 20
1387.659344571902
 30
0.0
 41
1.0
 10
868.0945294158252
 20
1387.660307992803
 30
0.0
 41
1.0
 10
868.0959955099757
 20
1387.66135337044
 30
0.0
 41
1.0
 10
868.0976203694587
 20
1387.662562330376
 30
0.0
 41
1.0
 10
868.099426555892
 20
1387.663971736085
 30
0.0
 41
1.0
 10
868.1014257543223
 20
1387.665616778783
 30
0.0
 41
1.0
 10
868.1030511138308
 20
1387.667028518197
 30
0.0
 41
1.0
 10
868.1043385189875
 20
1387.668190979116
 30
0.0
 41
1.0
 10
868.1053250922783
 20
1387.669102808925
 30
0.0
 41
1.0
 10
868.1064888642978
 20
1387.670208419004
 30
0.0
 41
1.0
 10
868.1078241501463
 20
1387.671513724862
 30
0.0
 41
1.0
 10
868.1087554251121
 20
1387.672466255078
 30
0.0
 41
1.0
 10
868.1092515786993
 20
1387.672973732785
 30
0.0
 41
1.0
  0
SPLINE
  5
82A
330
23
100
AcDbEntity
  8
SANINDUSA
100
AcDbSpline
210
0.0
220
0.0
230
1.0
 70
    12
 71
     3
 72
    14
 73
    10
 74
     0
 42
0.0000000001
 43
0.0000000001
 40
0.0
 40
0.0
 40
0.0
 40
0.0
 40
0.25
 40
0.25
 40
0.5
 40
0.5
 40
0.75
 40
0.75
 40
1.0
 40
1.0
 40
1.0
 40
1.0
 10
868.0869856267181
 20
1387.655657625564
 30
0.0
 41
1.0
 10
868.0861494616344
 20
1387.655085224311
 30
0.0
 41
1.0
 10
868.085372827309
 20
1387.65434515246
 30
0.0
 41
1.0
 10
868.0840534093638
 20
1387.652558154971
 30
0.0
 41
1.0
 10
868.0835121283351
 20
1387.651511602234
 30
0.0
 41
1.0
 10
868.0827441425192
 20
1387.649217651912
 30
0.0
 41
1.0
 10
868.0825180073133
 20
1387.647971955651
 30
0.0
 41
1.0
 10
868.0823890486212
 20
1387.645432696087
 30
0.0
 41
1.0
 10
868.0824854533788
 20
1387.644140942866
 30
0.0
 41
1.0
 10
868.0827132634041
 20
1387.642896206025
 30
0.0
 41
1.0
  0
SPLINE
  5
82B
330
23
100
AcDbEntity
  8
SANINDUSA
100
AcDbSpline
210
0.0
220
0.0
230
1.0
 70
    12
 71
     3
 72
    12
 73
     8
 74
     0
 42
0.0000000001
 43
0.0000000001
 40
0.0
 40
0.0
 40
0.0
 40
0.0
 40
0.25
 40
0.25
 40
0.5
 40
0.5
 40
1.0
 40
1.0
 40
1.0
 40
1.0
 10
867.9424623474195
 20
1387.672973732785
 30
0.0
 41
1.0
 10
867.9443306320077
 20
1387.671042313512
 30
0.0
 41
1.0
 10
867.9462755303697
 20
1387.669167003476
 30
0.0
 41
1.0
 10
867.9502112326414
 20
1387.665652702782
 30
0.0
 41
1.0
 10
867.9522138527017
 20
1387.664001537527
 30
0.0
 41
1.0
 10
867.9582085714782
 20
1387.659444078123
 30
0.0
 41
1.0
 10
867.9619862354485
 20
1387.657103064945
 30
0.0
 41
1.0
 10
867.9647282994007
 20
1387.655657625564
 30
0.0
 41
1.0
  0
SPLINE
  5
82C
330
23
100
AcDbEntity
  8
SANINDUSA
100
AcDbSpline
210
0.0
220
0.0
230
1.0
 70
    12
 71
     3
 72
    14
 73
    10
 74
     0
 42
0.0000000001
 43
0.0000000001
 40
0.0
 40
0.0
 40
0.0
 40
0.0
 40
0.25
 40
0.25
 40
0.5
 40
0.5
 40
0.75
 40
0.75
 40
1.0
 40
1.0
 40
1.0
 40
1.0
 10
867.9690006627147
 20
1387.642896206025
 30
0.0
 41
1.0
 10
867.96922847274
 20
1387.644140942866
 30
0.0
 41
1.0
 10
867.9693248774977
 20
1387.645432696087
 30
0.0
 41
1.0
 10
867.9691959188057
 20
1387.647971955651
 30
0.0
 41
1.0
 10
867.9689697835996
 20
1387.649217651912
 30
0.0
 41
1.0
 10
867.9682017977837
 20
1387.651511602234
 30
0.0
 41
1.0
 10
867.9676605167552
 20
1387.652558154971
 30
0.0
 41
1.0
 10
867.96634109881
 20
1387.65434515246
 30
0.0
 41
1.0
 10
867.9655644644846
 20
1387.655085224311
 30
0.0
 41
1.0
 10
867.9647282994007
 20
1387.655657625564
 30
0.0
 41
1.0
  0
SPLINE
  5
82D
330
23
100
AcDbEntity
  8
SANINDUSA
100
AcDbSpline
210
0.0
220
0.0
230
1.0
 70
    12
 71
     3
 72
    10
 73
     6
 74
     0
 42
0.0000000001
 43
0.0000000001
 40
0.0
 40
0.0
 40
0.0
 40
0.0
 40
0.4999999999999992
 40
0.4999999999999992
 40
1.0
 40
1.0
 40
1.0
 40
1.0
 10
867.9003469121006
 20
1387.823642254122
 30
0.0
 41
1.0
 10
867.9003469154887
 20
1387.806355675288
 30
0.0
 41
1.0
 10
867.9014789049132
 20
1387.789061260092
 30
0.0
 41
1.0
 10
867.9061806330969
 20
1387.754786977866
 30
0.0
 41
1.0
 10
867.9097511217143
 20
1387.737807561004
 30
0.0
 41
1.0
 10
867.9145974349095
 20
1387.721191630049
 30
0.0
 41
1.0
  0
LINE
  5
82F
330
23
100
AcDbEntity
  8
SANINDUSA
100
AcDbLine
 10
868.1858569630595
 20
1388.14064232576
 30
0.0
 11
868.2158569630594
 21
1388.14064232576
 31
0.0
  0
LINE
  5
830
330
23
100
AcDbEntity
  8
SANINDUSA
100
AcDbLine
 10
868.2158569630594
 20
1388.14064232576
 30
0.0
 11
868.2158569630594
 21
1388.060761819709
 31
0.0
  0
LWPOLYLINE
  5
831
330
23
100
AcDbEntity
  8
SANINDUSA
100
AcDbPolyline
 90
        7
 70
   128
 43
0.0
 10
868.2115945580216
 20
1388.064118454934
 10
868.2118003281566
 20
1388.064138407589
 10
868.2131804737062
 20
1388.064073393822
 10
868.2142992379876
 20
1388.063678542853
 10
868.214910334608
 20
1388.063233445168
 10
868.2156204792471
 20
1388.062161440731
 10
868.2158569606754
 20
1388.060761819363
  0
ARC
  5
838
330
23
100
AcDbEntity
  8
SANINDUSA
100
AcDbCircle
 10
868.0258581815687
 20
1387.770709045254
 30
0.0
 40
0.18027278863722
100
AcDbArc
 50
345.4854215623477
 51
359.9787976977591
  0
ARC
  5
839
330
23
100
AcDbEntity
  8
SANINDUSA
100
AcDbCircle
 10
868.0258569630595
 20
1387.77064232576
 30
0.0
 40
0.1802572564806106
100
AcDbArc
 50
306.1419007671925
 51
345.5060458425513
  0
LWPOLYLINE
  5
83B
330
23
100
AcDbEntity
  8
SANINDUSA
100
AcDbPolyline
 90
       13
 70
   128
 43
0.0
 10
868.0827132637412
 20
1387.620214874626
 10
868.083243733904
 20
1387.617932731987
 10
868.0840674440176
 20
1387.615707988621
 10
868.0851636591167
 20
1387.613596672893
 10
868.0865048046024
 20
1387.611651892544
 10
868.0880571218938
 20
1387.609922582985
 10
868.0897815513224
 20
1387.608452315212
 10
868.091634704432
 20
1387.607277984501
 10
868.093569940588
 20
1387.606429214359
 10
868.0955385702462
 20
1387.605927402855
 10
868.0974910395951
 20
1387.605785066963
 10
868.0993782344074
 20
1387.606005842567
 10
868.1011526572318
 20
1387.606584186436
  0
ARC
  5
83C
330
23
100
AcDbEntity
  8
SANINDUSA
100
AcDbCircle
 10
868.015463193949
 20
1387.785594771059
 30
0.0
 40
0.1984627761694944
100
AcDbArc
 50
295.5796822113347
 51
306.0191566632767
  0
LWPOLYLINE
  5
83E
330
23
100
AcDbEntity
  8
SANINDUSA
100
AcDbPolyline
 90
       13
 70
   128
 43
0.0
 10
867.9690006623776
 20
1387.620214874626
 10
867.968470192215
 20
1387.617932731987
 10
867.9676464821012
 20
1387.615707988621
 10
867.9665502670021
 20
1387.613596672893
 10
867.9652091215166
 20
1387.611651892544
 10
867.963656804225
 20
1387.609922582985
 10
867.9619323747964
 20
1387.608452315212
 10
867.9600792216868
 20
1387.607277984501
 10
867.958143985531
 20
1387.606429214359
 10
867.9561753558727
 20
1387.605927402855
 10
867.9542228865237
 20
1387.605785066963
 10
867.9523356917114
 20
1387.606005842567
 10
867.950561268887
 20
1387.606584186436
  0
ARC
  5
83F
330
23
100
AcDbEntity
  8
SANINDUSA
100
AcDbCircle
 10
868.0362507321698
 20
1387.785594771059
 30
0.0
 40
0.1984627761694945
100
AcDbArc
 50
233.9808433367232
 51
244.4203177886654
  0
ARC
  5
840
330
23
100
AcDbEntity
  8
SANINDUSA
100
AcDbCircle
 10
868.0258569630595
 20
1387.77064232576
 30
0.0
 40
0.1802572564806105
100
AcDbArc
 50
194.4939541574487
 51
233.8580992328075
  0
ARC
  5
844
330
23
100
AcDbEntity
  8
SANINDUSA
100
AcDbCircle
 10
868.0258557445501
 20
1387.770709045254
 30
0.0
 40
0.1802727886372201
100
AcDbArc
 50
180.0212023022409
 51
194.5145784376522
  0
LWPOLYLINE
  5
848
330
23
100
AcDbEntity
  8
SANINDUSA
100
AcDbPolyline
 90
        7
 70
   128
 43
0.0
 10
867.8401193680974
 20
1388.064118454934
 10
867.8399135979624
 20
1388.064138407589
 10
867.8385334524126
 20
1388.064073393822
 10
867.8374146881314
 20
1388.063678542853
 10
867.8368035915108
 20
1388.063233445168
 10
867.8360934468718
 20
1388.062161440731
 10
867.8358569654436
 20
1388.060761819363
  0
LINE
  5
849
330
23
100
AcDbEntity
  8
SANINDUSA
100
AcDbLine
 10
867.8358569630594
 20
1388.14064232576
 30
0.0
 11
867.8358569630594
 21
1388.060761819709
 31
0.0
  0
LINE
  5
84B
330
23
100
AcDbEntity
  8
SANINDUSA
100
AcDbLine
 10
867.8658569630593
 20
1388.14064232576
 30
0.0
 11
867.8358569630594
 21
1388.14064232576
 31
0.0
  0
LINE
  5
850
330
23
100
AcDbEntity
  8
SANINDUSA
100
AcDbLine
 10
868.2061309519502
 20
1388.055009228031
 30
0.0
 11
868.2061309519502
 21
1387.77064232576
 31
0.0
  0
LINE
  5
853
330
23
100
AcDbEntity
  8
SANINDUSA
100
AcDbLine
 10
867.8455829741688
 20
1388.055009228031
 30
0.0
 11
867.8455829741688
 21
1387.77064232576
 31
0.0
  0
ARC
  5
859
330
23
100
AcDbEntity
  8
SANINDUSA
100
AcDbCircle
 10
868.2067347320899
 20
1388.063757163535
 30
0.0
 40
0.0048732370721267
100
AcDbArc
 50
300.6294801783985
 51
4.25168777966031
  0
ARC
  5
85B
330
23
100
AcDbEntity
  8
SANINDUSA
100
AcDbCircle
 10
867.8449791940291
 20
1388.063757163535
 30
0.0
 40
0.0048732370721266
100
AcDbArc
 50
175.7483122203397
 51
239.3705198216016
  0
ARC
  5
85E
330
23
100
AcDbEntity
  8
SANINDUSA
100
AcDbCircle
 10
868.0281948262967
 20
1387.757701702204
 30
0.0
 40
0.1678074750025085
100
AcDbArc
 50
289.8333282288279
 51
295.7707258886259
  0
ARC
  5
85F
330
23
100
AcDbEntity
  8
SANINDUSA
100
AcDbCircle
 10
868.0235190998223
 20
1387.757701702204
 30
0.0
 40
0.167807475002511
100
AcDbArc
 50
244.2292741113741
 51
250.1666717711722
  0
ARC
  5
862
330
23
100
AcDbEntity
  8
SANINDUSA
100
AcDbCircle
 10
868.2110833729211
 20
1388.054976217812
 30
0.0
 40
0.0049525250585174
100
AcDbArc
 50
112.1317607097534
 51
179.6181243457315
  0
ARC
  5
863
330
23
100
AcDbEntity
  8
SANINDUSA
100
AcDbCircle
 10
867.8406305531977
 20
1388.054976217812
 30
0.0
 40
0.0049525250585174
100
AcDbArc
 50
0.3818756542684421
 51
67.86823929024655
  0
SPLINE
  5
873
330
23
100
AcDbEntity
  8
SANINDUSA
100
AcDbSpline
210
0.0
220
0.0
230
1.0
 70
    12
 71
     3
 72
    68
 73
    64
 74
     0
 42
0.0000000001
 43
0.0000000001
 40
0.0
 40
0.0
 40
0.0
 40
0.0
 40
0.0116522988394643
 40
0.0232556470216806
 40
0.0348108777629309
 40
0.0463188337694137
 40
0.0577803672180364
 40
0.0691963397297684
 40
0.0805676223353106
 40
0.0918950954328724
 40
0.1031796487378225
 40
0.1144221812240084
 40
0.1256236010565533
 40
0.1367848255159181
 40
0.1479067809130864
 40
0.1589904024956628
 40
0.1700366343447802
 40
0.1810464292626478
 40
0.1920207486506323
 40
0.2029605623777835
 40
0.213866848639696
 40
0.2247405938076762
 40
0.2355827922681426
 40
0.2463944462522728
 40
0.2571765656558615
 40
0.2679301678494569
 40
0.2786562774787977
 40
0.2893559262556378
 40
0.3000301527390648
 40
0.3106800021074289
 40
0.3213065259210472
 40
0.3319107818758619
 40
0.342493833548252
 40
0.3530567501312515
 40
0.3636006061624144
 40
0.374126481243629
 40
0.3846354597531936
 40
0.3951286305504871
 40
0.4056070866736005
 40
0.4160719250303285
 40
0.4265242460829121
 40
0.4369651535269852
 40
0.4473957539651646
 40
0.4578171565757614
 40
0.468230472777112
 40
0.4786368158880158
 40
0.4890373007848221
 40
0.4994330435556872
 40
0.5620686363877749
 40
0.6244225869690549
 40
0.6867505824589387
 40
0.749307898149385
 40
0.7721925750900597
 40
0.7950217185984651
 40
0.8178074543797542
 40
0.8405619771787227
 40
0.8632975326068933
 40
0.8860263985729357
 40
0.9087608664630407
 40
0.9315132222224839
 40
0.9542957274914389
 40
0.9771206009470599
 40
1.0
 40
1.0
 40
1.0
 40
1.0
 10
868.0258569630595
 20
1387.639759364404
 30
0.0
 41
1.0
 10
868.0261428806167
 20
1387.639759950328
 30
0.0
 41
1.0
 10
868.0267135146076
 20
1387.639761119714
 30
0.0
 41
1.0
 10
868.0275675837371
 20
1387.639770546644
 30
0.0
 41
1.0
 10
868.0284179102025
 20
1387.639785493951
 30
0.0
 41
1.0
 10
868.0292644562761
 20
1387.639806429086
 30
0.0
 41
1.0
 10
868.030107185368
 20
1387.639833123058
 30
0.0
 41
1.0
 10
868.0309460620209
 20
1387.639865532539
 30
0.0
 41
1.0
 10
868.0317810518976
 20
1387.639903564966
 30
0.0
 41
1.0
 10
868.0326121217673
 20
1387.639947141119
 30
0.0
 41
1.0
 10
868.0334392394936
 20
1387.639996178467
 30
0.0
 41
1.0
 10
868.0342623740223
 20
1387.640050595619
 30
0.0
 41
1.0
 10
868.035081495369
 20
1387.640110311148
 30
0.0
 41
1.0
 10
868.0358965746064
 20
1387.640175243922
 30
0.0
 41
1.0
 10
868.0367075838509
 20
1387.640245313028
 30
0.0
 41
1.0
 10
868.0375144962516
 20
1387.640320437805
 30
0.0
 41
1.0
 10
868.0383172859768
 20
1387.640400537844
 30
0.0
 41
1.0
 10
868.0391159282008
 20
1387.640485533006
 30
0.0
 41
1.0
 10
868.0399103990934
 20
1387.640575343423
 30
0.0
 41
1.0
 10
868.0407006758047
 20
1387.640669889515
 30
0.0
 41
1.0
 10
868.0414867364547
 20
1387.640769091992
 30
0.0
 41
1.0
 10
868.0422685601191
 20
1387.640872871864
 30
0.0
 41
1.0
 10
868.0430461268182
 20
1387.640981150455
 30
0.0
 41
1.0
 10
868.0438194175028
 20
1387.641093849403
 30
0.0
 41
1.0
 10
868.0445884140434
 20
1387.641210890671
 30
0.0
 41
1.0
 10
868.0453530992156
 20
1387.641332196557
 30
0.0
 41
1.0
 10
868.04611345669
 20
1387.641457689697
 30
0.0
 41
1.0
 10
868.0468694710175
 20
1387.641587293076
 30
0.0
 41
1.0
 10
868.0476211276179
 20
1387.641720930031
 30
0.0
 41
1.0
 10
868.0483684127677
 20
1387.641858524264
 30
0.0
 41
1.0
 10
868.0491113135873
 20
1387.641999999839
 30
0.0
 41
1.0
 10
868.0498498180289
 20
1387.642145281198
 30
0.0
 41
1.0
 10
868.0505839148635
 20
1387.642294293159
 30
0.0
 41
1.0
 10
868.051313593669
 20
1387.642446960927
 30
0.0
 41
1.0
 10
868.052038844819
 20
1387.642603210101
 30
0.0
 41
1.0
 10
868.0527596594686
 20
1387.642762966671
 30
0.0
 41
1.0
 10
868.053476029544
 20
1387.642926157032
 30
0.0
 41
1.0
 10
868.054187947729
 20
1387.643092707987
 30
0.0
 41
1.0
 10
868.0548954074545
 20
1387.643262546748
 30
0.0
 41
1.0
 10
868.0555984028844
 20
1387.643435600944
 30
0.0
 41
1.0
 10
868.0562969289065
 20
1387.643611798625
 30
0.0
 41
1.0
 10
868.0569909811136
 20
1387.643791068266
 30
0.0
 41
1.0
 10
868.0576805558169
 20
1387.643973338778
 30
0.0
 41
1.0
 10
868.0583656499392
 20
1387.644158539475
 30
0.0
 41
1.0
 10
868.0590462613583
 20
1387.644346600213
 30
0.0
 41
1.0
 10
868.0597223875698
 20
1387.644537450911
 30
0.0
 41
1.0
 10
868.0603940306184
 20
1387.644731023329
 30
0.0
 41
1.0
 10
868.0621787157233
 20
1387.645255933725
 30
0.0
 41
1.0
 10
868.0650103647304
 20
1387.646148350129
 30
0.0
 41
1.0
 10
868.0687550114951
 20
1387.647457540382
 30
0.0
 41
1.0
 10
868.0723116592455
 20
1387.648818914978
 30
0.0
 41
1.0
 10
868.0749628679656
 20
1387.649917908077
 30
0.0
 41
1.0
 10
868.0768242193021
 20
1387.650726968263
 30
0.0
 41
1.0
 10
868.077974083059
 20
1387.65123906324
 30
0.0
 41
1.0
 10
868.0790935403875
 20
1387.651749202937
 30
0.0
 41
1.0
 10
868.0801829074248
 20
1387.652256515747
 30
0.0
 41
1.0
 10
868.0812424749442
 20
1387.652760142644
 30
0.0
 41
1.0
 10
868.0822725635449
 20
1387.653259259014
 30
0.0
 41
1.0
 10
868.0832734297098
 20
1387.653753041837
 30
0.0
 41
1.0
 10
868.0842455801965
 20
1387.654240777537
 30
0.0
 41
1.0
 10
868.0851886005926
 20
1387.65472146109
 30
0.0
 41
1.0
 10
868.0861055297768
 20
1387.655195292997
 30
0.0
 41
1.0
 10
868.0866920278386
 20
1387.655503392186
 30
0.0
 41
1.0
 10
868.0869856267181
 20
1387.655657625564
 30
0.0
 41
1.0
  0
SPLINE
  5
874
330
23
100
AcDbEntity
  8
SANINDUSA
100
AcDbSpline
210
0.0
220
0.0
230
1.0
 70
    12
 71
     3
 72
    18
 73
    14
 74
     0
 42
0.0000000001
 43
0.0000000001
 40
0.0
 40
0.0
 40
0.0
 40
0.0
 40
0.2499999999999999
 40
0.2499999999999999
 40
0.3749999999999998
 40
0.3749999999999998
 40
0.4999999999999999
 40
0.4999999999999999
 40
0.6249999999999999
 40
0.6249999999999999
 40
0.7499999999999997
 40
0.7499999999999997
 40
1.0
 40
1.0
 40
1.0
 40
1.0
 10
867.9647282994007
 20
1387.655657625564
 30
0.0
 41
1.0
 10
867.967946072641
 20
1387.653961422907
 30
0.0
 41
1.0
 10
867.97172079389
 20
1387.652082366655
 30
0.0
 41
1.0
 10
867.9782500320648
 20
1387.64928068676
 30
0.0
 41
1.0
 10
867.9805873495856
 20
1387.648344292119
 30
0.0
 41
1.0
 10
867.9854654406668
 20
1387.646561658354
 30
0.0
 41
1.0
 10
867.9880095484602
 20
1387.64571307263
 30
0.0
 41
1.0
 10
867.9932971985277
 20
1387.644142350359
 30
0.0
 41
1.0
 10
867.9960405650872
 20
1387.643420181059
 30
0.0
 41
1.0
 10
868.0017198978234
 20
1387.642140357968
 30
0.0
 41
1.0
 10
868.0046801550821
 20
1387.641579440587
 30
0.0
 41
1.0
 10
868.0136528849757
 20
1387.640226199662
 30
0.0
 41
1.0
 10
868.0197175934756
 20
1387.639759364404
 30
0.0
 41
1.0
 10
868.0258569630595
 20
1387.639759364404
 30
0.0
 41
1.0
  0
LWPOLYLINE
  5
87D
330
23
100
AcDbEntity
  8
SANINDUSA
100
AcDbPolyline
 90
        3
 70
   128
 43
0.0
 10
868.0755085038752
 20
1387.597457344414
 10
868.0803548979373
 20
1387.59843527782
 10
868.0851294125231
 20
1387.599847967506
  0
LWPOLYLINE
  5
87E
330
23
100
AcDbEntity
  8
SANINDUSA
100
AcDbPolyline
 90
        3
 70
   128
 43
0.0
 10
867.9762054222436
 20
1387.597457344414
 10
867.9713590281815
 20
1387.59843527782
 10
867.9665845135959
 20
1387.599847967506
  0
LINE
  5
886
330
23
100
AcDbEntity
  8
SANINDUSA
100
AcDbLine
 10
868.2158569630594
 20
1388.060761819709
 30
0.0
 11
868.2158569630594
 21
1388.020461681989
 31
0.0
  0
LINE
  5
888
330
23
100
AcDbEntity
  8
SANINDUSA
100
AcDbLine
 10
867.8358569630594
 20
1388.060761819709
 30
0.0
 11
867.8358569630594
 21
1388.020461681989
 31
0.0
  0
LWPOLYLINE
  5
892
330
23
100
AcDbEntity
  8
SANINDUSA
100
AcDbPolyline
 90
        7
 70
   128
 43
0.0
 10
868.0258569630595
 20
1387.589769596935
 10
868.0259152757088
 20
1387.5897729944
 10
868.0300365729989
 20
1387.59005903709
 10
868.0420435617477
 20
1387.591374571205
 10
868.0539681936414
 20
1387.593267495514
 10
868.0657859208794
 20
1387.595541591526
 10
868.0755085038752
 20
1387.597457344414
  0
LWPOLYLINE
  5
893
330
23
100
AcDbEntity
  8
SANINDUSA
100
AcDbPolyline
 90
        7
 70
   128
 43
0.0
 10
868.0258569630595
 20
1387.589769596935
 10
868.02579865041
 20
1387.5897729944
 10
868.0216773531199
 20
1387.59005903709
 10
868.0096703643711
 20
1387.591374571205
 10
867.9977457324774
 20
1387.593267495514
 10
867.9859280052395
 20
1387.595541591526
 10
867.9762054222436
 20
1387.597457344414
  0
LINE
  5
89E
330
23
100
AcDbEntity
  8
SANINDUSA
100
AcDbLine
 10
868.0881499675509
 20
1387.591144187632
 30
0.0
 11
868.0779560915471
 21
1387.587924836693
 31
0.0
  0
LINE
  5
89F
330
23
100
AcDbEntity
  8
SANINDUSA
100
AcDbLine
 10
867.9635639585679
 20
1387.591144187632
 30
0.0
 11
867.9737578345717
 21
1387.587924836693
 31
0.0
  0
ARC
  5
8A1
330
23
100
AcDbEntity
  8
SANINDUSA
100
AcDbCircle
 10
868.0258569630595
 20
1387.77064232576
 30
0.0
 40
0.1900000000000001
100
AcDbArc
 50
289.1388113209885
 51
0.0
  0
LINE
  5
8A2
330
23
100
AcDbEntity
  8
SANINDUSA
100
AcDbLine
 10
868.2158569630594
 20
1388.020461681989
 30
0.0
 11
868.2158569630594
 21
1387.77064232576
 31
0.0
  0
ARC
  5
8A3
330
23
100
AcDbEntity
  8
SANINDUSA
100
AcDbCircle
 10
868.0258569630595
 20
1387.77064232576
 30
0.0
 40
0.19
100
AcDbArc
 50
180.0
 51
250.8611886790116
  0
LINE
  5
8A5
330
23
100
AcDbEntity
  8
SANINDUSA
100
AcDbLine
 10
867.8358569630594
 20
1388.020461681989
 30
0.0
 11
867.8358569630594
 21
1387.77064232576
 31
0.0
  0
ARC
  5
8AB
330
23
100
AcDbEntity
  8
SANINDUSA
100
AcDbCircle
 10
868.0258569630595
 20
1387.77064232576
 30
0.0
 40
0.1900000000000002
100
AcDbArc
 50
254.085301068122
 51
285.914698931878
  0
LINE
  5
8EB
330
23
100
AcDbEntity
  8
SANINDUSA
100
AcDbLine
 10
868.5202844188165
 20
1387.873449282591
 30
0.0
 11
868.5394106478046
 21
1387.870074050372
 31
0.0
  0
LINE
  5
8EC
330
23
100
AcDbEntity
  8
SANINDUSA
100
AcDbLine
 10
868.759674143846
 20
1387.869265245144
 30
0.0
 11
868.784614358897
 21
1387.87344926769
 31
0.0
  0
ARC
  5
8ED
330
23
100
AcDbEntity
  8
SANINDUSA
100
AcDbCircle
 10
868.7724493784175
 20
1387.942384123733
 30
0.0
 40
0.0700000080551214
100
AcDbArc
 50
280.0079845437614
 51
0.0000014721133732
  0
ARC
  5
8EE
330
23
100
AcDbEntity
  8
SANINDUSA
100
AcDbCircle
 10
868.5324494032466
 20
1387.942384127048
 30
0.0
 40
0.0700000120055774
100
AcDbArc
 50
180.0000012376174
 51
259.9920127447243
  0
ARC
  5
8EF
330
23
100
AcDbEntity
  8
SANINDUSA
100
AcDbCircle
 10
868.6526357380438
 20
1387.729781693836
 30
0.0
 40
0.0791262496380153
100
AcDbArc
 50
270.0222617093583
 51
340.47710950739
  0
ARC
  5
8F0
330
23
100
AcDbEntity
  8
SANINDUSA
100
AcDbCircle
 10
868.6522578870679
 20
1387.729774402988
 30
0.0
 40
0.0791189569564223
100
AcDbArc
 50
199.5191611759939
 51
269.9814676100178
  0
LINE
  5
8F1
330
23
100
AcDbEntity
  8
SANINDUSA
100
AcDbLine
 10
868.6522322959493
 20
1387.65065545017
 30
0.0
 11
868.6526664817641
 21
1387.65065545017
 31
0.0
  0
LINE
  5
8F9
330
23
100
AcDbEntity
  8
SANINDUSA
100
AcDbLine
 10
868.4624493888566
 20
1387.944132224322
 30
0.0
 11
868.4624493888566
 21
1387.995686412678
 31
0.0
  0
LINE
  5
8FF
330
23
100
AcDbEntity
  8
SANINDUSA
100
AcDbLine
 10
868.8424493888566
 20
1387.944132224322
 30
0.0
 11
868.8424493888566
 21
1387.995686412678
 31
0.0
  0
LINE
  5
901
330
23
100
AcDbEntity
  8
SANINDUSA
100
AcDbLine
 10
868.6017212900662
 20
1388.000655456131
 30
0.0
 11
868.7031774876473
 21
1388.000655456131
 31
0.0
  0
ARC
  5
905
330
23
100
AcDbEntity
  8
SANINDUSA
100
AcDbCircle
 10
868.6524650004962
 20
1388.070604784692
 30
0.0
 40
0.069949331048924
100
AcDbArc
 50
269.9872124414823
 51
304.2608035333411
  0
ARC
  5
908
330
23
100
AcDbEntity
  8
SANINDUSA
100
AcDbCircle
 10
868.6524337772175
 20
1388.070604784692
 30
0.0
 40
0.0699493310489237
100
AcDbArc
 50
235.7391964666589
 51
270.0127875585177
  0
LWPOLYLINE
  5
90B
330
23
100
AcDbEntity
  8
SANINDUSA
100
AcDbPolyline
 90
        3
 70
   128
 43
0.0
 10
868.7031774864149
 20
1388.000655455386
 10
868.7082388893317
 20
1388.000663878267
 10
868.7132319927762
 20
1388.000670933967
  0
LWPOLYLINE
  5
90D
330
23
100
AcDbEntity
  8
SANINDUSA
100
AcDbPolyline
 90
        3
 70
   128
 43
0.0
 10
868.6017212912988
 20
1388.000655455386
 10
868.5966598883819
 20
1388.000663878267
 10
868.5916667849372
 20
1388.000670933967
  0
ARC
  5
90F
330
23
100
AcDbEntity
  8
SANINDUSA
100
AcDbCircle
 10
868.8374493888566
 20
1387.995686412678
 30
0.0
 40
0.005
100
AcDbArc
 50
0.0
 51
85.49052491064399
  0
LINE
  5
910
330
23
100
AcDbEntity
  8
SANINDUSA
100
AcDbLine
 10
868.7132319911894
 20
1388.000670934405
 30
0.0
 11
868.8378425086387
 21
1388.000670934404
 31
0.0
  0
ARC
  5
911
330
23
100
AcDbEntity
  8
SANINDUSA
100
AcDbCircle
 10
868.4674493888566
 20
1387.995686412678
 30
0.0
 40
0.005
100
AcDbArc
 50
94.509475089356
 51
180.0
  0
LINE
  5
912
330
23
100
AcDbEntity
  8
SANINDUSA
100
AcDbLine
 10
868.5916667865241
 20
1388.000670934405
 30
0.0
 11
868.4670562690747
 21
1388.000670934404
 31
0.0
  0
ARC
  5
917
330
23
100
AcDbEntity
  8
SANINDUSA
100
AcDbCircle
 10
868.8382356284186
 20
1388.005655456131
 30
0.0
 40
0.0050000000000766
100
AcDbArc
 50
180.9999999968082
 51
265.4905249301248
  0
ARC
  5
919
330
23
100
AcDbEntity
  8
SANINDUSA
100
AcDbCircle
 10
868.4666631492946
 20
1388.005655456131
 30
0.0
 40
0.0050000000000766
100
AcDbArc
 50
274.5094750698752
 51
359.0000000031918
  0
ARC
  5
91D
330
23
100
AcDbEntity
  8
SANINDUSA
100
AcDbCircle
 10
868.6524404530709
 20
1388.070664618896
 30
0.0
 40
0.0700126035566418
100
AcDbArc
 50
304.2498405168457
 51
324.3128402870275
  0
ARC
  5
920
330
23
100
AcDbEntity
  8
SANINDUSA
100
AcDbCircle
 10
868.6524583246425
 20
1388.070664618896
 30
0.0
 40
0.0700126035566418
100
AcDbArc
 50
215.6871597129725
 51
235.7501594831543
  0
LINE
  5
921
330
23
100
AcDbEntity
  8
SANINDUSA
100
AcDbLine
 10
868.833236389943
 20
1388.005568194099
 30
0.0
 11
868.8327233777474
 21
1388.034958643095
 31
0.0
  0
LINE
  5
927
330
23
100
AcDbEntity
  8
SANINDUSA
100
AcDbLine
 10
868.4716623877706
 20
1388.005568194099
 30
0.0
 11
868.472175399966
 21
1388.034958643095
 31
0.0
  0
ARC
  5
929
330
23
100
AcDbEntity
  8
SANINDUSA
100
AcDbCircle
 10
868.7499173257153
 20
1388.000655470502
 30
0.0
 40
0.0499999856281152
100
AcDbArc
 50
89.99999178612847
 51
144.3146746112784
  0
ARC
  5
92C
330
23
100
AcDbEntity
  8
SANINDUSA
100
AcDbCircle
 10
868.5549814519983
 20
1388.000655470502
 30
0.0
 40
0.0499999856281149
100
AcDbArc
 50
35.68532538872156
 51
90.00000821387152
  0
LINE
  5
92D
330
23
100
AcDbEntity
  8
SANINDUSA
100
AcDbLine
 10
868.7499173323049
 20
1388.050655456131
 30
0.0
 11
868.8124493888567
 21
1388.050655456131
 31
0.0
  0
LINE
  5
930
330
23
100
AcDbEntity
  8
SANINDUSA
100
AcDbLine
 10
868.5549814454086
 20
1388.050655456131
 30
0.0
 11
868.4924493888567
 21
1388.050655456131
 31
0.0
  0
LWPOLYLINE
  5
934
330
23
100
AcDbEntity
  8
SANINDUSA
100
AcDbPolyline
 90
        3
 70
   128
 43
0.0
 10
868.5452246338677
 20
1387.869265245144
 10
868.5432074636768
 20
1387.869575818457
 10
868.5394106478046
 20
1387.870074050372
  0
ARC
  5
938
330
23
100
AcDbEntity
  8
SANINDUSA
100
AcDbCircle
 10
868.8124551177216
 20
1388.020686962695
 30
0.0
 40
0.0299684939834107
100
AcDbArc
 50
69.39456989733151
 51
90.01095966917485
  0
ARC
  5
939
330
23
100
AcDbEntity
  8
SANINDUSA
100
AcDbCircle
 10
868.81772566232
 20
1388.034696856999
 30
0.0
 40
0.0149999999999999
100
AcDbArc
 50
0.9999999968081942
 51
69.40551390854004
  0
ARC
  5
93A
330
23
100
AcDbEntity
  8
SANINDUSA
100
AcDbCircle
 10
868.4871731153933
 20
1388.034696856999
 30
0.0
 40
0.015
100
AcDbArc
 50
110.5944860914599
 51
179.0000000031918
  0
ARC
  5
93B
330
23
100
AcDbEntity
  8
SANINDUSA
100
AcDbCircle
 10
868.4924436599919
 20
1388.020686962695
 30
0.0
 40
0.0299684939834075
100
AcDbArc
 50
89.98904033082515
 51
110.6054301026685
  0
ARC
  5
93D
330
23
100
AcDbEntity
  8
SANINDUSA
100
AcDbCircle
 10
868.7642056096118
 20
1387.839596067296
 30
0.0
 40
0.0300132353502524
100
AcDbArc
 50
98.68385359205751
 51
177.9691489297075
  0
ARC
  5
93F
330
23
100
AcDbEntity
  8
SANINDUSA
100
AcDbCircle
 10
868.5406931681017
 20
1387.839596067296
 30
0.0
 40
0.0300132353502523
100
AcDbArc
 50
2.030851070292434
 51
81.3161464079425
  0
LINE
  5
942
330
23
100
AcDbEntity
  8
SANINDUSA
100
AcDbLine
 10
868.7342112293775
 20
1387.84065966547
 30
0.0
 11
868.7314850977484
 21
1387.755196567866
 31
0.0
  0
LINE
  5
944
330
23
100
AcDbEntity
  8
SANINDUSA
100
AcDbLine
 10
868.570687548336
 20
1387.84065966547
 30
0.0
 11
868.5734136799649
 21
1387.755196567866
 31
0.0
  0
ELLIPSE
  5
948
330
23
100
AcDbEntity
  8
SANINDUSA
100
AcDbEllipse
 10
868.7326538254534
 20
1387.757898395891
 30
0.0
 11
0.001084508768402
 21
0.0309999770982039
 31
0.0
210
0.0
220
0.0
230
1.0
 40
0.0347454121606441
 41
1.659278328537496
 42
3.250732540878556
  0
ELLIPSE
  5
94B
330
23
100
AcDbEntity
  8
SANINDUSA
100
AcDbEllipse
 10
868.57224495226
 20
1387.757898395891
 30
0.0
 11
-0.001084508768402
 21
0.0309999770982039
 31
0.0
210
0.0
220
0.0
230
1.0
 40
0.0347454121606372
 41
3.032452766301405
 42
4.623906978642088
  0
SPLINE
  5
94C
330
23
100
AcDbEntity
  8
SANINDUSA
100
AcDbSpline
210
0.0
220
0.0
230
1.0
 70
    28
 71
     3
 72
    17
 73
    13
 74
     0
 42
0.0000000001
 43
0.0000000001
 40
0.0
 40
0.0
 40
0.0
 40
0.0
 40
0.101095244496348
 40
0.20250600393739
 40
0.3047834897961836
 40
0.4060588755512623
 40
0.5070587101587813
 40
0.608299093068196
 40
0.7082630157445021
 40
0.8084961806308907
 40
0.9094795138644558
 40
0.9999999999999998
 40
0.9999999999999998
 40
0.9999999999999998
 40
0.9999999999999998
 10
868.6524493888567
 20
1388.050655456131
 30
0.0
 41
1.0
 10
868.6560278134312
 20
1388.050655456131
 30
0.0
 41
1.0
 10
868.6631958307261
 20
1388.050655456131
 30
0.0
 41
1.0
 10
868.6739245564192
 20
1388.050655456131
 30
0.0
 41
1.0
 10
868.6845422007408
 20
1388.050655456131
 30
0.0
 41
1.0
 10
868.6949779497741
 20
1388.050655456131
 30
0.0
 41
1.0
 10
868.7051575577623
 20
1388.050655456131
 30
0.0
 41
1.0
 10
868.7150200178315
 20
1388.050655456131
 30
0.0
 41
1.0
 10
868.7245451043363
 20
1388.050655456131
 30
0.0
 41
1.0
 10
868.7336921143792
 20
1388.050655456131
 30
0.0
 41
1.0
 10
868.7422053110969
 20
1388.050655456131
 30
0.0
 41
1.0
 10
868.7474420286358
 20
1388.050655456131
 30
0.0
 41
1.0
 10
868.7499173328827
 20
1388.050655456131
 30
0.0
 41
1.0
  0
SPLINE
  5
94D
330
23
100
AcDbEntity
  8
SANINDUSA
100
AcDbSpline
210
0.0
220
0.0
230
1.0
 70
    28
 71
     3
 72
    17
 73
    13
 74
     0
 42
0.0000000001
 43
0.0000000001
 40
0.0
 40
0.0
 40
0.0
 40
0.0
 40
0.101095244496348
 40
0.20250600393739
 40
0.3047834897961836
 40
0.4060588755512623
 40
0.5070587101587813
 40
0.608299093068196
 40
0.7082630157445021
 40
0.8084961806308907
 40
0.9094795138644558
 40
0.9999999999999998
 40
0.9999999999999998
 40
0.9999999999999998
 40
0.9999999999999998
 10
868.6524493888567
 20
1388.050655456131
 30
0.0
 41
1.0
 10
868.6488709642823
 20
1388.050655456131
 30
0.0
 41
1.0
 10
868.6417029469875
 20
1388.050655456131
 30
0.0
 41
1.0
 10
868.6309742212943
 20
1388.050655456131
 30
0.0
 41
1.0
 10
868.6203565769726
 20
1388.050655456131
 30
0.0
 41
1.0
 10
868.6099208279395
 20
1388.050655456131
 30
0.0
 41
1.0
 10
868.5997412199512
 20
1388.050655456131
 30
0.0
 41
1.0
 10
868.5898787598819
 20
1388.050655456131
 30
0.0
 41
1.0
 10
868.5803536733773
 20
1388.050655456131
 30
0.0
 41
1.0
 10
868.5712066633342
 20
1388.050655456131
 30
0.0
 41
1.0
 10
868.5626934666167
 20
1388.050655456131
 30
0.0
 41
1.0
 10
868.5574567490776
 20
1388.050655456131
 30
0.0
 41
1.0
 10
868.5549814448307
 20
1388.050655456131
 30
0.0
 41
1.0
  0
ARC
  5
950
330
23
100
AcDbEntity
  8
SANINDUSA
100
AcDbCircle
 10
868.5300459397238
 20
1387.841248425044
 30
0.0
 40
0.0300144537511714
100
AcDbArc
 50
2.016199681972434
 51
80.00505387739975
  0
LINE
  5
951
330
23
100
AcDbEntity
  8
SANINDUSA
100
AcDbLine
 10
868.7448569655966
 20
1387.842304395382
 30
0.0
 11
868.7416079164098
 21
1387.749320002143
 31
0.0
  0
LINE
  5
958
330
23
100
AcDbEntity
  8
SANINDUSA
100
AcDbLine
 10
868.560041812117
 20
1387.842304395382
 30
0.0
 11
868.5632908613037
 21
1387.749320002143
 31
0.0
  0
ELLIPSE
  5
959
330
23
100
AcDbEntity
  8
SANINDUSA
100
AcDbEllipse
 10
868.6626099532842
 20
1387.752124960247
 30
0.0
 11
-0.0704075367405485
 21
0.0359579003365969
 31
-0.0000000000000023
210
-0.0000000000000256
220
0.0000000000000131
230
1.0
 40
0.999264405900319
 41
3.042631608965447
 42
3.57856236055086
  0
ELLIPSE
  5
95A
330
23
100
AcDbEntity
  8
SANINDUSA
100
AcDbEllipse
 10
868.6422888244292
 20
1387.752124960247
 30
0.0
 11
0.0704075367405485
 21
0.0359579003365969
 31
0.0000000000000023
210
-0.0000000000000322
220
-0.0000000000000003
230
1.0
 40
0.9992644059003195
 41
2.704622946628739
 42
3.240525709320389
  0
LINE
  5
95D
330
23
100
AcDbEntity
  8
SANINDUSA
100
AcDbLine
 10
868.8424493888566
 20
1388.020655456131
 30
0.0
 11
868.8424493888566
 21
1387.995686412678
 31
0.0
  0
LINE
  5
962
330
23
100
AcDbEntity
  8
SANINDUSA
100
AcDbLine
 10
868.4624493888566
 20
1388.020655456131
 30
0.0
 11
868.4624493888566
 21
1387.995686412678
 31
0.0
  0
ARC
  5
96C
330
23
100
AcDbEntity
  8
SANINDUSA
100
AcDbCircle
 10
868.8124331848387
 20
1388.020650989393
 30
0.0
 40
0.030016201966321
100
AcDbArc
 50
0.00852750986549
 51
30.90762095180387
  0
ARC
  5
96E
330
23
100
AcDbEntity
  8
SANINDUSA
100
AcDbCircle
 10
868.4924655928748
 20
1388.020650989393
 30
0.0
 40
0.0300162019663445
100
AcDbArc
 50
149.0923790481961
 51
179.9914724901345
  0
ARC
  5
96F
330
23
100
AcDbEntity
  8
SANINDUSA
100
AcDbCircle
 10
868.8156672232981
 20
1388.024536018842
 30
0.0
 40
0.0249995331727689
100
AcDbArc
 50
42.35002752751885
 51
65.39206276251133
  0
ARC
  5
970
330
23
100
AcDbEntity
  8
SANINDUSA
100
AcDbCircle
 10
868.4892315544153
 20
1388.024536018842
 30
0.0
 40
0.0249995331727696
100
AcDbArc
 50
114.6079372374886
 51
137.6499724724811
  0
LINE
  5
971
330
23
100
AcDbEntity
  8
SANINDUSA
100
AcDbLine
 10
868.8341429626957
 20
1388.041377156208
 30
0.0
 11
868.8360768921461
 21
1388.039141696643
 31
0.0
  0
LINE
  5
972
330
23
100
AcDbEntity
  8
SANINDUSA
100
AcDbLine
 10
868.4707558150179
 20
1388.041377156208
 30
0.0
 11
868.4688218855672
 21
1388.039141696643
 31
0.0
  0
LINE
  5
973
330
23
100
AcDbEntity
  8
SANINDUSA
100
AcDbLine
 10
868.8360768921461
 20
1388.039141696643
 30
0.0
 11
868.838186977887
 21
1388.03606897328
 31
0.0
  0
LINE
  5
974
330
23
100
AcDbEntity
  8
SANINDUSA
100
AcDbLine
 10
868.4688218855672
 20
1388.039141696643
 30
0.0
 11
868.4667117998264
 21
1388.03606897328
 31
0.0
  0
ARC
  5
975
330
23
100
AcDbEntity
  8
SANINDUSA
100
AcDbCircle
 10
868.6537207961785
 20
1387.729501250381
 30
0.0
 40
0.0780099197457608
100
AcDbArc
 50
340.4233912447673
 51
358.2204779728044
  0
ARC
  5
976
330
23
100
AcDbEntity
  8
SANINDUSA
100
AcDbCircle
 10
868.6511777435709
 20
1387.729501215267
 30
0.0
 40
0.0780096808062013
100
AcDbArc
 50
181.7795016683525
 51
199.5766205624519
  0
ARC
  5
97C
330
23
100
AcDbEntity
  8
SANINDUSA
100
AcDbCircle
 10
868.7748528379897
 20
1387.841248425044
 30
0.0
 40
0.0300144537511714
100
AcDbArc
 50
99.99494612260024
 51
177.9838003180275
  0
ARC
  5
A65
330
23
100
AcDbEntity
  8
SANINDUSA
100
AcDbCircle
 10
870.6280286846707
 20
1388.013001458752
 30
0.0
 40
0.012625786064325
100
AcDbArc
 50
209.747313798593
 51
248.4082946250297
  0
ARC
  5
A66
330
23
100
AcDbEntity
  8
SANINDUSA
100
AcDbCircle
 10
870.4816474122182
 20
1387.826894107659
 30
0.0
 40
0.1730060464134137
100
AcDbArc
 50
56.66412686253234
 51
77.94708259557548
  0
ARC
  5
A68
330
23
100
AcDbEntity
  8
SANINDUSA
100
AcDbCircle
 10
870.782163606958
 20
1388.084960707522
 30
0.0
 40
0.1827486199078194
100
AcDbArc
 50
198.8362246026873
 51
205.3565664536567
  0
LWPOLYLINE
  5
A69
330
23
100
AcDbEntity
  8
SANINDUSA
100
AcDbPolyline
 90
       15
 70
   128
 43
0.0
 10
870.6092160371831
 20
1388.025986164564
 10
870.6081348123495
 20
1388.028841408837
 10
870.6065968372458
 20
1388.032168218158
 10
870.6047989725208
 20
1388.035358524948
 10
870.60275661676
 20
1388.038328321296
 10
870.6007665255093
 20
1388.040720377903
 10
870.598646780755
 20
1388.042842599506
 10
870.5964070208588
 20
1388.044697520955
 10
870.593831055571
 20
1388.046423323443
 10
870.5913186209103
 20
1388.04776297535
 10
870.5885132936769
 20
1388.048919025245
 10
870.5856249811503
 20
1388.049779569531
 10
870.5826651881533
 20
1388.050349779309
 10
870.5796406752652
 20
1388.050633802457
 10
870.5781135500611
 20
1388.050633619763
  0
LINE
  5
A6B
330
23
100
AcDbEntity
  8
SANINDUSA
100
AcDbLine
 10
870.6346728956095
 20
1387.947750948578
 30
0.0
 11
870.6346728956095
 21
1387.995655456131
 31
0.0
  0
LINE
  5
A6F
330
23
100
AcDbEntity
  8
SANINDUSA
100
AcDbLine
 10
870.219149579851
 20
1388.008146178244
 30
0.0
 11
870.2517905282414
 21
1388.009856727149
 31
0.0
  0
LINE
  5
A70
330
23
100
AcDbEntity
  8
SANINDUSA
100
AcDbLine
 10
870.2516800983481
 20
1388.011963855037
 30
0.0
 11
870.2517905282414
 21
1388.009856727149
 31
0.0
  0
ARC
  5
A71
330
23
100
AcDbEntity
  8
SANINDUSA
100
AcDbCircle
 10
870.5157748921378
 20
1387.968533548516
 30
0.0
 40
0.08
100
AcDbArc
 50
275.0424510657358
 51
280.3179278815166
  0
LINE
  5
A73
330
23
100
AcDbEntity
  8
SANINDUSA
100
AcDbLine
 10
870.4814891833523
 20
1387.885197524019
 30
0.0
 11
870.5228063969615
 21
1387.888843160514
 31
0.0
  0
ARC
  5
A75
330
23
100
AcDbEntity
  8
SANINDUSA
100
AcDbCircle
 10
870.1346728956094
 20
1387.933155456131
 30
0.0
 40
0.0100000000000002
100
AcDbArc
 50
351.9902044357563
 51
0.0
  0
ARC
  5
A76
330
23
100
AcDbEntity
  8
SANINDUSA
100
AcDbCircle
 10
870.1346728956094
 20
1387.988155456131
 30
0.0
 40
0.01
100
AcDbArc
 50
0.0
 51
90.0
  0
SPLINE
  5
A77
330
23
100
AcDbEntity
  8
SANINDUSA
100
AcDbSpline
210
0.0
220
0.0
230
1.0
 70
    12
 71
     3
 72
    29
 73
    25
 74
     0
 42
0.0000000001
 43
0.0000000001
 40
0.0
 40
0.0
 40
0.0
 40
0.0
 40
0.0210473927804871
 40
0.0419890832915078
 40
0.06284561882362
 40
0.0836377991249806
 40
0.1043866174842527
 40
0.1251131989502751
 40
0.1458387365685843
 40
0.1665844265838178
 40
0.1873714035931776
 40
0.2082206766382286
 40
0.229153067188886
 40
0.2501891499079536
 40
0.3750645651196027
 40
0.5000147396268032
 40
0.6248901548422302
 40
0.7498403293460357
 40
0.7917837272376522
 40
0.8334025153110273
 40
0.8748643038967268
 40
0.9163386068177489
 40
0.9579947851214811
 40
0.9999999999999998
 40
0.9999999999999998
 40
0.9999999999999998
 40
0.9999999999999998
 10
870.5855421523125
 20
1388.000655456131
 30
0.0
 41
1.0
 10
870.5854356945257
 20
1388.000654487441
 30
0.0
 41
1.0
 10
870.5852233135944
 20
1388.000652554925
 30
0.0
 41
1.0
 10
870.5849057485888
 20
1388.000637132787
 30
0.0
 41
1.0
 10
870.5845900950034
 20
1388.000612524708
 30
0.0
 41
1.0
 10
870.5842763538184
 20
1388.000577844586
 30
0.0
 41
1.0
 10
870.5839645259805
 20
1388.000533328315
 30
0.0
 41
1.0
 10
870.5836546124995
 20
1388.000478912934
 30
0.0
 41
1.0
 10
870.5833466142635
 20
1388.000414615287
 30
0.0
 41
1.0
 10
870.5830405325686
 20
1388.00034043151
 30
0.0
 41
1.0
 10
870.58273636706
 20
1388.000256361686
 30
0.0
 41
1.0
 10
870.582434123345
 20
1388.000162411531
 30
0.0
 41
1.0
 10
870.5821337843657
 20
1388.000058560806
 30
0.0
 41
1.0
 10
870.5813452242775
 20
1387.999758133969
 30
0.0
 41
1.0
 10
870.5801163241256
 20
1387.999131062016
 30
0.0
 41
1.0
 10
870.5786186077904
 20
1387.997951937278
 30
0.0
 41
1.0
 10
870.5773622576082
 20
1387.99651769133
 30
0.0
 41
1.0
 10
870.576618701965
 20
1387.995231312805
 30
0.0
 41
1.0
 10
870.576206694543
 20
1387.994260089264
 30
0.0
 41
1.0
 10
870.575996796496
 20
1387.993663104275
 30
0.0
 41
1.0
 10
870.5758259360397
 20
1387.993056271918
 30
0.0
 41
1.0
 10
870.5756950034809
 20
1387.992439510667
 30
0.0
 41
1.0
 10
870.5756005088481
 20
1387.991813050789
 30
0.0
 41
1.0
 10
870.575570782266
 20
1387.991390814583
 30
0.0
 41
1.0
 10
870.5755558569649
 20
1387.991178815693
 30
0.0
 41
1.0
  0
LINE
  5
A78
330
23
100
AcDbEntity
  8
SANINDUSA
100
AcDbLine
 10
870.6255456488559
 20
1388.000655456131
 30
0.0
 11
870.5855421523125
 21
1388.000655456131
 31
0.0
  0
LINE
  5
A79
330
23
100
AcDbEntity
  8
SANINDUSA
100
AcDbLine
 10
870.6296728956095
 20
1388.000655456131
 30
0.0
 11
870.6255456488559
 21
1388.000655456131
 31
0.0
  0
ARC
  5
A7A
330
23
100
AcDbEntity
  8
SANINDUSA
100
AcDbCircle
 10
870.6296728956095
 20
1387.995655456131
 30
0.0
 40
0.005
100
AcDbArc
 50
0.0
 51
90.0
  0
ARC
  5
A7B
330
23
100
AcDbEntity
  8
SANINDUSA
100
AcDbCircle
 10
870.4854444048157
 20
1387.840371680768
 30
0.0
 40
0.03
100
AcDbArc
 50
95.04245106573577
 51
175.0000000042766
  0
LINE
  5
A7C
330
23
100
AcDbEntity
  8
SANINDUSA
100
AcDbLine
 10
870.4475167783947
 20
1387.751068324428
 30
0.0
 11
870.4555585638727
 21
1387.84298635305
 31
0.0
  0
ARC
  5
A7D
330
23
100
AcDbEntity
  8
SANINDUSA
100
AcDbCircle
 10
870.3379353616046
 20
1387.760655456131
 30
0.0
 40
0.1099999999999998
100
AcDbArc
 50
346.5859341635598
 51
355.0000000042766
  0
ARC
  5
A7E
330
23
100
AcDbEntity
  8
SANINDUSA
100
AcDbCircle
 10
870.3378792037222
 20
1387.760711862628
 30
0.0
 40
0.110067719346589
100
AcDbArc
 50
283.1827541219179
 51
346.5641544450843
  0
ARC
  5
A7F
330
23
100
AcDbEntity
  8
SANINDUSA
100
AcDbCircle
 10
870.3379353616046
 20
1387.760655456131
 30
0.0
 40
0.11
100
AcDbArc
 50
263.8163903475065
 51
283.160974406279
  0
ARC
  5
A80
330
23
100
AcDbEntity
  8
SANINDUSA
100
AcDbCircle
 10
870.3427825347606
 20
1387.805393637949
 30
0.0
 40
0.155
100
AcDbArc
 50
241.0258342518029
 51
263.8163903475065
  0
ARC
  5
A81
330
23
100
AcDbEntity
  8
SANINDUSA
100
AcDbCircle
 10
870.2434774164414
 20
1387.626051803801
 30
0.0
 40
0.0500000000000001
100
AcDbArc
 50
61.02583425180288
 51
90.99999999692187
  0
LINE
  5
A82
330
23
100
AcDbEntity
  8
SANINDUSA
100
AcDbLine
 10
870.0746728956096
 20
1387.673112926331
 30
0.0
 11
870.2426047961195
 21
1387.676044188559
 31
0.0
  0
LINE
  5
A83
330
23
100
AcDbEntity
  8
SANINDUSA
100
AcDbLine
 10
870.0746728956096
 20
1387.673112926331
 30
0.0
 11
870.0746728956096
 21
1387.688115211252
 31
0.0
  0
LINE
  5
A84
330
23
100
AcDbEntity
  8
SANINDUSA
100
AcDbLine
 10
870.0746728956096
 20
1387.688115211252
 30
0.0
 11
870.242343010023
 21
1387.691041903986
 31
0.0
  0
ARC
  5
A85
330
23
100
AcDbEntity
  8
SANINDUSA
100
AcDbCircle
 10
870.2434774164414
 20
1387.626051803801
 30
0.0
 40
0.0650000000000001
100
AcDbArc
 50
81.68086246910435
 51
90.99999999692187
  0
ARC
  5
A86
330
23
100
AcDbEntity
  8
SANINDUSA
100
AcDbCircle
 10
870.2536054859573
 20
1387.695315229993
 30
0.0
 40
0.0050000000000003
100
AcDbArc
 50
261.6808624691044
 51
33.64076917489271
  0
ARC
  5
A87
330
23
100
AcDbEntity
  8
SANINDUSA
100
AcDbCircle
 10
870.3368582120145
 20
1387.750713637949
 30
0.0
 40
0.0950000000000001
100
AcDbArc
 50
194.9999999952798
 51
213.6407691748927
  0
LINE
  5
A88
330
23
100
AcDbEntity
  8
SANINDUSA
100
AcDbLine
 10
870.2364789769724
 20
1387.758282229161
 30
0.0
 11
870.245095258517
 21
1387.726125828664
 31
0.0
  0
ARC
  5
A89
330
23
100
AcDbEntity
  8
SANINDUSA
100
AcDbCircle
 10
870.2171604604465
 20
1387.753105848259
 30
0.0
 40
0.0200000000000001
100
AcDbArc
 50
14.99999999527984
 51
88.00000000275622
  0
LINE
  5
A8A
330
23
100
AcDbEntity
  8
SANINDUSA
100
AcDbLine
 10
870.2178584503807
 20
1387.773093664799
 30
0.0
 11
870.1443239006424
 21
1387.77566154786
 31
0.0
  0
LINE
  5
A8B
330
23
100
AcDbEntity
  8
SANINDUSA
100
AcDbLine
 10
870.1446728956096
 20
1387.785655456131
 30
0.0
 11
870.1443239006424
 21
1387.77566154786
 31
0.0
  0
LINE
  5
A8C
330
23
100
AcDbEntity
  8
SANINDUSA
100
AcDbLine
 10
870.2182074453476
 20
1387.783087573069
 30
0.0
 11
870.1446728956096
 21
1387.785655456131
 31
0.0
  0
ARC
  5
A8D
330
23
100
AcDbEntity
  8
SANINDUSA
100
AcDbCircle
 10
870.2171604604465
 20
1387.753105848259
 30
0.0
 40
0.03
100
AcDbArc
 50
14.99999999527984
 51
88.00000000275622
  0
LINE
  5
A8E
330
23
100
AcDbEntity
  8
SANINDUSA
100
AcDbLine
 10
870.2461382352353
 20
1387.760870419612
 30
0.0
 11
870.2547545167799
 21
1387.728714019115
 31
0.0
  0
ARC
  5
A8F
330
23
100
AcDbEntity
  8
SANINDUSA
100
AcDbCircle
 10
870.3368582120145
 20
1387.750713637949
 30
0.0
 40
0.0850000000000001
100
AcDbArc
 50
194.9999999952798
 51
263.8163903475065
  0
ARC
  5
A90
330
23
100
AcDbEntity
  8
SANINDUSA
100
AcDbCircle
 10
870.3379353616046
 20
1387.760655456131
 30
0.0
 40
0.095
100
AcDbArc
 50
263.8163903475065
 51
283.160974406279
  0
ARC
  5
A91
330
23
100
AcDbEntity
  8
SANINDUSA
100
AcDbCircle
 10
870.337882100431
 20
1387.760708953095
 30
0.0
 40
0.0950642270198053
100
AcDbArc
 50
283.1848907620528
 51
346.5620178012554
  0
ARC
  5
A92
330
23
100
AcDbEntity
  8
SANINDUSA
100
AcDbCircle
 10
870.3379353616046
 20
1387.760655456131
 30
0.0
 40
0.0950000000000001
100
AcDbArc
 50
346.5859341635598
 51
355.0000000042766
  0
LINE
  5
A93
330
23
100
AcDbEntity
  8
SANINDUSA
100
AcDbLine
 10
870.4325738579234
 20
1387.75237566057
 30
0.0
 11
870.4406156434016
 21
1387.844293689192
 31
0.0
  0
SPLINE
  5
A95
330
23
100
AcDbEntity
  8
SANINDUSA
100
AcDbSpline
210
0.0
220
0.0
230
1.0
 70
    12
 71
     3
 72
     8
 73
     4
 74
     0
 42
0.0000000001
 43
0.0000000001
 40
0.0340996144809445
 40
0.0340996144809445
 40
0.0340996144809445
 40
0.0340996144809445
 40
0.9287119809262879
 40
0.9287119809262879
 40
0.9287119809262879
 40
0.9287119809262879
 10
870.5301036972995
 20
1387.889827225119
 30
0.0
 41
1.0
 10
870.5701373759925
 20
1387.897115518577
 30
0.0
 41
1.0
 10
870.6036640361059
 20
1387.92420958436
 30
0.0
 41
1.0
 10
870.619285353921
 20
1387.961540932508
 30
0.0
 41
1.0
  0
ARC
  5
A96
330
23
100
AcDbEntity
  8
SANINDUSA
100
AcDbCircle
 10
870.6146728956095
 20
1387.963471017564
 30
0.0
 40
0.005
100
AcDbArc
 50
337.2931079098315
 51
0.0
  0
LINE
  5
A97
330
23
100
AcDbEntity
  8
SANINDUSA
100
AcDbLine
 10
870.6196728956095
 20
1387.963471017564
 30
0.0
 11
870.6196728956095
 21
1387.968287011154
 31
0.0
  0
LINE
  5
A98
330
23
100
AcDbEntity
  8
SANINDUSA
100
AcDbLine
 10
870.5794734209154
 20
1387.970393776351
 30
0.0
 11
870.6196728956095
 21
1387.968287011154
 31
0.0
  0
ARC
  5
A99
330
23
100
AcDbEntity
  8
SANINDUSA
100
AcDbCircle
 10
870.5797351009685
 20
1387.975386924245
 30
0.0
 40
0.0050000002346917
100
AcDbArc
 50
176.9999956659164
 51
266.9999970223341
  0
LINE
  5
A9A
330
23
100
AcDbEntity
  8
SANINDUSA
100
AcDbLine
 10
870.5747419530801
 20
1387.975648604417
 30
0.0
 11
870.5755558569649
 21
1387.991178815693
 31
0.0
  0
SPLINE
  5
A9B
330
23
100
AcDbEntity
  8
SANINDUSA
100
AcDbSpline
210
0.0
220
0.0
230
1.0
 70
    12
 71
     3
 72
     8
 73
     4
 74
     0
 42
0.0000000001
 43
0.0000000001
 40
0.0
 40
0.0
 40
0.0
 40
0.0
 40
1.0
 40
1.0
 40
1.0
 40
1.0
 10
870.5693406231516
 20
1387.892949121648
 30
0.0
 41
1.0
 10
870.5896336191541
 20
1387.903679763571
 30
0.0
 41
1.0
 10
870.6068189302918
 20
1387.9196457157
 30
0.0
 41
1.0
 10
870.6190151071309
 20
1387.939270143961
 30
0.0
 41
1.0
  0
ARC
  5
A9D
330
23
100
AcDbEntity
  8
SANINDUSA
100
AcDbCircle
 10
870.5646728956095
 20
1387.947750948578
 30
0.0
 40
0.055
100
AcDbArc
 50
275.0424510657358
 51
351.129804171404
  0
LINE
  5
A9E
330
23
100
AcDbEntity
  8
SANINDUSA
100
AcDbLine
 10
870.6176728956094
 20
1387.985655456131
 30
0.0
 11
870.6108051899091
 21
1387.985655456131
 31
0.0
  0
LINE
  5
A9F
330
23
100
AcDbEntity
  8
SANINDUSA
100
AcDbLine
 10
870.6108051899091
 20
1387.985655456131
 30
0.0
 11
870.5902869751461
 21
1387.985655456131
 31
0.0
  0
LINE
  5
AA0
330
23
100
AcDbEntity
  8
SANINDUSA
100
AcDbLine
 10
870.5899830763847
 20
1387.979856722327
 30
0.0
 11
870.5902869751461
 21
1387.985655456131
 31
0.0
  0
LINE
  5
AA1
330
23
100
AcDbEntity
  8
SANINDUSA
100
AcDbLine
 10
870.5899830763847
 20
1387.979856722327
 30
0.0
 11
870.6196728956095
 21
1387.978300803245
 31
0.0
  0
LINE
  5
AA2
330
23
100
AcDbEntity
  8
SANINDUSA
100
AcDbLine
 10
870.6196728956095
 20
1387.978300803245
 30
0.0
 11
870.6196728956095
 21
1387.983655456131
 31
0.0
  0
ARC
  5
AA3
330
23
100
AcDbEntity
  8
SANINDUSA
100
AcDbCircle
 10
870.6176728956094
 20
1387.983655456131
 30
0.0
 40
0.002
100
AcDbArc
 50
0.0
 51
90.0
  0
LINE
  5
AA4
330
23
100
AcDbEntity
  8
SANINDUSA
100
AcDbLine
 10
870.4828075905068
 20
1387.870255576269
 30
0.0
 11
870.5708254623303
 21
1387.878021859077
 31
0.0
  0
ARC
  5
AA5
330
23
100
AcDbEntity
  8
SANINDUSA
100
AcDbCircle
 10
870.5646728956095
 20
1387.947750948578
 30
0.0
 40
0.07
100
AcDbArc
 50
275.0424510657358
 51
0.0
  0
ARC
  5
AA9
330
23
100
AcDbEntity
  8
SANINDUSA
100
AcDbCircle
 10
870.485444621603
 20
1387.840375217209
 30
0.0
 40
0.0449999077413491
100
AcDbArc
 50
95.04146575092851
 51
174.9999438634637
  0
LINE
  5
AB1
330
23
100
AcDbEntity
  8
SANINDUSA
100
AcDbLine
 10
870.1446728956096
 20
1387.865655456131
 30
0.0
 11
870.2459584916917
 21
1387.869192427084
 31
0.0
  0
LINE
  5
AB5
330
23
100
AcDbEntity
  8
SANINDUSA
100
AcDbLine
 10
870.1443239006424
 20
1387.875649364401
 30
0.0
 11
870.2296655004147
 21
1387.878629558734
 31
0.0
  0
LINE
  5
AB6
330
23
100
AcDbEntity
  8
SANINDUSA
100
AcDbLine
 10
870.1443239006424
 20
1387.875649364401
 30
0.0
 11
870.1443239006424
 21
1387.77566154786
 31
0.0
  0
SPLINE
  5
AB7
330
23
100
AcDbEntity
  8
SANINDUSA
100
AcDbSpline
210
0.0
220
0.0
230
1.0
 70
    12
 71
     3
 72
    48
 73
    44
 74
     0
 42
0.0000000001
 43
0.0000000001
 40
0.0
 40
0.0
 40
0.0
 40
0.0
 40
0.0135477632683771
 40
0.0268922370688446
 40
0.0400334682782189
 40
0.0529715059878726
 40
0.0657064016444349
 40
0.0782382092018212
 40
0.0905669852856546
 40
0.1026927893713656
 40
0.1146156839772948
 40
0.1263357348743651
 40
0.1378530113140401
 40
0.1491675862765136
 40
0.1602795367413006
 40
0.1711889439826914
 40
0.1818958938928466
 40
0.1924004773356728
 40
0.2027027905350375
 40
0.2128029355013845
 40
0.2227010205013562
 40
0.2323971605756894
 40
0.2418914781114321
 40
0.3065209896872281
 40
0.3694103766234069
 40
0.4305997083764136
 40
0.4901324890155144
 40
0.5530218354653523
 40
0.6162302601922172
 40
0.6798110722397563
 40
0.7438166499554189
 40
0.7634655459497554
 40
0.7834190865791908
 40
0.8036787243820846
 40
0.824245847013651
 40
0.8451217807826509
 40
0.8663077939707733
 40
0.8878050999486625
 40
0.9096148601017192
 40
0.9317381865779889
 40
0.9541761448697007
 40
0.9769297562392912
 40
1.0
 40
1.0
 40
1.0
 40
1.0
 10
870.5724190153441
 20
1388.029822122797
 30
0.0
 41
1.0
 10
870.57252842598
 20
1388.029589265526
 30
0.0
 41
1.0
 10
870.5727456055029
 20
1388.029127045098
 30
0.0
 41
1.0
 10
870.5730669382194
 20
1388.028446151717
 30
0.0
 41
1.0
 10
870.5733818883771
 20
1388.027780841461
 30
0.0
 41
1.0
 10
870.5736903205977
 20
1388.027131445048
 30
0.0
 41
1.0
 10
870.5739922703511
 20
1388.026497651092
 30
0.0
 41
1.0
 10
870.5742877283817
 20
1388.025879310264
 30
0.0
 41
1.0
 10
870.5745766971409
 20
1388.025276225299
 30
0.0
 41
1.0
 10
870.5748591760189
 20
1388.024688206449
 30
0.0
 41
1.0
 10
870.5751351652088
 20
1388.024115057466
 30
0.0
 41
1.0
 10
870.575404664696
 20
1388.023556579742
 30
0.0
 41
1.0
 10
870.5756676745231
 20
1388.023012571692
 30
0.0
 41
1.0
 10
870.5759241947205
 20
1388.022482829363
 30
0.0
 41
1.0
 10
870.5761742253223
 20
1388.021967146716
 30
0.0
 41
1.0
 10
870.5764177663766
 20
1388.021465315977
 30
0.0
 41
1.0
 10
870.5766548178857
 20
1388.020977127953
 30
0.0
 41
1.0
 10
870.5768853800364
 20
1388.020502372374
 30
0.0
 41
1.0
 10
870.5771094523582
 20
1388.020040838116
 30
0.0
 41
1.0
 10
870.5773270367815
 20
1388.019592313786
 30
0.0
 41
1.0
 10
870.5775381265548
 20
1388.019156586974
 30
0.0
 41
1.0
 10
870.5777427463774
 20
1388.018733448279
 30
0.0
 41
1.0
 10
870.5783255994074
 20
1388.01752463424
 30
0.0
 41
1.0
 10
870.5792389871538
 20
1388.015615818203
 30
0.0
 41
1.0
 10
870.5803963347868
 20
1388.013161317536
 30
0.0
 41
1.0
 10
870.5814181623868
 20
1388.010950107317
 30
0.0
 41
1.0
 10
870.5823282004585
 20
1388.008922656375
 30
0.0
 41
1.0
 10
870.5831268236639
 20
1388.007072844368
 30
0.0
 41
1.0
 10
870.5838198409463
 20
1388.005406134032
 30
0.0
 41
1.0
 10
870.584392829539
 20
1388.003966648624
 30
0.0
 41
1.0
 10
870.5847406617644
 20
1388.003047195853
 30
0.0
 41
1.0
 10
870.5849419821518
 20
1388.00249146916
 30
0.0
 41
1.0
 10
870.5850464621876
 20
1388.002195470431
 30
0.0
 41
1.0
 10
870.5851410130311
 20
1388.001921016738
 30
0.0
 41
1.0
 10
870.5852255981934
 20
1388.001669457894
 30
0.0
 41
1.0
 10
870.5853002279328
 20
1388.001442169766
 30
0.0
 41
1.0
 10
870.5853648984255
 20
1388.001240548128
 30
0.0
 41
1.0
 10
870.5854196145208
 20
1388.001065986641
 30
0.0
 41
1.0
 10
870.5854643603048
 20
1388.000919964161
 30
0.0
 41
1.0
 10
870.5854991956458
 20
1388.00080370094
 30
0.0
 41
1.0
 10
870.5855238924062
 20
1388.000719461702
 30
0.0
 41
1.0
 10
870.5855393199582
 20
1388.000665579184
 30
0.0
 41
1.0
 10
870.5855412038554
 20
1388.00065884599
 30
0.0
 41
1.0
 10
870.5855421523125
 20
1388.000655456131
 30
0.0
 41
1.0
  0
SPLINE
  5
ABB
330
23
100
AcDbEntity
  8
SANINDUSA
100
AcDbSpline
210
0.0
220
0.0
230
1.0
 70
    12
 71
     3
 72
    22
 73
    18
 74
     0
 42
0.0000000001
 43
0.0000000001
 40
0.0
 40
0.0
 40
0.0
 40
0.0
 40
0.125
 40
0.125
 40
0.25
 40
0.25
 40
0.375
 40
0.375
 40
0.5
 40
0.5
 40
0.625
 40
0.625
 40
0.75
 40
0.75
 40
0.875
 40
0.875
 40
1.0
 40
1.0
 40
1.0
 40
1.0
 10
870.2267143599792
 20
1388.035655456131
 30
0.0
 41
1.0
 10
870.2281484320119
 20
1388.035655456131
 30
0.0
 41
1.0
 10
870.2296327276064
 20
1388.035531367774
 30
0.0
 41
1.0
 10
870.2326361144955
 20
1388.034991862463
 30
0.0
 41
1.0
 10
870.2341549247048
 20
1388.034576030674
 30
0.0
 41
1.0
 10
870.2371412318493
 20
1388.033433433059
 30
0.0
 41
1.0
 10
870.2386082024432
 20
1388.032706435409
 30
0.0
 41
1.0
 10
870.2413966013667
 20
1388.030956711352
 30
0.0
 41
1.0
 10
870.2427174117477
 20
1388.02993408886
 30
0.0
 41
1.0
 10
870.2451290369953
 20
1388.027645541952
 30
0.0
 41
1.0
 10
870.2462193838927
 20
1388.026380061621
 30
0.0
 41
1.0
 10
870.2481126435385
 20
1388.023687057584
 30
0.0
 41
1.0
 10
870.2489154201714
 20
1388.022260145539
 30
0.0
 41
1.0
 10
870.2502127431367
 20
1388.019337729963
 30
0.0
 41
1.0
 10
870.2507074934267
 20
1388.017842764185
 30
0.0
 41
1.0
 10
870.2514034444899
 20
1388.01487172886
 30
0.0
 41
1.0
 10
870.2516050448169
 20
1388.013395961724
 30
0.0
 41
1.0
 10
870.2516800983481
 20
1388.011963855037
 30
0.0
 41
1.0
  0
LINE
  5
ABC
330
23
100
AcDbEntity
  8
SANINDUSA
100
AcDbLine
 10
870.3475738579234
 20
1387.728087573069
 30
0.0
 11
870.3375483658113
 21
1387.728087573069
 31
0.0
  0
ARC
  5
ABD
330
23
100
AcDbEntity
  8
SANINDUSA
100
AcDbCircle
 10
870.1779806621939
 20
1387.716333936941
 30
0.0
 40
0.1600000000000004
100
AcDbArc
 50
4.212755668500822
 51
45.75990618802022
  0
ARC
  5
ABE
330
23
100
AcDbEntity
  8
SANINDUSA
100
AcDbCircle
 10
870.2617006546748
 20
1387.80230464625
 30
0.0
 40
0.0400000000000001
100
AcDbArc
 50
45.75990618802022
 51
57.32580905324534
  0
ARC
  5
ABF
330
23
100
AcDbEntity
  8
SANINDUSA
100
AcDbCircle
 10
870.3696728956094
 20
1387.970655456131
 30
0.0
 40
0.16
100
AcDbArc
 50
219.3565203516928
 51
237.3258090532454
  0
LINE
  5
AC0
330
23
100
AcDbEntity
  8
SANINDUSA
100
AcDbLine
 10
870.1443239006424
 20
1387.875649364401
 30
0.0
 11
870.1446728956096
 21
1387.865655456131
 31
0.0
  0
ARC
  5
AC1
330
23
100
AcDbEntity
  8
SANINDUSA
100
AcDbCircle
 10
870.2294910029312
 20
1387.88362651287
 30
0.0
 40
0.005
100
AcDbArc
 50
271.9999999972438
 51
31.83319758609569
  0
ARC
  5
AC2
330
23
100
AcDbEntity
  8
SANINDUSA
100
AcDbCircle
 10
870.3696728956094
 20
1387.970655456131
 30
0.0
 40
0.16
100
AcDbArc
 50
191.2932498056156
 51
211.8331975860957
  0
ARC
  5
AC3
330
23
100
AcDbEntity
  8
SANINDUSA
100
AcDbCircle
 10
870.2078676690419
 20
1387.938343404889
 30
0.0
 40
0.0050000000000001
100
AcDbArc
 50
11.29324980561561
 51
129.6047342918242
  0
SPLINE
  5
AC4
330
23
100
AcDbEntity
  8
SANINDUSA
100
AcDbSpline
210
0.0
220
0.0
230
1.0
 70
    12
 71
     3
 72
     8
 73
     4
 74
     0
 42
0.0000000001
 43
0.0000000001
 40
0.0
 40
0.0
 40
0.0
 40
0.0
 40
0.6783530227492657
 40
0.6783530227492657
 40
0.6783530227492657
 40
0.6783530227492657
 10
870.1446728956096
 20
1387.921758625351
 30
0.0
 41
1.0
 10
870.1668501683176
 20
1387.920984177923
 30
0.0
 41
1.0
 10
870.188114181948
 20
1387.928488774499
 30
0.0
 41
1.0
 10
870.2046802307703
 20
1387.942195707741
 30
0.0
 41
1.0
  0
LINE
  5
AC5
330
23
100
AcDbEntity
  8
SANINDUSA
100
AcDbLine
 10
870.1066030966009
 20
1387.923088052027
 30
0.0
 11
870.1446728956096
 21
1387.921758625351
 31
0.0
  0
ARC
  5
AC6
330
23
100
AcDbEntity
  8
SANINDUSA
100
AcDbCircle
 10
870.1066728956096
 20
1387.92508683368
 30
0.0
 40
0.0019999999999999
100
AcDbArc
 50
180.0
 51
267.9999995661444
  0
LINE
  5
AC7
330
23
100
AcDbEntity
  8
SANINDUSA
100
AcDbLine
 10
870.1046728956095
 20
1387.931155456131
 30
0.0
 11
870.1046728956095
 21
1387.92508683368
 31
0.0
  0
ARC
  5
AC8
330
23
100
AcDbEntity
  8
SANINDUSA
100
AcDbCircle
 10
870.1066728956096
 20
1387.931155456131
 30
0.0
 40
0.002
100
AcDbArc
 50
90.0
 51
180.0
  0
LINE
  5
AC9
330
23
100
AcDbEntity
  8
SANINDUSA
100
AcDbLine
 10
870.1346728956094
 20
1387.933155456131
 30
0.0
 11
870.1066728956096
 21
1387.933155456131
 31
0.0
  0
LINE
  5
ACA
330
23
100
AcDbEntity
  8
SANINDUSA
100
AcDbLine
 10
870.1346728956094
 20
1387.933155456131
 30
0.0
 11
870.1346728956094
 21
1387.943155456131
 31
0.0
  0
LINE
  5
ACB
330
23
100
AcDbEntity
  8
SANINDUSA
100
AcDbLine
 10
870.1446728956096
 20
1387.943155456131
 30
0.0
 11
870.1346728956094
 21
1387.943155456131
 31
0.0
  0
LINE
  5
ACC
330
23
100
AcDbEntity
  8
SANINDUSA
100
AcDbLine
 10
870.1446728956096
 20
1387.933155456131
 30
0.0
 11
870.1446728956096
 21
1387.943155456131
 31
0.0
  0
SPLINE
  5
ACD
330
23
100
AcDbEntity
  8
SANINDUSA
100
AcDbSpline
210
0.0
220
0.0
230
1.0
 70
    12
 71
     3
 72
    11
 73
     7
 74
     0
 42
0.0000000001
 43
0.0000000001
 40
-0.0008706214675878
 40
-0.0008706214675878
 40
-0.0008706214675878
 40
-0.0008706214675878
 40
0.0
 40
0.0
 40
0.0
 40
0.6938923124766437
 40
0.6938923124766437
 40
0.6938923124766437
 40
0.6938923124766437
 10
870.1445753382149
 20
1387.93176203213
 30
0.0
 41
1.0
 10
870.1446078573464
 20
1387.931760896537
 30
0.0
 41
1.0
 10
870.144640376478
 20
1387.931759760944
 30
0.0
 41
1.0
 10
870.1446728956096
 20
1387.931758625351
 30
0.0
 41
1.0
 10
870.1705909049822
 20
1387.93085354852
 30
0.0
 41
1.0
 10
870.1945460903218
 20
1387.942534952416
 30
0.0
 41
1.0
 10
870.2099148838447
 20
1387.961858997925
 30
0.0
 41
1.0
  0
ARC
  5
ACE
330
23
100
AcDbEntity
  8
SANINDUSA
100
AcDbCircle
 10
870.3696728956094
 20
1387.970655456131
 30
0.0
 40
0.16
100
AcDbArc
 50
180.0
 51
183.151588570448
  0
LINE
  5
ACF
330
23
100
AcDbEntity
  8
SANINDUSA
100
AcDbLine
 10
870.2096728956094
 20
1387.998159774831
 30
0.0
 11
870.2096728956094
 21
1387.970655456131
 31
0.0
  0
ARC
  5
AD0
330
23
100
AcDbEntity
  8
SANINDUSA
100
AcDbCircle
 10
870.219672967992
 20
1387.998159811912
 30
0.0
 40
0.0100000723826102
100
AcDbArc
 50
93.00014223082042
 51
180.0002124533176
  0
LINE
  5
AD1
330
23
100
AcDbEntity
  8
SANINDUSA
100
AcDbLine
 10
870.1196728956094
 20
1388.035655456131
 30
0.0
 11
870.2267143599792
 21
1388.035655456131
 31
0.0
  0
LINE
  5
AD2
330
23
100
AcDbEntity
  8
SANINDUSA
100
AcDbLine
 10
870.1196728956094
 20
1387.998155456131
 30
0.0
 11
870.1196728956094
 21
1388.035655456131
 31
0.0
  0
LINE
  5
AD3
330
23
100
AcDbEntity
  8
SANINDUSA
100
AcDbLine
 10
870.1346728956094
 20
1387.998155456131
 30
0.0
 11
870.1196728956094
 21
1387.998155456131
 31
0.0
  0
LINE
  5
AD4
330
23
100
AcDbEntity
  8
SANINDUSA
100
AcDbLine
 10
870.1446728956096
 20
1387.978155456131
 30
0.0
 11
870.1446728956096
 21
1387.988155456131
 31
0.0
  0
LINE
  5
AD5
330
23
100
AcDbEntity
  8
SANINDUSA
100
AcDbLine
 10
870.1346728956094
 20
1387.978155456131
 30
0.0
 11
870.1446728956096
 21
1387.978155456131
 31
0.0
  0
LINE
  5
AD6
330
23
100
AcDbEntity
  8
SANINDUSA
100
AcDbLine
 10
870.1346728956094
 20
1387.978155456131
 30
0.0
 11
870.1346728956094
 21
1387.988155456131
 31
0.0
  0
LINE
  5
AD7
330
23
100
AcDbEntity
  8
SANINDUSA
100
AcDbLine
 10
870.1066728956096
 20
1387.988155456131
 30
0.0
 11
870.1346728956094
 21
1387.988155456131
 31
0.0
  0
ARC
  5
AD8
330
23
100
AcDbEntity
  8
SANINDUSA
100
AcDbCircle
 10
870.1066728956096
 20
1387.990155456131
 30
0.0
 40
0.002
100
AcDbArc
 50
180.0
 51
270.0
  0
LINE
  5
AD9
330
23
100
AcDbEntity
  8
SANINDUSA
100
AcDbLine
 10
870.1046728956095
 20
1387.996257526997
 30
0.0
 11
870.1046728956095
 21
1387.990155456131
 31
0.0
  0
ARC
  5
ADA
330
23
100
AcDbEntity
  8
SANINDUSA
100
AcDbCircle
 10
870.1066728956096
 20
1387.996257526997
 30
0.0
 40
0.0019999999999999
100
AcDbArc
 50
93.00000000327298
 51
180.0
  0
LINE
  5
ADB
330
23
100
AcDbEntity
  8
SANINDUSA
100
AcDbLine
 10
870.106568223697
 20
1387.998254786067
 30
0.0
 11
870.1068299034782
 21
1387.998268500123
 31
0.0
  0
ARC
  5
ADC
330
23
100
AcDbEntity
  8
SANINDUSA
100
AcDbCircle
 10
870.1066728956096
 20
1388.001264388727
 30
0.0
 40
0.0030000000000001
100
AcDbArc
 50
273.000000003273
 51
0.0
  0
LINE
  5
ADD
330
23
100
AcDbEntity
  8
SANINDUSA
100
AcDbLine
 10
870.1096728956095
 20
1388.033655456131
 30
0.0
 11
870.1096728956095
 21
1388.001264388727
 31
0.0
  0
ARC
  5
ADE
330
23
100
AcDbEntity
  8
SANINDUSA
100
AcDbCircle
 10
870.1076728956095
 20
1388.033655456131
 30
0.0
 40
0.0019999999999999
100
AcDbArc
 50
0.0
 51
90.0
  0
LINE
  5
ADF
330
23
100
AcDbEntity
  8
SANINDUSA
100
AcDbLine
 10
870.0746728956096
 20
1388.035655456131
 30
0.0
 11
870.1076728956095
 21
1388.035655456131
 31
0.0
  0
LINE
  5
AE0
330
23
100
AcDbEntity
  8
SANINDUSA
100
AcDbLine
 10
870.0746728956096
 20
1388.035655456131
 30
0.0
 11
870.0746728956096
 21
1388.050655456131
 31
0.0
  0
LINE
  5
AE1
330
23
100
AcDbEntity
  8
SANINDUSA
100
AcDbLine
 10
870.0746728956096
 20
1388.050655456131
 30
0.0
 11
870.2267143599792
 21
1388.050655456131
 31
0.0
  0
SPLINE
  5
AE2
330
23
100
AcDbEntity
  8
SANINDUSA
100
AcDbSpline
210
0.0
220
0.0
230
1.0
 70
    12
 71
     3
 72
    50
 73
    46
 74
     0
 42
0.0000000001
 43
0.0000000001
 40
0.0
 40
0.0
 40
0.0
 40
0.0
 40
0.0109872742576521
 40
0.0219433070201902
 40
0.0328709900232415
 40
0.0437732375610845
 40
0.0546529843677991
 40
0.0655131834184743
 40
0.0763568036581608
 40
0.0871868276666778
 40
0.0980062492680274
 40
0.1088180710937357
 40
0.1196253021097812
 40
0.1304309551172492
 40
0.1412380442369683
 40
0.1520495823886705
 40
0.162868578775119
 40
0.1736980363817892
 40
0.1845409495023269
 40
0.195400301299956
 40
0.2062790614145119
 40
0.2171801836244331
 40
0.2281066035725087
 40
0.2390612365635224
 40
0.2500469754414603
 40
0.3128141784515773
 40
0.3750159631390151
 40
0.4372224335383815
 40
0.5000035660341176
 40
0.5627707690505046
 40
0.6249725537400339
 40
0.6871790241373278
 40
0.7499601566269552
 40
0.770985417276883
 40
0.7919066251015831
 40
0.8127443719946322
 40
0.8335194980255527
 40
0.8542530320926143
 40
0.8749661297727509
 40
0.8956800092594916
 40
0.9164158863463915
 40
0.9371949094471611
 40
0.9580380956423912
 40
0.9789662687065497
 40
0.9999999999999998
 40
0.9999999999999998
 40
0.9999999999999998
 40
0.9999999999999998
 10
870.2666595413694
 20
1388.01274889438
 30
0.0
 41
1.0
 10
870.2666468572221
 20
1388.012970958224
 30
0.0
 41
1.0
 10
870.2666215249937
 20
1388.01341445449
 30
0.0
 41
1.0
 10
870.2665699568415
 20
1388.014077921789
 30
0.0
 41
1.0
 10
870.2665085119976
 20
1388.014738797356
 30
0.0
 41
1.0
 10
870.266436220241
 20
1388.015397030199
 30
0.0
 41
1.0
 10
870.26635334051
 20
1388.016052633752
 30
0.0
 41
1.0
 10
870.2662598036114
 20
1388.016705604243
 30
0.0
 41
1.0
 10
870.2661556279977
 20
1388.017355942493
 30
0.0
 41
1.0
 10
870.2660408087169
 20
1388.018003648094
 30
0.0
 41
1.0
 10
870.2659153470856
 20
1388.018648720961
 30
0.0
 41
1.0
 10
870.2657792427565
 20
1388.019291160925
 30
0.0
 41
1.0
 10
870.2656324958407
 20
1388.019930967839
 30
0.0
 41
1.0
 10
870.2654751063393
 20
1388.02056814155
 30
0.0
 41
1.0
 10
870.2653070742959
 20
1388.021202681911
 30
0.0
 41
1.0
 10
870.2651283997548
 20
1388.021834588775
 30
0.0
 41
1.0
 10
870.2649390827728
 20
1388.022463861998
 30
0.0
 41
1.0
 10
870.2647391234126
 20
1388.023090501448
 30
0.0
 41
1.0
 10
870.2645285217585
 20
1388.023714506978
 30
0.0
 41
1.0
 10
870.2643072778524
 20
1388.024335878509
 30
0.0
 41
1.0
 10
870.2640753919336
 20
1388.02495461574
 30
0.0
 41
1.0
 10
870.2638328635407
 20
1388.025570719241
 30
0.0
 41
1.0
 10
870.2635796948662
 20
1388.026184186341
 30
0.0
 41
1.0
 10
870.2633158781925
 20
1388.026795026552
 30
0.0
 41
1.0
 10
870.2626105783497
 20
1388.028358044898
 30
0.0
 41
1.0
 10
870.26134241336
 20
1388.03080591725
 30
0.0
 41
1.0
 10
870.2592832745699
 20
1388.033993366184
 30
0.0
 41
1.0
 10
870.2569264763981
 20
1388.036968222659
 30
0.0
 41
1.0
 10
870.2542890849619
 20
1388.039712739933
 30
0.0
 41
1.0
 10
870.2514104709306
 20
1388.04220294494
 30
0.0
 41
1.0
 10
870.248316566796
 20
1388.044400630232
 30
0.0
 41
1.0
 10
870.2450254291067
 20
1388.046290276273
 30
0.0
 41
1.0
 10
870.2423289416278
 20
1388.047512825202
 30
0.0
 41
1.0
 10
870.2403477714852
 20
1388.048268105357
 30
0.0
 41
1.0
 10
870.2391463980118
 20
1388.048683629617
 30
0.0
 41
1.0
 10
870.2379373832764
 20
1388.04905956726
 30
0.0
 41
1.0
 10
870.2367206989642
 20
1388.049395933932
 30
0.0
 41
1.0
 10
870.2354963568749
 20
1388.049692724163
 30
0.0
 41
1.0
 10
870.2342643584408
 20
1388.04994993296
 30
0.0
 41
1.0
 10
870.2330247080942
 20
1388.050167577033
 30
0.0
 41
1.0
 10
870.231777409614
 20
1388.050345588601
 30
0.0
 41
1.0
 10
870.2305224669585
 20
1388.050484219824
 30
0.0
 41
1.0
 10
870.2292598840989
 20
1388.050582526255
 30
0.0
 41
1.0
 10
870.2279896643714
 20
1388.050644055448
 30
0.0
 41
1.0
 10
870.2271401737617
 20
1388.050651649535
 30
0.0
 41
1.0
 10
870.2267143599792
 20
1388.050655456131
 30
0.0
 41
1.0
  0
LINE
  5
AE3
330
23
100
AcDbEntity
  8
SANINDUSA
100
AcDbLine
 10
870.2666595413694
 20
1388.01274889438
 30
0.0
 11
870.267031651781
 21
1388.005648604752
 31
0.0
  0
ARC
  5
AE4
330
23
100
AcDbEntity
  8
SANINDUSA
100
AcDbCircle
 10
870.2620385036064
 20
1388.005386924519
 30
0.0
 40
0.0050000005238239
100
AcDbArc
 50
273.0000064217715
 51
3.000004869185676
  0
LINE
  5
AE5
330
23
100
AcDbEntity
  8
SANINDUSA
100
AcDbLine
 10
870.2196728956094
 20
1387.998159774831
 30
0.0
 11
870.2623001839748
 21
1388.000393776351
 31
0.0
  0
LINE
  5
AE6
330
23
100
AcDbEntity
  8
SANINDUSA
100
AcDbLine
 10
870.2196728956094
 20
1387.998159774831
 30
0.0
 11
870.2196728956094
 21
1387.970655456131
 31
0.0
  0
ARC
  5
AE7
330
23
100
AcDbEntity
  8
SANINDUSA
100
AcDbCircle
 10
870.3696728956094
 20
1387.970655456131
 30
0.0
 40
0.15
100
AcDbArc
 50
180.0
 51
237.3258090532454
  0
ARC
  5
AE8
330
23
100
AcDbEntity
  8
SANINDUSA
100
AcDbCircle
 10
870.2617006546748
 20
1387.80230464625
 30
0.0
 40
0.0500000000000002
100
AcDbArc
 50
45.75990618802022
 51
57.32580905324534
  0
SPLINE
  5
AE9
330
23
100
AcDbEntity
  8
SANINDUSA
100
AcDbSpline
210
0.0
220
0.0
230
1.0
 70
    12
 71
     3
 72
    22
 73
    18
 74
     0
 42
0.0000000001
 43
0.0000000001
 40
0.0
 40
0.0
 40
0.0
 40
0.0
 40
0.125
 40
0.125
 40
0.25
 40
0.25
 40
0.375
 40
0.375
 40
0.5
 40
0.5
 40
0.625
 40
0.625
 40
0.75
 40
0.75
 40
0.875
 40
0.875
 40
1.0
 40
1.0
 40
1.0
 40
1.0
 10
870.3475738579234
 20
1387.728087573069
 30
0.0
 41
1.0
 10
870.3472255897645
 20
1387.733112733742
 30
0.0
 41
1.0
 10
870.3466505461248
 20
1387.738165788866
 30
0.0
 41
1.0
 10
870.3450329890342
 20
1387.748266359351
 30
0.0
 41
1.0
 10
870.343990439226
 20
1387.753313794325
 30
0.0
 41
1.0
 10
870.3414350357403
 20
1387.763338444076
 30
0.0
 41
1.0
 10
870.3399221681832
 20
1387.768315568665
 30
0.0
 41
1.0
 10
870.336435258876
 20
1387.778134278276
 30
0.0
 41
1.0
 10
870.3344612284562
 20
1387.782975770768
 30
0.0
 41
1.0
 10
870.3300731332088
 20
1387.792460029014
 30
0.0
 41
1.0
 10
870.32765910481
 20
1387.797102708065
 30
0.0
 41
1.0
 10
870.3224234437696
 20
1387.806131004953
 30
0.0
 41
1.0
 10
870.3196018695878
 20
1387.810516549591
 30
0.0
 41
1.0
 10
870.3135933994685
 20
1387.818979523296
 30
0.0
 41
1.0
 10
870.3104065784343
 20
1387.8230568987
 30
0.0
 41
1.0
 10
870.3037177250724
 20
1387.830861684136
 30
0.0
 41
1.0
 10
870.3002157768748
 20
1387.834589063598
 30
0.0
 41
1.0
 10
870.2965839848754
 20
1387.838125775128
 30
0.0
 41
1.0
  0
SPLINE
  5
AF9
330
23
100
AcDbEntity
  8
SANINDUSA
100
AcDbSpline
210
0.0
220
0.0
230
1.0
 70
    28
 71
     3
 72
    61
 73
    57
 74
     0
 42
0.0000000001
 43
0.0000000001
 40
0.0
 40
0.0
 40
0.0
 40
0.0
 40
0.004919772080571
 40
0.0098385515759976
 40
0.0147566991435748
 40
0.0196745755796266
 40
0.0245925417401504
 40
0.0295109584613944
 40
0.0344301864804582
 40
0.0393505863560013
 40
0.0442725183891485
 40
0.0491963425446774
 40
0.0541224183725745
 40
0.0590511049300447
 40
0.0639827607040578
 40
0.0689177435345142
 40
0.0738564105381109
 40
0.0787991180329869
 40
0.0837462214642249
 40
0.0886980753302837
 40
0.0936550331104359
 40
0.0986174471932783
 40
0.1035856688063858
 40
0.1085600479471708
 40
0.1135409333150125
 40
0.1185286722447135
 40
0.123523610641341
 40
0.1285260929165046
 40
0.1605719059683799
 40
0.1925218214864905
 40
0.2244675760917736
 40
0.2565009421530451
 40
0.3197323620288026
 40
0.3834478379074483
 40
0.4463401347788328
 40
0.509227473436897
 40
0.5711833830098664
 40
0.6335728705979155
 40
0.6950524699018691
 40
0.7566623500398017
 40
0.787018247628653
 40
0.8174263895086696
 40
0.8479480164762364
 40
0.8786436900945343
 40
0.8887281075865159
 40
0.8988108442810995
 40
0.9088939699614277
 40
0.9189795541711587
 40
0.9290696649411723
 40
0.9391663675209247
 40
0.9492717231183348
 40
0.9593877876520117
 40
0.9695166105195617
 40
0.9796602333855888
 40
0.9898206889928651
 40
1.0
 40
1.0
 40
1.0
 40
1.0
 10
870.2267143599792
 20
1388.050655456131
 30
0.0
 41
1.0
 10
870.2267153863264
 20
1388.050655456131
 30
0.0
 41
1.0
 10
870.2267174388136
 20
1388.050655456131
 30
0.0
 41
1.0
 10
870.2267339616641
 20
1388.050655456131
 30
0.0
 41
1.0
 10
870.2267603271415
 20
1388.050655456131
 30
0.0
 41
1.0
 10
870.2267974999029
 20
1388.050655456131
 30
0.0
 41
1.0
 10
870.2268452215092
 20
1388.050655456131
 30
0.0
 41
1.0
 10
870.2269035612046
 20
1388.050655456131
 30
0.0
 41
1.0
 10
870.2269725004315
 20
1388.050655456131
 30
0.0
 41
1.0
 10
870.2270520441604
 20
1388.050655456131
 30
0.0
 41
1.0
 10
870.2271421910554
 20
1388.050655456131
 30
0.0
 41
1.0
 10
870.2272429414696
 20
1388.050655456131
 30
0.0
 41
1.0
 10
870.227354295303
 20
1388.050655456131
 30
0.0
 41
1.0
 10
870.227476252576
 20
1388.050655456131
 30
0.0
 41
1.0
 10
870.2276088132757
 20
1388.050655456131
 30
0.0
 41
1.0
 10
870.2277519773979
 20
1388.050655456131
 30
0.0
 41
1.0
 10
870.2279057449347
 20
1388.050655456131
 30
0.0
 41
1.0
 10
870.2280701158789
 20
1388.050655456131
 30
0.0
 41
1.0
 10
870.228245090222
 20
1388.050655456131
 30
0.0
 41
1.0
 10
870.2284306679553
 20
1388.050655456131
 30
0.0
 41
1.0
 10
870.2286268490697
 20
1388.050655456131
 30
0.0
 41
1.0
 10
870.2288336335533
 20
1388.050655456131
 30
0.0
 41
1.0
 10
870.2290510214048
 20
1388.050655456131
 30
0.0
 41
1.0
 10
870.2292790125786
 20
1388.050655456131
 30
0.0
 41
1.0
 10
870.2295176071926
 20
1388.050655456131
 30
0.0
 41
1.0
 10
870.2297668047528
 20
1388.050655456131
 30
0.0
 41
1.0
 10
870.2300266070494
 20
1388.050655456131
 30
0.0
 41
1.0
 10
870.2307841138091
 20
1388.050655456131
 30
0.0
 41
1.0
 10
870.2322004647719
 20
1388.050655456131
 30
0.0
 41
1.0
 10
870.2345850036477
 20
1388.050655456131
 30
0.0
 41
1.0
 10
870.2373791102152
 20
1388.050655456131
 30
0.0
 41
1.0
 10
870.2416147986292
 20
1388.050655456131
 30
0.0
 41
1.0
 10
870.2478672259646
 20
1388.050655456131
 30
0.0
 41
1.0
 10
870.2567616824556
 20
1388.050655456131
 30
0.0
 41
1.0
 10
870.2669173455486
 20
1388.050655456131
 30
0.0
 41
1.0
 10
870.278154268626
 20
1388.050655456131
 30
0.0
 41
1.0
 10
870.2903936416026
 20
1388.050655456131
 30
0.0
 41
1.0
 10
870.3034376480296
 20
1388.050655456131
 30
0.0
 41
1.0
 10
870.3172006022358
 20
1388.050655456131
 30
0.0
 41
1.0
 10
870.3291056345104
 20
1388.050655456131
 30
0.0
 41
1.0
 10
870.3388362440694
 20
1388.050655456131
 30
0.0
 41
1.0
 10
870.3461988145331
 20
1388.050655456131
 30
0.0
 41
1.0
 10
870.3536768958825
 20
1388.050655456131
 30
0.0
 41
1.0
 10
870.3595531451179
 20
1388.050655456131
 30
0.0
 41
1.0
 10
870.3637654305977
 20
1388.050655456131
 30
0.0
 41
1.0
 10
870.3662763717197
 20
1388.050655456131
 30
0.0
 41
1.0
 10
870.3687925575753
 20
1388.050655456131
 30
0.0
 41
1.0
 10
870.3713140022649
 20
1388.050655456131
 30
0.0
 41
1.0
 10
870.3738407016038
 20
1388.050655456131
 30
0.0
 41
1.0
 10
870.3763726563076
 20
1388.050655456131
 30
0.0
 41
1.0
 10
870.3789098657805
 20
1388.050655456131
 30
0.0
 41
1.0
 10
870.3814523297806
 20
1388.050655456131
 30
0.0
 41
1.0
 10
870.3840000479795
 20
1388.050655456131
 30
0.0
 41
1.0
 10
870.3865530200628
 20
1388.050655456131
 30
0.0
 41
1.0
 10
870.3891112457792
 20
1388.050655456131
 30
0.0
 41
1.0
 10
870.3908185364404
 20
1388.050655456131
 30
0.0
 41
1.0
 10
870.3916729731187
 20
1388.050655456131
 30
0.0
 41
1.0
  0
ARC
  5
AFF
330
23
100
AcDbEntity
  8
SANINDUSA
100
AcDbCircle
 10
870.2660598808845
 20
1388.343729238787
 30
0.0
 40
0.3433560471091873
100
AcDbArc
 50
269.3726073242258
 51
270.0680206493416
  0
LWPOLYLINE
  5
B01
330
23
100
AcDbEntity
  8
SANINDUSA
100
AcDbPolyline
 90
        5
 70
   128
 43
0.0
 10
870.2788176894095
 20
1388.000357728122
 10
870.2751040462899
 20
1388.000360703687
 10
870.271829220737
 20
1388.000364290868
 10
870.2689906844899
 20
1388.000368435904
 10
870.2666333590045
 20
1388.000373049097
  0
LWPOLYLINE
  5
B02
330
23
100
AcDbEntity
  8
SANINDUSA
100
AcDbPolyline
 90
        9
 70
   128
 43
0.0
 10
870.3282308940654
 20
1388.000367290153
 10
870.3190926698921
 20
1388.000362418825
 10
870.3104548757
 20
1388.000358537183
 10
870.3021534678098
 20
1388.000355836337
 10
870.2945049000616
 20
1388.000354285442
 10
870.2901749665461
 20
1388.000354022796
 10
870.2861220292895
 20
1388.000354496728
 10
870.2823173216954
 20
1388.000355772323
 10
870.2788176894095
 20
1388.000357728122
  0
LWPOLYLINE
  5
B03
330
23
100
AcDbEntity
  8
SANINDUSA
100
AcDbPolyline
 90
        5
 70
   128
 43
0.0
 10
870.3585571660584
 20
1388.00038261946
 10
870.3507753315291
 20
1388.000379061538
 10
870.343125145515
 20
1388.000375289497
 10
870.3355784424045
 20
1388.000371317346
 10
870.3282308940654
 20
1388.000367290153
  0
LWPOLYLINE
  5
B04
330
23
100
AcDbEntity
  8
SANINDUSA
100
AcDbPolyline
 90
        5
 70
   128
 43
0.0
 10
870.3916740298302
 20
1388.000393776563
 10
870.3833946366829
 20
1388.0003917854
 10
870.3751153599602
 20
1388.000389195925
 10
870.366800798976
 20
1388.00038609063
 10
870.3585571660584
 20
1388.00038261946
  0
LWPOLYLINE
  5
B05
330
23
100
AcDbEntity
  8
SANINDUSA
100
AcDbPolyline
 90
        3
 70
   128
 43
0.0
 10
870.3986312472508
 20
1388.000394961267
 10
870.3951529457006
 20
1388.000394422323
 10
870.3916740298302
 20
1388.000393776563
  0
LWPOLYLINE
  5
B06
330
23
100
AcDbEntity
  8
SANINDUSA
100
AcDbPolyline
 90
        5
 70
   128
 43
0.0
 10
870.476965901393
 20
1388.000382569918
 10
870.4577507004032
 20
1388.000389667305
 10
870.4382923705262
 20
1388.000394245823
 10
870.4185298000595
 20
1388.000396114459
 10
870.3986312472508
 20
1388.000394961267
  0
LINE
  5
B08
330
23
100
AcDbEntity
  8
SANINDUSA
100
AcDbLine
 10
870.4912576092409
 20
1387.999909583659
 30
0.0
 11
870.477064887077
 21
1388.000382526815
 31
0.0
  0
LWPOLYLINE
  5
B09
330
23
100
AcDbEntity
  8
SANINDUSA
100
AcDbPolyline
 90
        3
 70
   128
 43
0.0
 10
870.4947015792017
 20
1387.99963363664
 10
870.4929814808842
 20
1387.999779362525
 10
870.4912576092409
 20
1387.999909583659
  0
ARC
  5
B0A
330
23
100
AcDbEntity
  8
SANINDUSA
100
AcDbCircle
 10
870.4810140470586
 20
1387.834502999347
 30
0.0
 40
0.1656969399501242
100
AcDbArc
 50
77.12607472842659
 51
85.26163562595559
  0
LWPOLYLINE
  5
B11
330
23
100
AcDbEntity
  8
SANINDUSA
100
AcDbPolyline
 90
        3
 70
   128
 43
0.0
 10
870.6255456488559
 20
1388.000655456131
 10
870.6239406649798
 20
1388.001024848956
 10
870.6233825223328
 20
1388.001261627013
  0
LINE
  5
B14
330
23
100
AcDbEntity
  8
SANINDUSA
100
AcDbLine
 10
870.6196728956095
 20
1387.983655456131
 30
0.0
 11
870.6100748360395
 21
1387.983655456131
 31
0.0
  0
LINE
  5
B17
330
23
100
AcDbEntity
  8
SANINDUSA
100
AcDbLine
 10
870.1046728956095
 20
1387.931155456131
 30
0.0
 11
870.1046728956095
 21
1387.990155456131
 31
0.0
  0
LINE
  5
B19
330
23
100
AcDbEntity
  8
SANINDUSA
100
AcDbLine
 10
870.1446728956096
 20
1387.978155456131
 30
0.0
 11
870.1446728956096
 21
1387.943155456131
 31
0.0
  0
LINE
  5
B1A
330
23
100
AcDbEntity
  8
SANINDUSA
100
AcDbLine
 10
870.1346728956094
 20
1387.978155456131
 30
0.0
 11
870.1346728956094
 21
1387.943155456131
 31
0.0
  0
LINE
  5
B31
330
23
100
AcDbEntity
  8
SANINDUSA
100
AcDbLine
 10
870.0746728956096
 20
1387.749852577225
 30
0.0
 11
870.0746728956096
 21
1387.688115211252
 31
0.0
  0
SPLINE
  5
B42
330
23
100
AcDbEntity
  8
SANINDUSA
100
AcDbSpline
210
0.0
220
0.0
230
1.0
 70
    12
 71
     3
 72
    56
 73
    52
 74
     0
 42
0.0000000001
 43
0.0000000001
 40
0.0
 40
0.0
 40
0.0
 40
0.0
 40
0.0123321127162236
 40
0.0248056828497091
 40
0.0374219634631652
 40
0.0501821655709551
 40
0.0630874596657664
 40
0.076138977198101
 40
0.0893378120085161
 40
0.1026850217127821
 40
0.1161816290403349
 40
0.1298286231265781
 40
0.1436269607597283
 40
0.1575775675830321
 40
0.1716813392532783
 40
0.1859391425566092
 40
0.2003518164827098
 40
0.2149201732584862
 40
0.2296449993424146
 40
0.2445270563807087
 40
0.2595670821265436
 40
0.2747657913235217
 40
0.2901238765545844
 40
0.3056420090575876
 40
0.3213208395086942
 40
0.3371609987748027
 40
0.3531630986361021
 40
0.369327732479935
 40
0.3856554759670314
 40
0.4021468876711966
 40
0.4188025096935074
 40
0.4356228682520093
 40
0.4526084742479136
 40
0.4697598238092325
 40
0.4870773988127752
 40
0.5045616673853939
 40
0.5222130843853243
 40
0.5810351434893785
 40
0.641631641019862
 40
0.7040185740034675
 40
0.7682105935644836
 40
0.7862722792290368
 40
0.805470558188708
 40
0.825805709967442
 40
0.8472779684040755
 40
0.8698875307633402
 40
0.8936345646688945
 40
0.9185192134542667
 40
0.9445416003457964
 40
0.9717018317705587
 40
1.0
 40
1.0
 40
1.0
 40
1.0
 10
870.5559547841678
 20
1388.050655456131
 30
0.0
 41
1.0
 10
870.556064509634
 20
1388.050654922333
 30
0.0
 41
1.0
 10
870.5562852191894
 20
1388.050653848614
 30
0.0
 41
1.0
 10
870.556611262485
 20
1388.050644980998
 30
0.0
 41
1.0
 10
870.556936038025
 20
1388.050630439874
 30
0.0
 41
1.0
 10
870.5572590343123
 20
1388.050609402488
 30
0.0
 41
1.0
 10
870.5575803908237
 20
1388.050581698885
 30
0.0
 41
1.0
 10
870.5579000696102
 20
1388.050546975822
 30
0.0
 41
1.0
 10
870.5582180810731
 20
1388.050504924826
 30
0.0
 41
1.0
 10
870.5585344224333
 20
1388.050455220242
 30
0.0
 41
1.0
 10
870.5588490944998
 20
1388.050397536334
 30
0.0
 41
1.0
 10
870.5591620971002
 20
1388.050331542849
 30
0.0
 41
1.0
 10
870.5594734303259
 20
1388.050256906472
 30
0.0
 41
1.0
 10
870.5597830941936
 20
1388.050173290688
 30
0.0
 41
1.0
 10
870.5600910887371
 20
1388.050080356091
 30
0.0
 41
1.0
 10
870.5603974139828
 20
1388.049977760589
 30
0.0
 41
1.0
 10
870.5607020699567
 20
1388.049865159654
 30
0.0
 41
1.0
 10
870.5610050566818
 20
1388.049742206576
 30
0.0
 41
1.0
 10
870.5613063741802
 20
1388.049608552728
 30
0.0
 41
1.0
 10
870.5616060224718
 20
1388.049463847855
 30
0.0
 41
1.0
 10
870.5619040015749
 20
1388.049307740366
 30
0.0
 41
1.0
 10
870.5622003115065
 20
1388.049139877644
 30
0.0
 41
1.0
 10
870.5624949522823
 20
1388.048959906374
 30
0.0
 41
1.0
 10
870.5627879239161
 20
1388.04876747288
 30
0.0
 41
1.0
 10
870.5630792264214
 20
1388.048562223482
 30
0.0
 41
1.0
 10
870.5633688598098
 20
1388.048343804863
 30
0.0
 41
1.0
 10
870.5636568240924
 20
1388.048111864458
 30
0.0
 41
1.0
 10
870.5639431192786
 20
1388.047866050851
 30
0.0
 41
1.0
 10
870.5642277453796
 20
1388.047606014198
 30
0.0
 41
1.0
 10
870.5645107023945
 20
1388.047331406648
 30
0.0
 41
1.0
 10
870.5647919903642
 20
1388.047041882817
 30
0.0
 41
1.0
 10
870.5650716091689
 20
1388.046737100184
 30
0.0
 41
1.0
 10
870.5653495592933
 20
1388.046416719813
 30
0.0
 41
1.0
 10
870.5656258389291
 20
1388.046080405948
 30
0.0
 41
1.0
 10
870.5659004549486
 20
1388.04572782995
 30
0.0
 41
1.0
 10
870.566173381354
 20
1388.045358657855
 30
0.0
 41
1.0
 10
870.5666548126536
 20
1388.044673673808
 30
0.0
 41
1.0
 10
870.5673320500624
 20
1388.043598921584
 30
0.0
 41
1.0
 10
870.5681809766485
 20
1388.042020820434
 30
0.0
 41
1.0
 10
870.5690071060566
 20
1388.040238941122
 30
0.0
 41
1.0
 10
870.5696109484899
 20
1388.038741368786
 30
0.0
 41
1.0
 10
870.570018950314
 20
1388.037638643367
 30
0.0
 41
1.0
 10
870.5702465912963
 20
1388.036999248766
 30
0.0
 41
1.0
 10
870.570484155354
 20
1388.036307363663
 30
0.0
 41
1.0
 10
870.5707315827702
 20
1388.035560807322
 30
0.0
 41
1.0
 10
870.5709888898018
 20
1388.034757398911
 30
0.0
 41
1.0
 10
870.5712560673989
 20
1388.033894901289
 30
0.0
 41
1.0
 10
870.571533128257
 20
1388.032971237735
 30
0.0
 41
1.0
 10
870.5718200224499
 20
1388.031983753039
 30
0.0
 41
1.0
 10
870.572116943685
 20
1388.030932259686
 30
0.0
 41
1.0
 10
870.572316956785
 20
1388.030197195956
 30
0.0
 41
1.0
 10
870.5724190153441
 20
1388.029822122797
 30
0.0
 41
1.0
  0
LINE
  5
B44
330
23
100
AcDbEntity
  8
SANINDUSA
100
AcDbLine
 10
870.5559547841678
 20
1388.050655456131
 30
0.0
 11
870.5781296897757
 21
1388.050655456131
 31
0.0
  0
LINE
  5
B49
330
23
100
AcDbEntity
  8
SANINDUSA
100
AcDbLine
 10
870.0746728956096
 20
1387.842824668844
 30
0.0
 11
870.0746728956096
 21
1387.749852577225
 31
0.0
  0
LINE
  5
B4D
330
23
100
AcDbEntity
  8
SANINDUSA
100
AcDbLine
 10
870.0746728956096
 20
1387.866485779748
 30
0.0
 11
870.0746728956096
 21
1387.842824668844
 31
0.0
  0
LINE
  5
B51
330
23
100
AcDbEntity
  8
SANINDUSA
100
AcDbLine
 10
870.0746728956096
 20
1387.960655456131
 30
0.0
 11
870.0746728956096
 21
1387.919234238619
 31
0.0
  0
LINE
  5
B57
330
23
100
AcDbEntity
  8
SANINDUSA
100
AcDbLine
 10
870.0746728956096
 20
1387.895849395704
 30
0.0
 11
870.0746728956096
 21
1387.919201005978
 31
0.0
  0
LINE
  5
B59
330
23
100
AcDbEntity
  8
SANINDUSA
100
AcDbLine
 10
870.0746728956096
 20
1387.866485779748
 30
0.0
 11
870.0746728956096
 21
1387.895849395704
 31
0.0
  0
SPLINE
  5
B5B
330
23
100
AcDbEntity
  8
SANINDUSA
100
AcDbSpline
210
0.0
220
0.0
230
1.0
 70
    28
 71
     3
 72
    54
 73
    50
 74
     0
 42
0.0000000001
 43
0.0000000001
 40
0.0
 40
0.0
 40
0.0
 40
0.0
 40
0.0136182203531744
 40
0.0272680332123629
 40
0.0409506516350745
 40
0.0546672799751443
 40
0.0684191136508813
 40
0.0822073389238444
 40
0.0960331326883386
 40
0.1098976622716325
 40
0.1238020852449584
 40
0.1377475492452591
 40
0.1517351918076663
 40
0.1657661402086463
 40
0.1798415113197668
 40
0.1939624114719501
 40
0.2081299363301428
 40
0.222345170778244
 40
0.2366091888141599
 40
0.2509230534548038
 40
0.2652878166509005
 40
0.2797045192113532
 40
0.294174190737015
 40
0.3086978495636354
 40
0.3232765027137337
 40
0.337911145857218
 40
0.3526027632804577
 40
0.3673523278635875
 40
0.3821608010657917
 40
0.3970291329182993
 40
0.4119582620248346
 40
0.426949115569258
 40
0.4420026093301239
 40
0.4571196477019083
 40
0.4723011237226034
 40
0.4875479191074473
 40
0.502860904288497
 40
0.5405284204988473
 40
0.5788428586233239
 40
0.6178165524721141
 40
0.6574612205591613
 40
0.6977879964696207
 40
0.7388074583751678
 40
0.7805296575837013
 40
0.8229641460413223
 40
0.8661200027308995
 40
0.9100058589336711
 40
0.954629922338711
 40
1.0
 40
1.0
 40
1.0
 40
1.0
 10
870.500342872455
 20
1388.050655456131
 30
0.0
 41
1.0
 10
870.5006321282397
 20
1388.050655456131
 30
0.0
 41
1.0
 10
870.501211310845
 20
1388.050655456131
 30
0.0
 41
1.0
 10
870.5020779930606
 20
1388.050655456131
 30
0.0
 41
1.0
 10
870.5029443831698
 20
1388.050655456131
 30
0.0
 41
1.0
 10
870.5038102609407
 20
1388.050655456131
 30
0.0
 41
1.0
 10
870.5046756855866
 20
1388.050655456131
 30
0.0
 41
1.0
 10
870.5055406411689
 20
1388.050655456131
 30
0.0
 41
1.0
 10
870.5064051319642
 20
1388.050655456131
 30
0.0
 41
1.0
 10
870.5072691568119
 20
1388.050655456131
 30
0.0
 41
1.0
 10
870.5081327160154
 20
1388.050655456131
 30
0.0
 41
1.0
 10
870.5089958094852
 20
1388.050655456131
 30
0.0
 41
1.0
 10
870.5098584372386
 20
1388.050655456131
 30
0.0
 41
1.0
 10
870.5107205992652
 20
1388.050655456131
 30
0.0
 41
1.0
 10
870.511582295563
 20
1388.050655456131
 30
0.0
 41
1.0
 10
870.5124435261289
 20
1388.050655456131
 30
0.0
 41
1.0
 10
870.513304290961
 20
1388.050655456131
 30
0.0
 41
1.0
 10
870.5141645900576
 20
1388.050655456131
 30
0.0
 41
1.0
 10
870.5150244234188
 20
1388.050655456131
 30
0.0
 41
1.0
 10
870.515883791044
 20
1388.050655456131
 30
0.0
 41
1.0
 10
870.5167426929344
 20
1388.050655456131
 30
0.0
 41
1.0
 10
870.5176011290914
 20
1388.050655456131
 30
0.0
 41
1.0
 10
870.5184590995171
 20
1388.050655456131
 30
0.0
 41
1.0
 10
870.5193166042139
 20
1388.050655456131
 30
0.0
 41
1.0
 10
870.5201736431853
 20
1388.050655456131
 30
0.0
 41
1.0
 10
870.5210302164346
 20
1388.050655456131
 30
0.0
 41
1.0
 10
870.5218863239664
 20
1388.050655456131
 30
0.0
 41
1.0
 10
870.5227419657854
 20
1388.050655456131
 30
0.0
 41
1.0
 10
870.5235971418973
 20
1388.050655456131
 30
0.0
 41
1.0
 10
870.5244518523047
 20
1388.050655456131
 30
0.0
 41
1.0
 10
870.5253060970264
 20
1388.050655456131
 30
0.0
 41
1.0
 10
870.5261598760197
 20
1388.050655456131
 30
0.0
 41
1.0
 10
870.5270131894765
 20
1388.050655456131
 30
0.0
 41
1.0
 10
870.5278660367079
 20
1388.050655456131
 30
0.0
 41
1.0
 10
870.5287184203376
 20
1388.050655456131
 30
0.0
 41
1.0
 10
870.5295703305452
 20
1388.050655456131
 30
0.0
 41
1.0
 10
870.5308348926664
 20
1388.050655456131
 30
0.0
 41
1.0
 10
870.5325123063797
 20
1388.050655456131
 30
0.0
 41
1.0
 10
870.5345980701881
 20
1388.050655456131
 30
0.0
 41
1.0
 10
870.5366932242901
 20
1388.050655456131
 30
0.0
 41
1.0
 10
870.538797736634
 20
1388.050655456131
 30
0.0
 41
1.0
 10
870.5409116190335
 20
1388.050655456131
 30
0.0
 41
1.0
 10
870.543034867825
 20
1388.050655456131
 30
0.0
 41
1.0
 10
870.5451674960151
 20
1388.050655456131
 30
0.0
 41
1.0
 10
870.5473094638236
 20
1388.050655456131
 30
0.0
 41
1.0
 10
870.5494609298407
 20
1388.050655456131
 30
0.0
 41
1.0
 10
870.5516212937583
 20
1388.050655456131
 30
0.0
 41
1.0
 10
870.5537928588658
 20
1388.050655456131
 30
0.0
 41
1.0
 10
870.5552301708264
 20
1388.050655456131
 30
0.0
 41
1.0
 10
870.5559547841678
 20
1388.050655456131
 30
0.0
 41
1.0
  0
SPLINE
  5
B64
330
23
100
AcDbEntity
  8
SANINDUSA
100
AcDbSpline
210
0.0
220
0.0
230
1.0
 70
    28
 71
     3
 72
    37
 73
    33
 74
     0
 42
0.0000000001
 43
0.0000000001
 40
0.0
 40
0.0
 40
0.0
 40
0.0
 40
0.0119254217528529
 40
0.0239158592267327
 40
0.0359720704423624
 40
0.0480948010821959
 40
0.0602847846213687
 40
0.0725427424624567
 40
0.0848693840736876
 40
0.0972654071302487
 40
0.1097314976583621
 40
0.1222683301817984
 40
0.1348765678705277
 40
0.1475568626912159
 40
0.1603098555592789
 40
0.1731361764922435
 40
0.1860364447641524
 40
0.1990112690607758
 40
0.2120612476354149
 40
0.2251869684650714
 40
0.2383890094067911
 40
0.2516679383539944
 40
0.3106242623803921
 40
0.3721273028646438
 40
0.4362151668481367
 40
0.5029215316582738
 40
0.6166335422375453
 40
0.7524266968655186
 40
0.7997523540325736
 40
0.876461525208983
 40
0.9462036977141048
 40
1.0
 40
1.0
 40
1.0
 40
1.0
 10
870.3916729731187
 20
1388.050655456131
 30
0.0
 41
1.0
 10
870.3921161110251
 20
1388.050655456131
 30
0.0
 41
1.0
 10
870.3930048027634
 20
1388.050655456131
 30
0.0
 41
1.0
 10
870.3943414058079
 20
1388.050655456131
 30
0.0
 41
1.0
 10
870.3956851697505
 20
1388.050655456131
 30
0.0
 41
1.0
 10
870.3970360945461
 20
1388.050655456131
 30
0.0
 41
1.0
 10
870.3983941802171
 20
1388.050655456131
 30
0.0
 41
1.0
 10
870.3997594267686
 20
1388.050655456131
 30
0.0
 41
1.0
 10
870.4011318342109
 20
1388.050655456131
 30
0.0
 41
1.0
 10
870.402511402554
 20
1388.050655456131
 30
0.0
 41
1.0
 10
870.4038981318081
 20
1388.050655456131
 30
0.0
 41
1.0
 10
870.4052920219844
 20
1388.050655456131
 30
0.0
 41
1.0
 10
870.4066930730936
 20
1388.050655456131
 30
0.0
 41
1.0
 10
870.4081012851476
 20
1388.050655456131
 30
0.0
 41
1.0
 10
870.4095166581584
 20
1388.050655456131
 30
0.0
 41
1.0
 10
870.410939192137
 20
1388.050655456131
 30
0.0
 41
1.0
 10
870.4123688871002
 20
1388.050655456131
 30
0.0
 41
1.0
 10
870.4138057430439
 20
1388.050655456131
 30
0.0
 41
1.0
 10
870.4152497600427
 20
1388.050655456131
 30
0.0
 41
1.0
 10
870.4167009378783
 20
1388.050655456131
 30
0.0
 41
1.0
 10
870.4181592774324
 20
1388.050655456131
 30
0.0
 41
1.0
 10
870.4213022626131
 20
1388.050655456131
 30
0.0
 41
1.0
 10
870.4262096443489
 20
1388.050655456131
 30
0.0
 41
1.0
 10
870.4329506844699
 20
1388.050655456131
 30
0.0
 41
1.0
 10
870.4399413561167
 20
1388.050655456131
 30
0.0
 41
1.0
 10
870.4487867117521
 20
1388.050655456131
 30
0.0
 41
1.0
 10
870.4601479886045
 20
1388.050655456131
 30
0.0
 41
1.0
 10
870.4707483024595
 20
1388.050655456131
 30
0.0
 41
1.0
 10
870.4799986681132
 20
1388.050655456131
 30
0.0
 41
1.0
 10
870.4868944775991
 20
1388.050655456131
 30
0.0
 41
1.0
 10
870.4940208507364
 20
1388.050655456131
 30
0.0
 41
1.0
 10
870.4984250230797
 20
1388.050655456131
 30
0.0
 41
1.0
 10
870.500342872455
 20
1388.050655456131
 30
0.0
 41
1.0
  0
LINE
  5
B70
330
23
100
AcDbEntity
  8
SANINDUSA
100
AcDbLine
 10
870.0746728956096
 20
1387.960655456131
 30
0.0
 11
870.0746728956096
 21
1387.990655458916
 31
0.0
  0
LINE
  5
B71
330
23
100
AcDbEntity
  8
SANINDUSA
100
AcDbLine
 10
870.0746728956096
 20
1388.035655456131
 30
0.0
 11
870.0746728956096
 21
1388.020655456131
 31
0.0
  0
LINE
  5
B7D
330
23
100
AcDbEntity
  8
SANINDUSA
100
AcDbLine
 10
870.0746728956096
 20
1388.020655456131
 30
0.0
 11
870.0746728956096
 21
1387.990655458916
 31
0.0
  0
ENDSEC
  0
SECTION
  2
OBJECTS
  0
DICTIONARY
  5
C
330
0
100
AcDbDictionary
281
     1
  3
ACAD_COLOR
350
1C
  3
ACAD_GROUP
350
D
  3
ACAD_LAYOUT
350
1A
  3
ACAD_MATERIAL
350
1B
  3
ACAD_MLINESTYLE
350
17
  3
ACAD_PLOTSETTINGS
350
19
  3
ACAD_PLOTSTYLENAME
350
E
  3
ACAD_TABLESTYLE
350
1D
  3
ACDBHEADERROUNDTRIPXREC
350
107F
  3
AcDbVariableDictionary
350
1069
  0
DICTIONARY
  5
1C
102
{ACAD_REACTORS
330
C
102
}
330
C
100
AcDbDictionary
281
     1
  0
DICTIONARY
  5
D
102
{ACAD_REACTORS
330
C
102
}
330
C
100
AcDbDictionary
281
     1
  0
DICTIONARY
  5
1A
102
{ACAD_REACTORS
330
C
102
}
330
C
100
AcDbDictionary
281
     1
  3
Layout1
350
22
  3
Layout2
350
2A
  3
Model
350
26
  0
DICTIONARY
  5
1B
102
{ACAD_REACTORS
330
C
102
}
330
C
100
AcDbDictionary
281
     1
  0
DICTIONARY
  5
17
102
{ACAD_REACTORS
330
C
102
}
330
C
100
AcDbDictionary
281
     1
  3
Standard
350
18
  0
DICTIONARY
  5
19
102
{ACAD_REACTORS
330
C
102
}
330
C
100
AcDbDictionary
281
     1
  0
ACDBDICTIONARYWDFLT
  5
E
102
{ACAD_REACTORS
330
C
102
}
330
C
100
AcDbDictionary
281
     1
  3
Normal
350
F
100
AcDbDictionaryWithDefault
340
F
  0
DICTIONARY
  5
1D
102
{ACAD_REACTORS
330
C
102
}
330
C
100
AcDbDictionary
281
     1
  3
Standard
350
1E
  0
DICTIONARY
  5
107F
102
{ACAD_REACTORS
330
C
102
}
330
C
100
AcDbDictionary
281
     1
  0
DICTIONARY
  5
1069
102
{ACAD_REACTORS
330
C
102
}
330
C
100
AcDbDictionary
281
     1
  3
CTABLESTYLE
350
106A
  3
DIMASSOC
350
1074
  3
HIDETEXT
350
1073
  3
PROJECTNAME
350
1075
  0
LAYOUT
  5
22
102
{ACAD_XDICTIONARY
360
1080
102
}
102
{ACAD_REACTORS
330
1A
102
}
330
1A
100
AcDbPlotSettings
  1

  2
C:\Documents and Settings\Julio\Application Data\Autodesk\AutoCAD 2006\R16.2\enu\plotters\Default Windows System Printer.pc3
  4

  6

 40
0.0
 41
0.0
 42
0.0
 43
0.0
 44
0.0
 45
0.0
 46
0.0
 47
0.0
 48
0.0
 49
0.0
140
0.0
141
0.0
142
1.0
143
1.0
 70
   688
 72
     0
 73
     0
 74
     5
  7

 75
    16
147
1.0
148
0.0
149
0.0
100
AcDbLayout
  1
Layout1
 70
     1
 71
     1
 10
0.0
 20
0.0
 11
420.0
 21
297.0
 12
0.0
 22
0.0
 32
0.0
 14
1.000000000000000E+20
 24
1.000000000000000E+20
 34
1.000000000000000E+20
 15
-1.000000000000000E+20
 25
-1.000000000000000E+20
 35
-1.000000000000000E+20
146
0.0
 13
0.0
 23
0.0
 33
0.0
 16
1.0
 26
0.0
 36
0.0
 17
0.0
 27
1.0
 37
0.0
 76
     0
330
1F
  0
LAYOUT
  5
2A
102
{ACAD_XDICTIONARY
360
1084
102
}
102
{ACAD_REACTORS
330
1A
102
}
330
1A
100
AcDbPlotSettings
  1

  2
C:\Documents and Settings\Julio\Application Data\Autodesk\AutoCAD 2006\R16.2\enu\plotters\Default Windows System Printer.pc3
  4

  6

 40
0.0
 41
0.0
 42
0.0
 43
0.0
 44
0.0
 45
0.0
 46
0.0
 47
0.0
 48
0.0
 49
0.0
140
0.0
141
0.0
142
1.0
143
1.0
 70
   688
 72
     0
 73
     0
 74
     5
  7

 75
    16
147
1.0
148
0.0
149
0.0
100
AcDbLayout
  1
Layout2
 70
     1
 71
     2
 10
0.0
 20
0.0
 11
12.0
 21
9.0
 12
0.0
 22
0.0
 32
0.0
 14
0.0
 24
0.0
 34
0.0
 15
0.0
 25
0.0
 35
0.0
146
0.0
 13
0.0
 23
0.0
 33
0.0
 16
1.0
 26
0.0
 36
0.0
 17
0.0
 27
1.0
 37
0.0
 76
     0
330
27
  0
LAYOUT
  5
26
102
{ACAD_XDICTIONARY
360
1082
102
}
102
{ACAD_REACTORS
330
1A
102
}
330
1A
100
AcDbPlotSettings
  1

  2
C:\Documents and Settings\Julio\Application Data\Autodesk\AutoCAD 2006\R16.2\enu\plotters\Default Windows System Printer.pc3
  4

  6

 40
0.0
 41
0.0
 42
0.0
 43
0.0
 44
0.0
 45
0.0
 46
0.0
 47
0.0
 48
0.0
 49
0.0
140
0.0
141
0.0
142
1.0
143
1.0
 70
  1712
 72
     0
 73
     0
 74
     0
  7

 75
     0
147
1.0
148
0.0
149
0.0
100
AcDbLayout
  1
Model
 70
     1
 71
     0
 10
0.0
 20
0.0
 11
12.0
 21
9.0
 12
0.0
 22
0.0
 32
0.0
 14
0.0
 24
0.0
 34
0.0
 15
0.0
 25
0.0
 35
0.0
146
0.0
 13
0.0
 23
0.0
 33
0.0
 16
1.0
 26
0.0
 36
0.0
 17
0.0
 27
1.0
 37
0.0
 76
     0
330
23
  0
MLINESTYLE
  5
18
102
{ACAD_REACTORS
330
17
102
}
330
17
100
AcDbMlineStyle
  2
STANDARD
 70
     0
  3

 62
   256
 51
90.0
 52
90.0
 71
     2
 49
0.5
 62
   256
  6
BYLAYER
 49
-0.5
 62
   256
  6
BYLAYER
  0
ACDBPLACEHOLDER
  5
F
102
{ACAD_REACTORS
330
E
102
}
330
E
  0
TABLESTYLE
  5
1E
102
{ACAD_REACTORS
330
1D
102
}
330
1D
100
AcDbTableStyle
  3
Standard
 70
     0
 71
     0
 40
1.5
 41
1.5
280
     0
281
     0
  7
Standard
140
4.5
170
     2
 62
     0
 63
     7
283
     0
274
    -2
284
     1
 64
     0
275
    -2
285
     1
 65
     0
276
    -2
286
     1
 66
     0
277
    -2
287
     1
 67
     0
278
    -2
288
     1
 68
     0
279
    -2
289
     1
 69
     0
  7
Standard
140
6.0
170
     5
 62
     0
 63
     7
283
     0
274
    -2
284
     1
 64
     0
275
    -2
285
     1
 65
     0
276
    -2
286
     1
 66
     0
277
    -2
287
     1
 67
     0
278
    -2
288
     1
 68
     0
279
    -2
289
     1
 69
     0
  7
Standard
140
4.5
170
     5
 62
     0
 63
     7
283
     0
274
    -2
284
     1
 64
     0
275
    -2
285
     1
 65
     0
276
    -2
286
     1
 66
     0
277
    -2
287
     1
 67
     0
278
    -2
288
     1
 68
     0
279
    -2
289
     1
 69
     0
  0
DICTIONARYVAR
  5
106A
102
{ACAD_REACTORS
330
1069
102
}
330
1069
100
DictionaryVariables
280
     0
  1
STANDARD
  0
DICTIONARYVAR
  5
1074
102
{ACAD_REACTORS
330
1069
102
}
330
1069
100
DictionaryVariables
280
     0
  1
2
  0
DICTIONARYVAR
  5
1073
102
{ACAD_REACTORS
330
1069
102
}
330
1069
100
DictionaryVariables
280
     0
  1
1
  0
DICTIONARYVAR
  5
1075
102
{ACAD_REACTORS
330
1069
102
}
330
1069
100
DictionaryVariables
280
     0
  1

  0
DICTIONARY
  5
1080
330
22
100
AcDbDictionary
280
     1
281
     1
  3
ACAD_XREC_ROUNDTRIP
360
1081
  0
DICTIONARY
  5
1084
330
2A
100
AcDbDictionary
280
     1
281
     1
  3
ACAD_XREC_ROUNDTRIP
360
1085
  0
DICTIONARY
  5
1082
330
26
100
AcDbDictionary
280
     1
281
     1
  3
ACAD_XREC_ROUNDTRIP
360
1083
  0
XRECORD
  5
1081
102
{ACAD_REACTORS
330
1080
102
}
330
1080
100
AcDbXrecord
280
     1
102
SHADEPLOT
 70
     0
102
SHADEPLOTRESLEVEL
 70
     2
102
SHADEPLOTCUSTOMDPI
 70
   300
  0
XRECORD
  5
1085
102
{ACAD_REACTORS
330
1084
102
}
330
1084
100
AcDbXrecord
280
     1
102
SHADEPLOT
 70
     0
102
SHADEPLOTRESLEVEL
 70
     2
102
SHADEPLOTCUSTOMDPI
 70
   300
  0
XRECORD
  5
1083
102
{ACAD_REACTORS
330
1082
102
}
330
1082
100
AcDbXrecord
280
     1
102
SHADEPLOT
 70
     0
102
SHADEPLOTRESLEVEL
 70
     2
102
SHADEPLOTCUSTOMDPI
 70
   300
  0
ENDSEC
  0
EOF
