  0
SECTION
  2
HEADER
  9
$ACADVER
  1
AC1015
  9
$ACADMAINTVER
 70
    20
  9
$DWGCODEPAGE
  3
ANSI_1252
  9
$INSBASE
 10
0.0
 20
0.0
 30
0.0
  9
$EXTMIN
 10
4037.931407396601
 20
1894.269811691569
 30
0.0
  9
$EXTMAX
 10
4038.495968352887
 20
1894.512250155469
 30
0.0
  9
$LIMMIN
 10
0.0
 20
0.0
  9
$LIMMAX
 10
420.0
 20
297.0
  9
$ORTHOMODE
 70
     1
  9
$REGENMODE
 70
     1
  9
$FILLMODE
 70
     1
  9
$QTEXTMODE
 70
     0
  9
$MIRRTEXT
 70
     1
  9
$LTSCALE
 40
1.0
  9
$ATTMODE
 70
     1
  9
$TEXTSIZE
 40
2.5
  9
$TRACEWID
 40
1.0
  9
$TEXTSTYLE
  7
SANINDUSA
  9
$CLAYER
  8
cotas
  9
$CELTYPE
  6
ByLayer
  9
$CECOLOR
 62
   256
  9
$CELTSCALE
 40
1.0
  9
$DISPSILH
 70
     0
  9
$DIMSCALE
 40
1.0
  9
$DIMASZ
 40
2.0
  9
$DIMEXO
 40
1.0
  9
$DIMDLI
 40
1.0
  9
$DIMRND
 40
0.0
  9
$DIMDLE
 40
0.0
  9
$DIMEXE
 40
1.0
  9
$DIMTP
 40
0.0
  9
$DIMTM
 40
0.0
  9
$DIMTXT
 40
2.0
  9
$DIMCEN
 40
0.0
  9
$DIMTSZ
 40
0.0
  9
$DIMTOL
 70
     0
  9
$DIMLIM
 70
     0
  9
$DIMTIH
 70
     0
  9
$DIMTOH
 70
     0
  9
$DIMSE1
 70
     0
  9
$DIMSE2
 70
     0
  9
$DIMTAD
 70
     1
  9
$DIMZIN
 70
     8
  9
$DIMBLK
  1

  9
$DIMASO
 70
     1
  9
$DIMSHO
 70
     1
  9
$DIMPOST
  1

  9
$DIMAPOST
  1

  9
$DIMALT
 70
     0
  9
$DIMALTD
 70
     3
  9
$DIMALTF
 40
0.03937007874016
  9
$DIMLFAC
 40
1.0
  9
$DIMTOFL
 70
     1
  9
$DIMTVP
 40
0.0
  9
$DIMTIX
 70
     0
  9
$DIMSOXD
 70
     0
  9
$DIMSAH
 70
     0
  9
$DIMBLK1
  1

  9
$DIMBLK2
  1

  9
$DIMSTYLE
  2
SANINDUSA
  9
$DIMCLRD
 70
   256
  9
$DIMCLRE
 70
   256
  9
$DIMCLRT
 70
   256
  9
$DIMTFAC
 40
1.0
  9
$DIMGAP
 40
1.0
  9
$DIMJUST
 70
     0
  9
$DIMSD1
 70
     0
  9
$DIMSD2
 70
     0
  9
$DIMTOLJ
 70
     0
  9
$DIMTZIN
 70
     8
  9
$DIMALTZ
 70
     0
  9
$DIMALTTZ
 70
     0
  9
$DIMUPT
 70
     0
  9
$DIMDEC
 70
     1
  9
$DIMTDEC
 70
     1
  9
$DIMALTU
 70
     2
  9
$DIMALTTD
 70
     3
  9
$DIMTXSTY
  7
SANINDUSA
  9
$DIMAUNIT
 70
     0
  9
$DIMADEC
 70
     1
  9
$DIMALTRND
 40
0.0
  9
$DIMAZIN
 70
     0
  9
$DIMDSEP
 70
    44
  9
$DIMATFIT
 70
     3
  9
$DIMFRAC
 70
     0
  9
$DIMLDRBLK
  1

  9
$DIMLUNIT
 70
     2
  9
$DIMLWD
 70
    -1
  9
$DIMLWE
 70
    -1
  9
$DIMTMOVE
 70
     0
  9
$LUNITS
 70
     2
  9
$LUPREC
 70
     4
  9
$SKETCHINC
 40
1.0
  9
$FILLETRAD
 40
3.0
  9
$AUNITS
 70
     0
  9
$AUPREC
 70
     0
  9
$MENU
  1
.
  9
$ELEVATION
 40
0.0
  9
$PELEVATION
 40
0.0
  9
$THICKNESS
 40
0.0
  9
$LIMCHECK
 70
     0
  9
$CHAMFERA
 40
10.0
  9
$CHAMFERB
 40
10.0
  9
$CHAMFERC
 40
20.0
  9
$CHAMFERD
 40
0.0
  9
$SKPOLY
 70
     0
  9
$TDCREATE
 40
2454862.450351563
  9
$TDUCREATE
 40
2454862.408684896
  9
$TDUPDATE
 40
2454929.595839838
  9
$TDUUPDATE
 40
2454929.554173172
  9
$TDINDWG
 40
0.0039791319
  9
$TDUSRTIMER
 40
0.0039791319
  9
$USRTIMER
 70
     1
  9
$ANGBASE
 50
0.0
  9
$ANGDIR
 70
     0
  9
$PDMODE
 70
     0
  9
$PDSIZE
 40
0.0
  9
$PLINEWID
 40
0.0
  9
$SPLFRAME
 70
     0
  9
$SPLINETYPE
 70
     6
  9
$SPLINESEGS
 70
     8
  9
$HANDSEED
  5
17E5
  9
$SURFTAB1
 70
     6
  9
$SURFTAB2
 70
     6
  9
$SURFTYPE
 70
     6
  9
$SURFU
 70
     6
  9
$SURFV
 70
     6
  9
$UCSBASE
  2

  9
$UCSNAME
  2

  9
$UCSORG
 10
0.0
 20
0.0
 30
0.0
  9
$UCSXDIR
 10
1.0
 20
0.0
 30
0.0
  9
$UCSYDIR
 10
0.0
 20
1.0
 30
0.0
  9
$UCSORTHOREF
  2

  9
$UCSORTHOVIEW
 70
     0
  9
$UCSORGTOP
 10
0.0
 20
0.0
 30
0.0
  9
$UCSORGBOTTOM
 10
0.0
 20
0.0
 30
0.0
  9
$UCSORGLEFT
 10
0.0
 20
0.0
 30
0.0
  9
$UCSORGRIGHT
 10
0.0
 20
0.0
 30
0.0
  9
$UCSORGFRONT
 10
0.0
 20
0.0
 30
0.0
  9
$UCSORGBACK
 10
0.0
 20
0.0
 30
0.0
  9
$PUCSBASE
  2

  9
$PUCSNAME
  2

  9
$PUCSORG
 10
0.0
 20
0.0
 30
0.0
  9
$PUCSXDIR
 10
1.0
 20
0.0
 30
0.0
  9
$PUCSYDIR
 10
0.0
 20
1.0
 30
0.0
  9
$PUCSORTHOREF
  2

  9
$PUCSORTHOVIEW
 70
     0
  9
$PUCSORGTOP
 10
0.0
 20
0.0
 30
0.0
  9
$PUCSORGBOTTOM
 10
0.0
 20
0.0
 30
0.0
  9
$PUCSORGLEFT
 10
0.0
 20
0.0
 30
0.0
  9
$PUCSORGRIGHT
 10
0.0
 20
0.0
 30
0.0
  9
$PUCSORGFRONT
 10
0.0
 20
0.0
 30
0.0
  9
$PUCSORGBACK
 10
0.0
 20
0.0
 30
0.0
  9
$USERI1
 70
     0
  9
$USERI2
 70
     0
  9
$USERI3
 70
     0
  9
$USERI4
 70
     0
  9
$USERI5
 70
     0
  9
$USERR1
 40
0.0
  9
$USERR2
 40
0.0
  9
$USERR3
 40
0.0
  9
$USERR4
 40
0.0
  9
$USERR5
 40
0.0
  9
$WORLDVIEW
 70
     1
  9
$SHADEDGE
 70
     3
  9
$SHADEDIF
 70
    70
  9
$TILEMODE
 70
     1
  9
$MAXACTVP
 70
    64
  9
$PINSBASE
 10
0.0
 20
0.0
 30
0.0
  9
$PLIMCHECK
 70
     0
  9
$PEXTMIN
 10
1.000000000000000E+20
 20
1.000000000000000E+20
 30
1.000000000000000E+20
  9
$PEXTMAX
 10
-1.000000000000000E+20
 20
-1.000000000000000E+20
 30
-1.000000000000000E+20
  9
$PLIMMIN
 10
0.0
 20
0.0
  9
$PLIMMAX
 10
420.0
 20
297.0
  9
$UNITMODE
 70
     0
  9
$VISRETAIN
 70
     1
  9
$PLINEGEN
 70
     0
  9
$PSLTSCALE
 70
     1
  9
$TREEDEPTH
 70
  3020
  9
$CMLSTYLE
  2
Standard
  9
$CMLJUST
 70
     0
  9
$CMLSCALE
 40
20.0
  9
$PROXYGRAPHICS
 70
     1
  9
$MEASUREMENT
 70
     1
  9
$CELWEIGHT
370
    -1
  9
$ENDCAPS
280
     0
  9
$JOINSTYLE
280
     0
  9
$LWDISPLAY
290
     0
  9
$INSUNITS
 70
     4
  9
$HYPERLINKBASE
  1

  9
$STYLESHEET
  1
sanindusa.ctb
  9
$XEDIT
290
     1
  9
$CEPSNTYPE
380
     0
  9
$PSTYLEMODE
290
     1
  9
$FINGERPRINTGUID
  2
{310BDF86-329C-437B-89FE-01DD8ED0CFB0}
  9
$VERSIONGUID
  2
{F7172CDE-6E7D-4E3F-AF8D-D60FF0984EA9}
  9
$EXTNAMES
290
     1
  9
$PSVPSCALE
 40
0.0
  9
$OLESTARTUP
290
     0
  0
ENDSEC
  0
SECTION
  2
CLASSES
  0
CLASS
  1
ACDBDICTIONARYWDFLT
  2
AcDbDictionaryWithDefault
  3
ObjectDBX Classes
 90
        0
280
     0
281
     0
  0
CLASS
  1
ACDBPLACEHOLDER
  2
AcDbPlaceHolder
  3
ObjectDBX Classes
 90
        0
280
     0
281
     0
  0
CLASS
  1
LAYOUT
  2
AcDbLayout
  3
ObjectDBX Classes
 90
        0
280
     0
281
     0
  0
CLASS
  1
DICTIONARYVAR
  2
AcDbDictionaryVar
  3
ObjectDBX Classes
 90
        0
280
     0
281
     0
  0
CLASS
  1
DIMASSOC
  2
AcDbDimAssoc
  3
"AcDbDimAssoc|Product Desc:     AcDim ARX App For Dimension|Company:          Autodesk, Inc.|WEB Address:      www.autodesk.com"
 90
    32768
280
     0
281
     0
  0
CLASS
  1
TABLESTYLE
  2
AcDbTableStyle
  3
ObjectDBX Classes
 90
     2047
280
     0
281
     0
  0
ENDSEC
  0
SECTION
  2
TABLES
  0
TABLE
  2
VPORT
  5
8
330
0
100
AcDbSymbolTable
 70
     7
  0
VPORT
  5
17DD
330
8
100
AcDbSymbolTableRecord
100
AcDbViewportTableRecord
  2
*Active
 70
     0
 10
0.0
 20
0.0
 11
1.0
 21
1.0
 12
4038.213687874744
 22
1894.391030923519
 13
0.0
 23
0.0
 14
10.0
 24
10.0
 15
10.0
 25
10.0
 16
0.0
 26
0.0
 36
1.0
 17
0.0
 27
0.0
 37
0.0
 40
0.3537419631247158
 41
1.602030456852791
 42
50.0
 43
0.0
 44
0.0
 50
0.0
 51
0.0
 71
     0
 72
   100
 73
     1
 74
     2
 75
     0
 76
     0
 77
     0
 78
     0
281
     0
 65
     1
110
0.0
120
0.0
130
0.0
111
1.0
121
0.0
131
0.0
112
0.0
122
1.0
132
0.0
 79
     0
146
0.0
  0
ENDTAB
  0
TABLE
  2
LTYPE
  5
5
330
0
100
AcDbSymbolTable
 70
     6
  0
LTYPE
  5
14
330
5
100
AcDbSymbolTableRecord
100
AcDbLinetypeTableRecord
  2
ByBlock
 70
     0
  3

 72
    65
 73
     0
 40
0.0
  0
LTYPE
  5
15
330
5
100
AcDbSymbolTableRecord
100
AcDbLinetypeTableRecord
  2
ByLayer
 70
     0
  3

 72
    65
 73
     0
 40
0.0
  0
LTYPE
  5
16
330
5
100
AcDbSymbolTableRecord
100
AcDbLinetypeTableRecord
  2
Continuous
 70
     0
  3
Solid line
 72
    65
 73
     0
 40
0.0
  0
LTYPE
  5
2D
330
5
100
AcDbSymbolTableRecord
100
AcDbLinetypeTableRecord
  2
DASHDOT
 70
     0
  3
Dash dot __ . __ . __ . __ . __ . __ . __ . __
 72
    65
 73
     4
 40
25.4
 49
12.7
 74
     0
 49
-6.349999999999999
 74
     0
 49
0.0
 74
     0
 49
-6.349999999999999
 74
     0
  0
LTYPE
  5
2E
330
5
100
AcDbSymbolTableRecord
100
AcDbLinetypeTableRecord
  2
HIDDEN
 70
     0
  3
Hidden __ __ __ __ __ __ __ __ __ __ __ __ __ _
 72
    65
 73
     2
 40
9.524999999999998
 49
6.349999999999999
 74
     0
 49
-3.174999999999999
 74
     0
  0
LTYPE
  5
C75
330
5
100
AcDbSymbolTableRecord
100
AcDbLinetypeTableRecord
  2
AM_ISO02W050
 70
     0
  3
__ __ __ __ __ __ __ __ __ __ __ __ __ __ __
 72
    65
 73
     2
 40
7.5
 49
6.0
 74
     0
 49
-1.5
 74
     0
  0
LTYPE
  5
C76
330
5
100
AcDbSymbolTableRecord
100
AcDbLinetypeTableRecord
  2
AM_ISO08W050
 70
     0
  3
____ . ____ . ____ . ____ . ____ . ____ . ____
 72
    65
 73
     4
 40
18.0
 49
12.0
 74
     0
 49
-1.5
 74
     0
 49
3.0
 74
     0
 49
-1.5
 74
     0
  0
ENDTAB
  0
TABLE
  2
LAYER
  5
2
102
{ACAD_XDICTIONARY
360
1051
102
}
330
0
100
AcDbSymbolTable
 70
    17
  0
LAYER
  5
10
330
2
100
AcDbSymbolTableRecord
100
AcDbLayerTableRecord
  2
0
 70
     0
 62
     7
  6
Continuous
370
    -3
390
F
  0
LAYER
  5
2F
330
2
100
AcDbSymbolTableRecord
100
AcDbLayerTableRecord
  2
1
 70
     0
 62
     1
  6
Continuous
370
    -3
390
F
  0
LAYER
  5
30
330
2
100
AcDbSymbolTableRecord
100
AcDbLayerTableRecord
  2
2
 70
     0
 62
     2
  6
Continuous
370
    -3
390
F
  0
LAYER
  5
31
330
2
100
AcDbSymbolTableRecord
100
AcDbLayerTableRecord
  2
3
 70
     0
 62
     3
  6
Continuous
370
    -3
390
F
  0
LAYER
  5
32
330
2
100
AcDbSymbolTableRecord
100
AcDbLayerTableRecord
  2
4
 70
     0
 62
     4
  6
Continuous
370
    -3
390
F
  0
LAYER
  5
33
330
2
100
AcDbSymbolTableRecord
100
AcDbLayerTableRecord
  2
5
 70
     0
 62
     5
  6
Continuous
370
    -3
390
F
  0
LAYER
  5
34
330
2
100
AcDbSymbolTableRecord
100
AcDbLayerTableRecord
  2
6
 70
     0
 62
     6
  6
Continuous
370
    -3
390
F
  0
LAYER
  5
35
330
2
100
AcDbSymbolTableRecord
100
AcDbLayerTableRecord
  2
7
 70
     0
 62
     7
  6
Continuous
370
    -3
390
F
  0
LAYER
  5
36
330
2
100
AcDbSymbolTableRecord
100
AcDbLayerTableRecord
  2
cen
 70
     0
 62
     7
  6
DASHDOT
370
    -3
390
F
  0
LAYER
  5
37
330
2
100
AcDbSymbolTableRecord
100
AcDbLayerTableRecord
  2
hid
 70
     0
 62
     7
  6
HIDDEN
370
    -3
390
F
  0
LAYER
  5
5D6
330
2
100
AcDbSymbolTableRecord
100
AcDbLayerTableRecord
  2
hatch
 70
     0
 62
     9
  6
Continuous
370
    -3
390
F
  0
LAYER
  5
8AF
330
2
100
AcDbSymbolTableRecord
100
AcDbLayerTableRecord
  2
9
 70
     0
 62
     9
  6
Continuous
370
    -3
390
F
  0
LAYER
  5
8F8
330
2
100
AcDbSymbolTableRecord
100
AcDbLayerTableRecord
  2
leg fin
 70
     0
 62
     9
  6
Continuous
370
    -3
390
F
  0
LAYER
  5
91D
330
2
100
AcDbSymbolTableRecord
100
AcDbLayerTableRecord
  2
cotas
 70
     0
 62
     1
  6
Continuous
370
    -3
390
F
  0
LAYER
  5
92F
330
2
100
AcDbSymbolTableRecord
100
AcDbLayerTableRecord
  2
Defpoints
 70
     0
 62
     7
  6
Continuous
290
     0
370
    -3
390
F
  0
LAYER
  5
C7B
330
2
100
AcDbSymbolTableRecord
100
AcDbLayerTableRecord
  2
SANINDUSA
 70
     0
 62
     3
  6
Continuous
370
    -3
390
F
  0
LAYER
  5
1060
330
2
100
AcDbSymbolTableRecord
100
AcDbLayerTableRecord
  2
hid1
 70
     0
 62
     9
  6
HIDDEN
370
    -3
390
F
1001
AcAecLayerStandard
1000

1000

  0
ENDTAB
  0
TABLE
  2
STYLE
  5
3
330
0
100
AcDbSymbolTable
 70
     4
  0
STYLE
  5
11
330
3
100
AcDbSymbolTableRecord
100
AcDbTextStyleTableRecord
  2
Standard
 70
     0
 40
0.0
 41
1.0
 50
0.0
 71
     0
 42
2.5
  3
Avgardn.ttf
  4

1001
ACAD
1000
AvantGarde Bk BT
1071
       34
  0
STYLE
  5
2C
330
3
100
AcDbSymbolTableRecord
100
AcDbTextStyleTableRecord
  2

 70
     1
 40
0.0
 41
1.0
 50
0.0
 71
     0
 42
2.5
  3
ltypeshp.shx
  4

  0
STYLE
  5
91F
330
3
100
AcDbSymbolTableRecord
100
AcDbTextStyleTableRecord
  2
SANINDUSA
 70
     0
 40
0.0
 41
1.0
 50
0.0
 71
     0
 42
2.5
  3
verdana.TTF
  4

1001
ACAD
1000
Verdana
1071
       34
  0
STYLE
  5
C7C
330
3
100
AcDbSymbolTableRecord
100
AcDbTextStyleTableRecord
  2
futura
 70
     0
 40
0.0
 41
1.0
 50
0.0
 71
     0
 42
2.5
  3
ZURCHN.TTF
  4

1001
ACAD
1000
Zurich BT
1071
       34
  0
ENDTAB
  0
TABLE
  2
VIEW
  5
6
330
0
100
AcDbSymbolTable
 70
     0
  0
ENDTAB
  0
TABLE
  2
UCS
  5
7
330
0
100
AcDbSymbolTable
 70
     0
  0
ENDTAB
  0
TABLE
  2
APPID
  5
9
330
0
100
AcDbSymbolTable
 70
    14
  0
APPID
  5
12
330
9
100
AcDbSymbolTableRecord
100
AcDbRegAppTableRecord
  2
ACAD
 70
     0
  0
APPID
  5
3A
330
9
100
AcDbSymbolTableRecord
100
AcDbRegAppTableRecord
  2
DCO15
 70
     0
  0
APPID
  5
EEE
330
9
100
AcDbSymbolTableRecord
100
AcDbRegAppTableRecord
  2
ACAD_DSTYLE_DIMTEXT_FILL
 70
     0
  0
APPID
  5
EEF
330
9
100
AcDbSymbolTableRecord
100
AcDbRegAppTableRecord
  2
ACAD_DSTYLE_DIMEXT_LENGTH
 70
     0
  0
APPID
  5
EF0
330
9
100
AcDbSymbolTableRecord
100
AcDbRegAppTableRecord
  2
ACAD_DSTYLE_DIMEXT_ENABLED
 70
     0
  0
APPID
  5
EF1
330
9
100
AcDbSymbolTableRecord
100
AcDbRegAppTableRecord
  2
ACAD_DSTYLE_DIM_LINETYPE
 70
     0
  0
APPID
  5
EF2
330
9
100
AcDbSymbolTableRecord
100
AcDbRegAppTableRecord
  2
ACAD_DSTYLE_DIM_EXT1_LINETYPE
 70
     0
  0
APPID
  5
EF3
330
9
100
AcDbSymbolTableRecord
100
AcDbRegAppTableRecord
  2
ACAD_DSTYLE_DIM_EXT2_LINETYPE
 70
     0
  0
APPID
  5
FAF
330
9
100
AcDbSymbolTableRecord
100
AcDbRegAppTableRecord
  2
ACAD_DSTYLE_DIMJOGGED_JOGANGLE_SYMBOL
 70
     0
  0
APPID
  5
1013
330
9
100
AcDbSymbolTableRecord
100
AcDbRegAppTableRecord
  2
ACAD_DSTYLE_DIMARC_LENGTH_SYMBOL
 70
     0
  0
APPID
  5
1061
330
9
100
AcDbSymbolTableRecord
100
AcDbRegAppTableRecord
  2
AcAecLayerStandard
 70
     0
  0
APPID
  5
10D6
330
9
100
AcDbSymbolTableRecord
100
AcDbRegAppTableRecord
  2
ACAD_DSTYLE_DIMJAG
 70
     0
  0
APPID
  5
10D7
330
9
100
AcDbSymbolTableRecord
100
AcDbRegAppTableRecord
  2
ACAD_DSTYLE_DIMTALN
 70
     0
  0
APPID
  5
17A6
330
9
100
AcDbSymbolTableRecord
100
AcDbRegAppTableRecord
  2
ACAD_EXEMPT_FROM_CAD_STANDARDS
 70
     0
  0
ENDTAB
  0
TABLE
  2
DIMSTYLE
  5
A
330
0
100
AcDbSymbolTable
 70
     4
100
AcDbDimStyleTable
 71
     1
340
921
  0
DIMSTYLE
105
45
330
A
100
AcDbSymbolTableRecord
100
AcDbDimStyleTableRecord
  2
STANDARD
 70
     0
289
     0
340
11
  0
DIMSTYLE
105
921
330
A
100
AcDbSymbolTableRecord
100
AcDbDimStyleTableRecord
  2
SANINDUSA
 70
     0
 41
2.0
 42
1.0
 43
1.0
 44
1.0
 73
     0
 74
     0
 77
     1
 78
     8
140
2.0
141
0.0
143
0.03937007874016
147
1.0
171
     3
172
     1
176
   256
177
   256
178
   256
179
     1
271
     1
272
     1
274
     3
278
    44
283
     0
284
     8
340
91F
371
    -1
372
    -1
1001
ACAD_DSTYLE_DIMEXT_LENGTH
1070
   378
1040
1.0
1001
ACAD_DSTYLE_DIMEXT_ENABLED
1070
   383
1070
     0
1001
ACAD_DSTYLE_DIMARC_LENGTH_SYMBOL
1070
   379
1070
     0
1001
ACAD_DSTYLE_DIMJOGGED_JOGANGLE_SYMBOL
1070
   384
1040
1.570796326794896
  0
DIMSTYLE
105
C7D
330
A
100
AcDbSymbolTableRecord
100
AcDbDimStyleTableRecord
  2
AM_ISO
 70
     0
  4
"
 41
2.5
 42
1.0
 43
10.0
 44
1.0
 47
0.1
 48
0.1
 73
     0
 74
     0
 77
     1
 78
     8
 79
     2
140
3.5
141
0.0
143
0.0393701
146
0.71
147
1.5
172
     1
176
   256
177
   256
178
     2
271
     2
272
     3
274
     4
283
     0
284
     8
340
11
371
    -1
372
    -1
  0
ENDTAB
  0
TABLE
  2
BLOCK_RECORD
  5
1
330
0
100
AcDbSymbolTable
 70
    24
  0
BLOCK_RECORD
  5
1F
330
1
100
AcDbSymbolTableRecord
100
AcDbBlockTableRecord
  2
*Model_Space
340
22
  0
BLOCK_RECORD
  5
1B
330
1
100
AcDbSymbolTableRecord
100
AcDbBlockTableRecord
  2
*Paper_Space
340
1E
  0
BLOCK_RECORD
  5
23
330
1
100
AcDbSymbolTableRecord
100
AcDbBlockTableRecord
  2
*Paper_Space0
340
26
  0
BLOCK_RECORD
  5
919
330
1
100
AcDbSymbolTableRecord
100
AcDbBlockTableRecord
  2
_DotSmall
340
0
  0
BLOCK_RECORD
  5
922
330
1
100
AcDbSymbolTableRecord
100
AcDbBlockTableRecord
  2
base para cotas
340
0
310
2800000020000000200000000100080000000000000400000000000000000000000000000000000000000000000080000080000000808000800000008000800080800000C0C0C000C0DCC000F0CAA6000020400000206000002080000020A0000020C0000020E00000400000004020000040400000406000004080000040A0
310
000040C0000040E00000600000006020000060400000606000006080000060A0000060C0000060E00000800000008020000080400000806000008080000080A0000080C0000080E00000A0000000A0200000A0400000A0600000A0800000A0A00000A0C00000A0E00000C0000000C0200000C0400000C0600000C0800000C0
310
A00000C0C00000C0E00000E0000000E0200000E0400000E0600000E0800000E0A00000E0C00000E0E00040000000400020004000400040006000400080004000A0004000C0004000E00040200000402020004020400040206000402080004020A0004020C0004020E000404000004040200040404000404060004040800040
310
40A0004040C0004040E00040600000406020004060400040606000406080004060A0004060C0004060E00040800000408020004080400040806000408080004080A0004080C0004080E00040A0000040A0200040A0400040A0600040A0800040A0A00040A0C00040A0E00040C0000040C0200040C0400040C0600040C08000
310
40C0A00040C0C00040C0E00040E0000040E0200040E0400040E0600040E0800040E0A00040E0C00040E0E00080000000800020008000400080006000800080008000A0008000C0008000E00080200000802020008020400080206000802080008020A0008020C0008020E00080400000804020008040400080406000804080
310
008040A0008040C0008040E00080600000806020008060400080606000806080008060A0008060C0008060E00080800000808020008080400080806000808080008080A0008080C0008080E00080A0000080A0200080A0400080A0600080A0800080A0A00080A0C00080A0E00080C0000080C0200080C0400080C0600080C0
310
800080C0A00080C0C00080C0E00080E0000080E0200080E0400080E0600080E0800080E0A00080E0C00080E0E000C0000000C0002000C0004000C0006000C0008000C000A000C000C000C000E000C0200000C0202000C0204000C0206000C0208000C020A000C020C000C020E000C0400000C0402000C0404000C0406000C0
310
408000C040A000C040C000C040E000C0600000C0602000C0604000C0606000C0608000C060A000C060C000C060E000C0800000C0802000C0804000C0806000C0808000C080A000C080C000C080E000C0A00000C0A02000C0A04000C0A06000C0A08000C0A0A000C0A0C000C0A0E000C0C00000C0C02000C0C04000C0C06000
310
C0C08000C0C0A000F0FBFF00A4A0A000808080000000FF0000FF000000FFFF00FF000000FF00FF00FFFF0000FFFFFF00A4A4A4A4A4A4A4A4A4A4A4A4A4A4A4A4A4A4A4A4A4A4A4A4A4A4A4A4A4A4A4A4A4A4A4A4A4A4A4A4A4A4A4A4A4A4A4A4A4A4A4A4A4A4A4A4A4A4A4A4A4A4A4A4A4A4A4A4A4A4A4A4A4A4A4A4A4A4A4
310
A4A4A4A4A4A4A4A4A4A4A4A4A4A4A4A4A4A4A4A4A4A4A4A4A4A4A4A4A4A4A4A4A4A4A4A4A4A4A4A4A4A4A4A4A4A4A4A4A4A4A4A4A4A4A4A4A4A4A4A4A4A4A4A4A4A4A4A4A4A4A4A4A4A4A4A4A4A4A4A4A4A4A4A4A4A4A4A4A4A4A4A4A4A4A4A4A4A4A4A4A4A4A4A4A4A4A4A4A4A4A4A4A4A4A4A4A4A4A4A4A4A4A4A4A4A4A4
310
A4A4A4A4A4A4A4A4A4A4A4A4A4A4A4A4A4A4A4A4A4A4A4A4A4A4A4A4A4A4A4A4A4A4A4A4A4A4A4A4A4A4A4A4A4A4A4A4A4A4A4A4A4A4A4A4A4A4A4A4A4A4A4A4A4A4A4A4A4A4A4A4A4A4A4A4A4A4A4A4A4A4A4A4A4A4A4A4A4A4A4A4A4A4A4A4A4A4A4A4A4A4A4A4A4A4A4A4A4A4A4A4A4A4A4A4A4A4A4A4A4A4A4A4A4A4A4
310
A4A4A4A4A4A4A4A4A4A4A4A4A4A4A4A4A4A4A4A4A4A4A4A4A4A4A4A4A4A4A4A4A4A4A4A4A4A4A4A4A4A4A4A4A4A4A4A4A4A4A4A4A4A4A4A4A4A4A4A4A4A4A4A4A4A4A4A4A4A4A4A4A4A4A4A4A4A4A4A4A4A4A4A4A4A4A4A4A4A4A4A4A4A4A4A4A4A4A4A4A4A4A4A4A4A4A4A4A4A4A4A4A4A4A4A4F9F9F9F9F9F9F9F9F9F9F9
310
F9F9F9F9F9F9F9F9F9F9F9F9F9F9F9F9F9F9F9A4A4F9F9F9F9F9F9F9F9F9F9F9F9F9F9F9F9F9F9F9F9F9F9F9F9F9F9F9F9F9F9A4A4F9F9F9F9F9F9F9F9F9F9F9F9F9F9F9F9F9F9F9F9F9F9F9F9F9F9F9F9F9F9A4A4F9A4A4A4A4A4A4A4A4A4A4A4A4A4A4A4A4A4A4A4A4A4A4A4A4A4A4A4A4F9A4A4A4A4A4A4A4A4A4A4A4A4
310
A4A4A4A4A4A4A4A4A4A4A4A4A4A4A4A4A4A4A4A4A4A4A4A4A4A4A4A4A4A4A4A4A4A4A4A4A4A4A4A4A4A4A4A4A4A4A4A4A4A4A4A4A4A4A4A4A4A4A4A4A4A4A4A4A4A4A4A4A4A4A4A4A4A4A4A4A4A4A4A4A4A4A4A4A4A4A4A4A4A4A4A4A4A4A4A4A4A4A4A4A4A4A4A4A4A4A4A4A4A4A4A4A4A4A4A4A4A4A4A4A4A4A4A4A4A4A4
310
A4A4A4A4A4A4A4A4A4A4A4A4A4A4A4A4A4A4A4A4A4A4A4A4A4A4A4A4A4A4A4A4A4A4A4A4A4A4A4A4A4A4A4A4A4A4A4A4A4A4A4A4A4A4A4A4A4A4A4A4A4A4A4A4A4A4A4A4A4A4A4A4A4A4A4A4A4A4A4A4A4A4A4A4A4A4A4A4A4A4A4A4A4A4A4A4A4A4A4A4A4A4A4A4A4A4A4A4A4A4A4A4A4A4A4A4A4A4A4A4A4A4A4A4A4A4A4
310
A4A4A4A4A4A4A4A4A4A4A4A4A4A4A4A4A4A4A4A4A4A4A4A4A4A4A4A4A4A4A4A4A4A4A4A4A4A4A4A4A4A4A4A4A4A4A4A4A4A4A4A4A4A4A4A4A4A4A4A4A4A4A4A4A4A4A4A4A4A4A4A4A4A4A4A4A4A4A4A4A4A4A4A4A4A4A4A4A4A4A4A4A4A4A4A4A4A4A4A4A4A4A4A4A4A4A4A4A4A4A4A4A4A4A4A4A4A4A4A4A4A4A4A4A4A4A4
310
A4A4A4A4A4A4A4A4A4A4A4A4A4A4A4A4A4A4A4A4A4A4A4A4A4A4A4A4A4A4A4A4A4A4A4A4A4A4A4A4A4A4A4A4A4A4A4A4A4A4A4A4A4A4A4A4
1001
ACAD
1000
DesignCenter Data
1002
{
1070
     1
1070
     4
1002
}
  0
BLOCK_RECORD
  5
AA8
330
1
100
AcDbSymbolTableRecord
100
AcDbBlockTableRecord
  2
_CLOSED
340
0
  0
BLOCK_RECORD
  5
B79
330
1
100
AcDbSymbolTableRecord
100
AcDbBlockTableRecord
  2
nota revisoes
340
0
1001
ACAD
1000
DesignCenter Data
1002
{
1070
     1
1070
     4
1002
}
  0
BLOCK_RECORD
  5
B8E
330
1
100
AcDbSymbolTableRecord
100
AcDbBlockTableRecord
  2
a3l
340
0
1001
ACAD
1000
DesignCenter Data
1002
{
1070
     1
1070
     4
1002
}
  0
BLOCK_RECORD
  5
B9E
330
1
100
AcDbSymbolTableRecord
100
AcDbBlockTableRecord
  2
legenda desenvolvimento
340
0
1001
ACAD
1000
DesignCenter Data
1002
{
1070
     1
1070
     4
1002
}
  0
ENDTAB
  0
ENDSEC
  0
SECTION
  2
BLOCKS
  0
BLOCK
  5
20
330
1F
100
AcDbEntity
  8
0
100
AcDbBlockBegin
  2
*Model_Space
 70
     0
 10
0.0
 20
0.0
 30
0.0
  3
*Model_Space
  1

  0
ENDBLK
  5
21
330
1F
100
AcDbEntity
  8
0
100
AcDbBlockEnd
  0
BLOCK
  5
1C
330
1B
100
AcDbEntity
 67
     1
  8
0
100
AcDbBlockBegin
  2
*Paper_Space
 70
     0
 10
0.0
 20
0.0
 30
0.0
  3
*Paper_Space
  1

  0
ENDBLK
  5
1D
330
1B
100
AcDbEntity
 67
     1
  8
0
100
AcDbBlockEnd
  0
BLOCK
  5
24
330
23
100
AcDbEntity
 67
     1
  8
0
100
AcDbBlockBegin
  2
*Paper_Space0
 70
     0
 10
0.0
 20
0.0
 30
0.0
  3
*Paper_Space0
  1

  0
ENDBLK
  5
25
330
23
100
AcDbEntity
 67
     1
  8
0
100
AcDbBlockEnd
  0
BLOCK
  5
91B
330
919
100
AcDbEntity
  8
0
100
AcDbBlockBegin
  2
_DotSmall
 70
     0
 10
0.0
 20
0.0
 30
0.0
  3
_DotSmall
  1

  0
LWPOLYLINE
  5
91A
330
919
100
AcDbEntity
  8
0
  6
ByBlock
 62
     0
100
AcDbPolyline
 90
        2
 70
     1
 43
0.5
 10
-0.0625
 20
0.0
 42
1.0
 10
0.0625
 20
0.0
 42
1.0
  0
ENDBLK
  5
91C
330
919
100
AcDbEntity
  8
0
100
AcDbBlockEnd
  0
BLOCK
  5
92A
330
922
100
AcDbEntity
  8
0
100
AcDbBlockBegin
  2
base para cotas
 70
     0
 10
0.0
 20
0.0
 30
0.0
  3
base para cotas
  1

  0
LINE
  5
B36
330
922
100
AcDbEntity
  8
cotas
100
AcDbLine
 10
0.0
 20
-30.0
 30
0.0
 11
327.1260136525398
 21
-30.0
 31
0.0
  0
LINE
  5
B37
330
922
100
AcDbEntity
  8
cotas
100
AcDbLine
 10
0.0
 20
-25.0
 30
0.0
 11
327.1260136525398
 21
-25.0
 31
0.0
  0
LINE
  5
B38
330
922
100
AcDbEntity
  8
cotas
100
AcDbLine
 10
0.0
 20
-20.0
 30
0.0
 11
327.1260136525398
 21
-20.0
 31
0.0
  0
LINE
  5
B39
330
922
100
AcDbEntity
  8
cotas
100
AcDbLine
 10
0.0
 20
-15.0
 30
0.0
 11
327.1260136525398
 21
-15.0
 31
0.0
  0
LINE
  5
B3A
330
922
100
AcDbEntity
  8
cotas
100
AcDbLine
 10
0.0
 20
-10.0
 30
0.0
 11
327.1260136525398
 21
-10.0
 31
0.0
  0
LINE
  5
B3B
330
922
100
AcDbEntity
  8
cotas
100
AcDbLine
 10
0.0
 20
0.0
 30
0.0
 11
0.0
 21
-30.0
 31
0.0
  0
LINE
  5
B3C
330
922
100
AcDbEntity
  8
cotas
100
AcDbLine
 10
327.1260136525398
 20
-30.0
 30
0.0
 11
327.1260136525398
 21
0.0
 31
0.0
  0
ENDBLK
  5
92B
330
922
100
AcDbEntity
  8
0
100
AcDbBlockEnd
  0
BLOCK
  5
AAD
330
AA8
100
AcDbEntity
  8
0
100
AcDbBlockBegin
  2
_CLOSED
 70
     0
 10
0.0
 20
0.0
 30
0.0
  3
_CLOSED
  1

  0
LINE
  5
AA9
330
AA8
100
AcDbEntity
  8
0
100
AcDbLine
 10
-1.0
 20
0.166667
 30
0.0
 11
0.0
 21
0.0
 31
0.0
  0
LINE
  5
AAA
330
AA8
100
AcDbEntity
  8
0
100
AcDbLine
 10
0.0
 20
0.0
 30
0.0
 11
-1.0
 21
-0.166667
 31
0.0
  0
LINE
  5
AAB
330
AA8
100
AcDbEntity
  8
0
100
AcDbLine
 10
-1.0
 20
0.166667
 30
0.0
 11
-1.0
 21
-0.166667
 31
0.0
  0
LINE
  5
AAC
330
AA8
100
AcDbEntity
  8
0
100
AcDbLine
 10
0.0
 20
0.0
 30
0.0
 11
-1.0
 21
0.0
 31
0.0
  0
ENDBLK
  5
AAE
330
AA8
100
AcDbEntity
  8
0
100
AcDbBlockEnd
  0
BLOCK
  5
B7C
330
B79
100
AcDbEntity
  8
0
100
AcDbBlockBegin
  2
nota revisoes
 70
     0
 10
0.0
 20
0.0
 30
0.0
  3
nota revisoes
  1

  0
CIRCLE
  5
B7A
330
B79
100
AcDbEntity
  8
4
100
AcDbCircle
 10
0.0
 20
0.0
 30
0.0
 40
13.69426055101189
  0
TEXT
  5
B7B
330
B79
100
AcDbEntity
  8
4
100
AcDbText
 10
-5.496248358154345
 20
-5.354545554066362
 30
0.0
 40
12.0
  1
1
  7
SANINDUSA
 72
     1
 11
-0.249774214433728
 21
-5.354545554066362
 31
0.0
100
AcDbText
  0
ENDBLK
  5
B7D
330
B79
100
AcDbEntity
  8
0
100
AcDbBlockEnd
  0
BLOCK
  5
B9C
330
B8E
100
AcDbEntity
  8
0
100
AcDbBlockBegin
  2
a3l
 70
     0
 10
0.0
 20
0.0
 30
0.0
  3
a3l
  1

  0
LINE
  5
B8F
330
B8E
100
AcDbEntity
  8
1
100
AcDbLine
 10
-364.2925296599447
 20
-362.1188951399395
 30
0.0
 11
-364.2925296599447
 21
-65.11889513993946
 31
0.0
  0
LINE
  5
B90
330
B8E
100
AcDbEntity
  8
4
100
AcDbLine
 10
-369.2925296599447
 20
-357.1188951399395
 30
0.0
 11
-369.2925296599447
 21
-70.11889513993946
 31
0.0
  0
LINE
  5
B91
330
B8E
100
AcDbEntity
  8
1
100
AcDbLine
 10
-784.2925296599446
 20
-65.11889513993946
 30
0.0
 11
-784.2925296599446
 21
-362.1188951399395
 31
0.0
  0
LINE
  5
B92
330
B8E
100
AcDbEntity
  8
4
100
AcDbLine
 10
-759.2925296599446
 20
-357.1188951399395
 30
0.0
 11
-759.2925296599446
 21
-70.11889513993946
 31
0.0
  0
LINE
  5
B93
330
B8E
100
AcDbEntity
  8
1
100
AcDbLine
 10
-784.2925296599446
 20
-362.1188951399395
 30
0.0
 11
-364.2925296599447
 21
-362.1188951399395
 31
0.0
  0
LINE
  5
B94
330
B8E
100
AcDbEntity
  8
4
100
AcDbLine
 10
-759.2925296599446
 20
-357.1188951399395
 30
0.0
 11
-369.2925296599447
 21
-357.1188951399395
 31
0.0
  0
LINE
  5
B95
330
B8E
100
AcDbEntity
  8
1
100
AcDbLine
 10
-654.2925296599446
 20
-357.1188951399395
 30
0.0
 11
-654.2925296599446
 21
-362.1188951399395
 31
0.0
  0
LINE
  5
B96
330
B8E
100
AcDbEntity
  8
1
100
AcDbLine
 10
-364.2925296599447
 20
-65.11889513993946
 30
0.0
 11
-784.2925296599446
 21
-65.11889513993946
 31
0.0
  0
LINE
  5
B97
330
B8E
100
AcDbEntity
  8
4
100
AcDbLine
 10
-369.2925296599447
 20
-70.11889513993946
 30
0.0
 11
-759.2925296599446
 21
-70.11889513993946
 31
0.0
  0
LINE
  5
B98
330
B8E
100
AcDbEntity
  8
1
100
AcDbLine
 10
-654.2925296599446
 20
-65.11889513993946
 30
0.0
 11
-654.2925296599446
 21
-70.11889513993946
 31
0.0
  0
LINE
  5
B99
330
B8E
100
AcDbEntity
  8
1
100
AcDbLine
 10
-549.2925296599446
 20
-70.11889513993946
 30
0.0
 11
-549.2925296599446
 21
-65.11889513993946
 31
0.0
  0
LINE
  5
B9A
330
B8E
100
AcDbEntity
  8
1
100
AcDbLine
 10
-369.2925296599447
 20
-65.11889513993946
 30
0.0
 11
-364.2925296599447
 21
-65.11889513993946
 31
0.0
  0
LINE
  5
B9B
330
B8E
100
AcDbEntity
  8
1
100
AcDbLine
 10
-549.2925296599446
 20
-357.1188951399395
 30
0.0
 11
-549.2925296599446
 21
-362.1188951399395
 31
0.0
  0
ENDBLK
  5
B9D
330
B8E
100
AcDbEntity
  8
0
100
AcDbBlockEnd
  0
BLOCK
  5
C13
330
B9E
100
AcDbEntity
  8
0
100
AcDbBlockBegin
  2
legenda desenvolvimento
 70
     2
 10
0.0
 20
0.0
 30
0.0
  3
legenda desenvolvimento
  1

  0
ATTDEF
  5
B9F
330
B9E
100
AcDbEntity
  8
1
100
AcDbText
 10
-108.606245802552
 20
55.5
 30
0.0
 40
4.0
  1
XXXXXXXXXXXXXX
 41
0.8
  7
SANINDUSA
 72
     4
 11
-87.5
 21
57.5
 31
0.0
100
AcDbAttributeDefinition
  3
Nome do Produto:
  2
PRODUTO
 70
     0
  0
ATTDEF
  5
BA0
330
B9E
100
AcDbEntity
  8
1
100
AcDbText
 10
-97.9997966101695
 20
41.25
 30
0.0
 40
3.0
  1
XXXXXXXXX
 41
0.8
  7
futura
 72
     4
 11
-87.5
 21
42.75
 31
0.0
100
AcDbAttributeDefinition
  3
Nome da Peça:
  2
PECA
 70
     0
  0
ATTDEF
  5
BA1
330
B9E
100
AcDbEntity
  8
1
100
AcDbText
 10
-133.4422431161853
 20
21.11745296763252
 30
0.0
 40
2.5
  1
X
 41
0.8
  7
SANINDUSA
 72
     4
 11
-132.5
 21
22.36745296763252
 31
0.0
100
AcDbAttributeDefinition
  3
Cod. TESTE:
  2
TESTE
 70
     0
  0
ATTDEF
  5
BA2
330
B9E
100
AcDbEntity
  8
1
100
AcDbText
 10
-124.3844862323707
 20
21.11745296763252
 30
0.0
 40
2.5
  1
XX
 41
0.8
  7
SANINDUSA
 72
     4
 11
-122.5
 21
22.36745296763252
 31
0.0
100
AcDbAttributeDefinition
  3
Cod. Ano:
  2
ANO
 70
     0
  0
ATTDEF
  5
BA3
330
B9E
100
AcDbEntity
  8
1
100
AcDbText
 10
-112.526889953052
 20
21.11745296763252
 30
0.0
 40
2.5
  1
XXX
 41
0.8
  7
SANINDUSA
 72
     4
 11
-109.700160604496
 21
22.36745296763252
 31
0.0
100
AcDbAttributeDefinition
  3
Cod. Sequência:
  2
SEQUENCIA
 70
     0
  0
ATTDEF
  5
BA4
330
B9E
100
AcDbEntity
  8
1
100
AcDbText
 10
-99.35382430979316
 20
21.11745296763252
 30
0.0
 40
2.5
  1
XX
 41
0.8
  7
SANINDUSA
 72
     4
 11
-97.46933807742244
 21
22.36745296763252
 31
0.0
100
AcDbAttributeDefinition
  3
Cod. Tipo:
  2
TIPO
 70
     0
  0
ATTDEF
  5
BA5
330
B9E
100
AcDbEntity
  8
1
100
AcDbText
 10
-87.42035911468438
 20
21.11745296763252
 30
0.0
 40
2.5
  1
XXX
 41
0.8
  7
SANINDUSA
 72
     4
 11
-84.59362976612828
 21
22.36745296763252
 31
0.0
100
AcDbAttributeDefinition
  3
Cod. Produto:
  2
PRODUTO
 70
     0
  0
ATTDEF
  5
BA6
330
B9E
100
AcDbEntity
  8
1
100
AcDbText
 10
-74.62051971917853
 20
21.11745296763252
 30
0.0
 40
2.5
  1
XXX
 41
0.8
  7
SANINDUSA
 72
     4
 11
-71.79379037062244
 21
22.36745296763252
 31
0.0
100
AcDbAttributeDefinition
  3
Cod. Peça:
  2
PECA
 70
     0
  0
ATTDEF
  5
BA7
330
B9E
100
AcDbEntity
  8
1
100
AcDbText
 10
-61.10603446650329
 20
21.11745296763252
 30
0.0
 40
2.5
  1
XX
 41
0.8
  7
SANINDUSA
 72
     4
 11
-59.22154823413257
 21
22.36745296763252
 31
0.0
100
AcDbAttributeDefinition
  3
Cod. Revisão:
  2
REV
 70
     0
  0
ATTDEF
  5
BA8
330
B9E
100
AcDbEntity
  8
1
100
AcDbText
 10
-48.43615325006194
 20
21.11745296763252
 30
0.0
 40
2.5
  1
XX
 41
0.8
  7
SANINDUSA
 72
     4
 11
-46.55166701769121
 21
22.36745296763252
 31
0.0
100
AcDbAttributeDefinition
  3
Cod. Alteração:
  2
ALT
 70
     0
  0
ATTDEF
  5
BA9
330
B9E
100
AcDbEntity
  8
1
100
AcDbText
 10
-35.19086635325722
 20
23.98875083948959
 30
0.0
 40
3.0
  1
1/XXX
 41
0.8
  7
SANINDUSA
 72
     4
 11
-30.0
 21
25.25
 31
0.0
100
AcDbAttributeDefinition
  3
Escala geral:
  2
ESCALA
 70
     0
  0
ATTDEF
  5
BAA
330
B9E
100
AcDbEntity
  8
1
100
AcDbText
 10
-15.65345869711215
 20
23.75
 30
0.0
 40
3.0
  1
XXXXX
 41
0.8
  7
SANINDUSA
 72
     4
 11
-10.0
 21
25.25
 31
0.0
100
AcDbAttributeDefinition
  3
Folha:
  2
FOLHA
 70
     0
  0
ATTDEF
  5
BAB
330
B9E
100
AcDbEntity
  8
1
100
AcDbText
 10
-178.5146998822042
 20
56.9531347542807
 30
0.0
 40
2.0
  1
xx
 41
0.8
  7
SANINDUSA
 72
     4
 11
-177.2123493113513
 21
57.70330265219877
 31
0.0
100
AcDbAttributeDefinition
  3
revisão
  2
REV.
 70
     0
  0
ATTDEF
  5
BAC
330
B9E
100
AcDbEntity
  8
1
100
AcDbText
 10
-172.7849640077129
 20
56.9531347542807
 30
0.0
 40
2.0
  1
xx
 41
0.8
  7
SANINDUSA
 72
     4
 11
-171.48261343686
 21
57.70330265219877
 31
0.0
100
AcDbAttributeDefinition
  3
alteração
  2
ALT.
 70
     0
  0
ATTDEF
  5
BAD
330
B9E
100
AcDbEntity
  8
1
100
AcDbText
 10
-168.007199951307
 20
56.70330265219877
 30
0.0
 40
2.0
  1
xx/xx/xxxx
 41
0.8
  7
SANINDUSA
 11
-168.007199951307
 21
57.70330265219877
 31
0.0
100
AcDbAttributeDefinition
  3
data
  2
DATA
 70
     0
 74
     2
  0
ATTDEF
  5
BAE
330
B9E
100
AcDbEntity
  8
1
100
AcDbText
 10
-168.5396372253371
 20
13.15916722632639
 30
0.0
 40
2.0
  1
XX/XX/XXXX
 41
0.8
  7
SANINDUSA
 72
     4
 11
-161.5099528734231
 21
14.0
 31
0.0
100
AcDbAttributeDefinition
  3
Data projecto
  2
DATA_PROJ
 70
     0
  0
ATTDEF
  5
BAF
330
B9E
100
AcDbEntity
  8
1
100
AcDbText
 10
-150.8658110728766
 20
13.24983210208193
 30
0.0
 40
2.0
  1
xxxxxxxx
 41
0.8
  7
SANINDUSA
 72
     4
 11
-145.6564087894649
 21
14.0
 31
0.0
100
AcDbAttributeDefinition
  3
nome de quem projectou
  2
NOME
 70
     0
  0
ATTDEF
  5
BB0
330
B9E
100
AcDbEntity
  8
1
100
AcDbText
 10
-168.5396372253371
 20
9.159167226326394
 30
0.0
 40
2.0
  1
XX/XX/XXXX
 41
0.8
  7
SANINDUSA
 72
     4
 11
-161.5099528734231
 21
10.0
 31
0.0
100
AcDbAttributeDefinition
  3
Data desenhou
  2
DATA_DES
 70
     0
  0
ATTDEF
  5
BB1
330
B9E
100
AcDbEntity
  8
1
100
AcDbText
 10
-151.516986358303
 20
9.249832102081933
 30
0.0
 40
2.0
  1
xxxxxxxxx
 41
0.8
  7
SANINDUSA
 72
     4
 11
-145.6564087894649
 21
10.0
 31
0.0
100
AcDbAttributeDefinition
  3
nome
  2
NOME
 70
     0
  0
ATTDEF
  5
BB2
330
B9E
100
AcDbEntity
  8
1
100
AcDbText
 10
-127.2924214135946
 20
14.1979876583216
 30
0.0
 40
2.0
  1
Vitreous China
 41
0.8
  7
SANINDUSA
 72
     4
 11
-119.231709526422
 21
15.22216495852308
 31
0.0
100
AcDbAttributeDefinition
  3
Nome do Material:
  2
MATERIAL
 70
     0
  0
ATTDEF
  5
BB3
330
B9E
100
AcDbEntity
  8
1
100
AcDbText
 10
-103.1563452122093
 20
14.38019043949261
 30
0.0
 40
2.0
  1
Branco
 41
0.8
  7
SANINDUSA
 72
     4
 11
-99.33418268702462
 21
15.35937109765245
 31
0.0
100
AcDbAttributeDefinition
  3
cor da peça
  2
COR
 70
     0
  0
ATTDEF
  5
BB4
330
B9E
100
AcDbEntity
  8
1
100
AcDbText
 10
-116.7235057085292
 20
5.975822699798522
 30
0.0
 40
2.0
  1
Vidrado
 41
0.8
  7
SANINDUSA
 72
     4
 11
-112.5
 21
7.0
 31
0.0
100
AcDbAttributeDefinition
  3
Tipo de acabamento:
  2
ACABAMENTO
 70
     0
  0
ATTDEF
  5
BB5
330
B9E
100
AcDbEntity
  8
1
100
AcDbText
 10
-79.18527869967246
 20
16.65066409850533
 30
0.0
 40
2.0
  1
XXXXXXX
 41
0.8
  7
SANINDUSA
 72
     4
 11
-73.90871724903445
 21
17.65066409850533
 31
0.0
100
AcDbAttributeDefinition
  3
Normas
  2
NORMAS
 70
     0
  0
ATTDEF
  5
BB6
330
B9E
100
AcDbEntity
  8
1
100
AcDbText
 10
-30.55312290127603
 20
14.0
 30
0.0
 40
2.0
  1
XXXXXXXXXXXXXX
 41
0.8
  7
SANINDUSA
 72
     4
 11
-20.0
 21
15.0
 31
0.0
100
AcDbAttributeDefinition
  3
Substitui o desenho:
  2
SUBSTITUI
 70
     0
  0
ATTDEF
  5
BB7
330
B9E
100
AcDbEntity
  8
1
100
AcDbText
 10
-31.30691739422431
 20
6.0
 30
0.0
 40
2.0
  1
XXXXXXXXXXXXXXX
 41
0.8
  7
SANINDUSA
 72
     4
 11
-20.0
 21
7.0
 31
0.0
100
AcDbAttributeDefinition
  3
Substituido por:
  2
SUBSTITUIDO
 70
     0
  0
ATTDEF
  5
BB8
330
B9E
100
AcDbEntity
  8
1
100
AcDbText
 10
-110.0220608548302
 20
1.478208457928303
 30
0.0
 40
2.0
  1
XXXXXXXXXXXXXXXXXXXXXXXXXXXXXXXXXX
 41
0.8
  7
SANINDUSA
 11
-110.0220608548302
 21
2.478208457928303
 31
0.0
100
AcDbAttributeDefinition
  3
Localização do desenho:
  2
LOC-DWG
 70
     0
 74
     2
  0
LINE
  5
BB9
330
B9E
100
AcDbEntity
  8
3
100
AcDbLine
 10
-135.0
 20
4.0
 30
0.0
 11
0.0000000000004547
 21
4.0
 31
0.0
  0
LINE
  5
BBA
330
B9E
100
AcDbEntity
  8
3
100
AcDbLine
 10
-90.00000000000046
 20
12.0
 30
0.0
 11
-135.0
 21
12.0
 31
0.0
  0
LINE
  5
BBB
330
B9E
100
AcDbEntity
  8
3
100
AcDbLine
 10
-135.0
 20
32.5
 30
0.0
 11
-40.0
 21
32.5
 31
0.0
  0
TEXT
  5
BBC
330
B9E
100
AcDbEntity
  8
1
100
AcDbText
 10
-134.0
 20
1.25
 30
0.0
 40
2.0
  1
Localização do des.:
 41
0.8
  7
SANINDUSA
 11
-134.0
 21
2.25
 31
0.0
100
AcDbText
 73
     2
  0
LINE
  5
BBD
330
B9E
100
AcDbEntity
  8
3
100
AcDbLine
 10
-180.0
 20
65.0
 30
0.0
 11
0.0
 21
65.0
 31
0.0
  0
LINE
  5
BBE
330
B9E
100
AcDbEntity
  8
leg fin
100
AcDbLine
 10
-40.0
 20
25.05956924886846
 30
0.0
 11
-135.0
 21
25.05956924886846
 31
0.0
  0
LINE
  5
BBF
330
B9E
100
AcDbEntity
  8
leg fin
100
AcDbLine
 10
-40.0
 20
28.5
 30
0.0
 11
-135.0
 21
28.5
 31
0.0
  0
LINE
  5
BC0
330
B9E
100
AcDbEntity
  8
3
100
AcDbLine
 10
-135.0
 20
50.0
 30
0.0
 11
-40.0
 21
50.0
 31
0.0
  0
TEXT
  5
BC1
330
B9E
100
AcDbEntity
  8
1
100
AcDbText
 10
-134.0
 20
29.75
 30
0.0
 40
2.0
  1
Desenho nº:
 41
0.8
  7
SANINDUSA
 11
-134.0
 21
30.75
 31
0.0
100
AcDbText
 73
     2
  0
TEXT
  5
BC2
330
B9E
100
AcDbEntity
  8
1
100
AcDbText
 10
-134.0
 20
9.25
 30
0.0
 40
2.0
  1
Acabamento:
 41
0.8
  7
SANINDUSA
 11
-134.0
 21
10.25
 31
0.0
100
AcDbText
 73
     2
  0
LINE
  5
BC3
330
B9E
100
AcDbEntity
  8
3
100
AcDbLine
 10
-180.0
 20
20.0
 30
0.0
 11
0.0
 21
20.0
 31
0.0
  0
LINE
  5
BC4
330
B9E
100
AcDbEntity
  8
1
100
AcDbLine
 10
-174.5810776056337
 20
55.5
 30
0.0
 11
-174.5810776056337
 21
65.0
 31
0.0
  0
LINE
  5
BC5
330
B9E
100
AcDbEntity
  8
1
100
AcDbLine
 10
-168.9210461879161
 20
55.5
 30
0.0
 11
-168.9210461879161
 21
65.0
 31
0.0
  0
LINE
  5
BC6
330
B9E
100
AcDbEntity
  8
1
100
AcDbLine
 10
-154.0988595589306
 20
55.5
 30
0.0
 11
-154.0988595589306
 21
65.0
 31
0.0
  0
LINE
  5
BC7
330
B9E
100
AcDbEntity
  8
3
100
AcDbLine
 10
-180.0
 20
65.0
 30
0.0
 11
-180.0
 21
0.0
 31
0.0
  0
LINE
  5
BC8
330
B9E
100
AcDbEntity
  8
3
100
AcDbLine
 10
-135.0
 20
0.0
 30
0.0
 11
-135.0
 21
65.0
 31
0.0
  0
TEXT
  5
BC9
330
B9E
100
AcDbEntity
  8
1
100
AcDbText
 10
-179.0
 20
9.75
 30
0.0
 40
1.5
  1
Des.
 41
0.8
  7
SANINDUSA
 11
-179.0
 21
10.5
 31
0.0
100
AcDbText
 73
     2
  0
LINE
  5
BCA
330
B9E
100
AcDbEntity
  8
1
100
AcDbLine
 10
-168.9210461879161
 20
20.0
 30
0.0
 11
-168.9210461879161
 21
0.0
 31
0.0
  0
LINE
  5
BCB
330
B9E
100
AcDbEntity
  8
1
100
AcDbLine
 10
-154.0988595589306
 20
20.0
 30
0.0
 11
-154.0988595589306
 21
0.0
 31
0.0
  0
LINE
  5
BCC
330
B9E
100
AcDbEntity
  8
1
100
AcDbLine
 10
-180.0
 20
4.0
 30
0.0
 11
-135.0
 21
4.0
 31
0.0
  0
LINE
  5
BCD
330
B9E
100
AcDbEntity
  8
1
100
AcDbLine
 10
-180.0
 20
8.0
 30
0.0
 11
-135.0
 21
8.0
 31
0.0
  0
TEXT
  5
BCE
330
B9E
100
AcDbEntity
  8
1
100
AcDbText
 10
-179.0
 20
1.73257823687436
 30
0.0
 40
1.5
  1
Aprov.
 41
0.8
  7
SANINDUSA
 11
-179.0
 21
2.48257823687436
 31
0.0
100
AcDbText
 73
     2
  0
TEXT
  5
BCF
330
B9E
100
AcDbEntity
  8
1
100
AcDbText
 10
-179.0
 20
5.75
 30
0.0
 40
1.5
  1
Ver.
 41
0.8
  7
SANINDUSA
 11
-179.0
 21
6.5
 31
0.0
100
AcDbText
 73
     2
  0
LINE
  5
BD0
330
B9E
100
AcDbEntity
  8
1
100
AcDbLine
 10
-180.0
 20
16.0
 30
0.0
 11
-135.0
 21
16.0
 31
0.0
  0
LINE
  5
BD1
330
B9E
100
AcDbEntity
  8
1
100
AcDbLine
 10
-180.0
 20
12.0
 30
0.0
 11
-135.0
 21
12.0
 31
0.0
  0
TEXT
  5
BD2
330
B9E
100
AcDbEntity
  8
1
100
AcDbText
 10
-179.0
 20
13.75
 30
0.0
 40
1.5
  1
Proj.
 41
0.8
  7
SANINDUSA
 11
-179.0
 21
14.5
 31
0.0
100
AcDbText
 73
     2
  0
TEXT
  5
BD3
330
B9E
100
AcDbEntity
  8
1
100
AcDbText
 10
-167.9210461879161
 20
17.75
 30
0.0
 40
1.5
  1
Data
 41
0.8
  7
SANINDUSA
 11
-167.9210461879161
 21
18.5
 31
0.0
100
AcDbText
 73
     2
  0
TEXT
  5
BD4
330
B9E
100
AcDbEntity
  8
1
100
AcDbText
 10
-153.0988595589306
 20
17.75
 30
0.0
 40
1.5
  1
Nome
 41
0.8
  7
SANINDUSA
 11
-153.0988595589306
 21
18.5
 31
0.0
100
AcDbText
 73
     2
  0
LINE
  5
BD5
330
B9E
100
AcDbEntity
  8
leg fin
100
AcDbLine
 10
-130.0
 20
20.0
 30
0.0
 11
-130.0
 21
28.5
 31
0.0
  0
TEXT
  5
BD6
330
B9E
100
AcDbEntity
  8
1
100
AcDbText
 10
-134.0
 20
17.25
 30
0.0
 40
2.0
  1
Material:
 41
0.8
  7
SANINDUSA
 11
-134.0
 21
18.25
 31
0.0
100
AcDbText
 73
     2
  0
TEXT
  5
BD7
330
B9E
100
AcDbEntity
  8
1
100
AcDbText
 10
-129.0
 20
26.43288406845113
 30
0.0
 40
1.5
  1
Ano:
 41
0.8
  7
SANINDUSA
 11
-129.0
 21
27.18288406845113
 31
0.0
100
AcDbText
 73
     2
  0
LINE
  5
BD8
330
B9E
100
AcDbEntity
  8
1
100
AcDbLine
 10
-180.0
 20
55.5
 30
0.0
 11
-135.0
 21
55.5
 31
0.0
  0
TEXT
  5
BD9
330
B9E
100
AcDbEntity
  8
1
100
AcDbText
 10
-179.0
 20
52.67772246885193
 30
0.0
 40
1.5
  1
descrição
 41
0.8
  7
SANINDUSA
 11
-179.0
 21
53.42772246885193
 31
0.0
100
AcDbText
 73
     2
  0
TEXT
  5
BDA
330
B9E
100
AcDbEntity
  8
1
100
AcDbText
 10
-134.0
 20
47.25
 30
0.0
 40
2.0
  1
Peça:
 41
0.8
  7
SANINDUSA
 11
-134.0
 21
48.25
 31
0.0
100
AcDbText
 73
     2
  0
LINE
  5
BDB
330
B9E
100
AcDbEntity
  8
1
100
AcDbLine
 10
-180.0
 20
59.5
 30
0.0
 11
-135.0
 21
59.5
 31
0.0
  0
TEXT
  5
BDC
330
B9E
100
AcDbEntity
  8
1
100
AcDbText
 10
-173.5810776056337
 20
62.75
 30
0.0
 40
1.5
  1
Alt.
 41
0.8
  7
SANINDUSA
 11
-173.5810776056337
 21
63.5
 31
0.0
100
AcDbText
 73
     2
  0
TEXT
  5
BDD
330
B9E
100
AcDbEntity
  8
1
100
AcDbText
 10
-179.0
 20
62.75
 30
0.0
 40
1.5
  1
Rev.
 41
0.8
  7
SANINDUSA
 11
-179.0
 21
63.5
 31
0.0
100
AcDbText
 73
     2
  0
TEXT
  5
BDE
330
B9E
100
AcDbEntity
  8
1
100
AcDbText
 10
-167.9210461879161
 20
62.75
 30
0.0
 40
1.5
  1
Data
 41
0.8
  7
SANINDUSA
 11
-167.9210461879161
 21
63.5
 31
0.0
100
AcDbText
 73
     2
  0
TEXT
  5
BDF
330
B9E
100
AcDbEntity
  8
1
100
AcDbText
 10
-153.0988595589306
 20
62.75
 30
0.0
 40
1.5
  1
Nome
 41
0.8
  7
SANINDUSA
 11
-153.0988595589306
 21
63.5
 31
0.0
100
AcDbText
 73
     2
  0
TEXT
  5
BE0
330
B9E
100
AcDbEntity
  8
1
100
AcDbText
 10
-134.0
 20
62.25
 30
0.0
 40
2.0
  1
Produto:
 41
0.8
  7
SANINDUSA
 11
-134.0
 21
63.25
 31
0.0
100
AcDbText
 73
     2
  0
LINE
  5
BE1
330
B9E
100
AcDbEntity
  8
3
100
AcDbLine
 10
-40.0
 20
4.0
 30
0.0
 11
-40.0
 21
65.0
 31
0.0
  0
LWPOLYLINE
  5
BE2
102
{ACAD_REACTORS
330
BEC
102
}
330
B9E
100
AcDbEntity
  8
9
100
AcDbPolyline
 90
       12
 70
     1
 43
0.0
 10
-3.038714600644652
 20
58.90010174665076
 10
-5.726962862472191
 20
58.90010174665076
 10
-5.726962862472191
 20
58.5001017466509
 10
-3.038748516195028
 20
58.5001017466509
 42
-0.4142135623731731
 10
-2.638748516194482
 20
58.1001017466508
 10
-2.638748516194482
 20
57.42799728675596
 10
-5.21497371544865
 20
57.42799728675596
 42
0.4142135623731289
 10
-6.014973715448377
 20
56.627997286756
 10
-6.014973715448377
 20
55.92380871629643
 42
0.4142135623731132
 10
-5.21497371544865
 20
55.12380871629648
 10
-2.23871460064447
 20
55.12380871629648
 10
-2.23871460064447
 20
58.10010174665103
 42
0.4142135623730717
  0
LWPOLYLINE
  5
BE3
102
{ACAD_REACTORS
330
BEC
102
}
330
B9E
100
AcDbEntity
  8
9
100
AcDbPolyline
 90
       20
 70
     1
 43
0.0
 10
-10.01531287095122
 20
57.82799728675581
 10
-10.01531287095122
 20
58.10010174665103
 42
-0.4142135623730744
 10
-9.615312870951584
 20
58.5001017466509
 10
-6.92703069357276
 20
58.5001017466509
 10
-6.92703069357276
 20
58.90010174665076
 10
-9.615346786501959
 20
58.90010174665076
 42
0.4142135623730883
 10
-10.41534678650168
 20
58.1001017466508
 10
-10.41534678650168
 20
57.82796337120567
 42
0.4142135623730717
 10
-9.615346786501959
 20
57.02796337120571
 10
-7.423079531965413
 20
57.02796337120571
 42
-0.4142135623730847
 10
-7.023079531965322
 20
56.62796337120562
 10
-7.023079531965322
 20
55.90786840766487
 42
-0.4142135623730744
 10
-7.423079531965413
 20
55.507868407665
 10
-10.41534678650168
 20
55.507868407665
 10
-10.41534678650168
 20
55.12380871629648
 10
-7.445787917283723
 20
55.12380871629648
 42
0.4114777732064574
 10
-6.645822882998345
 20
55.9163291493976
 10
-6.639238813324936
 20
56.62051771985716
 42
0.4169546541682913
 10
-7.439203847610315
 20
57.42799728675596
 10
-9.615312870951584
 20
57.42799728675596
 42
-0.4142135623731576
  0
LWPOLYLINE
  5
BE4
102
{ACAD_REACTORS
330
BEC
102
}
330
B9E
100
AcDbEntity
  8
9
100
AcDbPolyline
 90
       12
 70
     1
 43
0.0
 10
-14.41561811090378
 20
58.90010174665076
 10
-14.79964388672215
 20
58.90010174665076
 10
-14.79964388672215
 20
55.92380871629643
 42
0.4142135623731133
 10
-13.99964388672242
 20
55.12380871629648
 10
-11.8233508563676
 20
55.12380871629648
 42
0.4142135623730872
 10
-11.02335085636741
 20
55.92380871629643
 10
-11.02335085636741
 20
58.90010174665076
 10
-11.42338477191788
 20
58.90010174665076
 10
-11.42338477191788
 20
55.91567577726095
 42
-0.4131711701795318
 10
-11.82196067063523
 20
55.51567831234956
 10
-14.0141940096214
 20
55.50787335710947
 42
-0.4152567234624407
 10
-14.41561811090378
 20
55.90787082202087
  0
LWPOLYLINE
  5
BE5
102
{ACAD_REACTORS
330
BEC
102
}
330
B9E
100
AcDbEntity
  8
9
100
AcDbPolyline
 90
        6
 70
     1
 43
0.0
 10
-15.80771578768872
 20
55.507868407665
 10
-18.39994912667453
 20
55.507868407665
 42
-0.4142135623731731
 10
-18.79994912667462
 20
55.90786840766487
 10
-18.79994912667462
 20
58.10010174665103
 42
-0.4142135623730744
 10
-18.39994912667453
 20
58.5001017466509
 10
-15.80771578768872
 20
58.5001017466509
  0
LWPOLYLINE
  5
BE6
102
{ACAD_REACTORS
330
BEC
102
}
330
B9E
100
AcDbEntity
  8
9
100
AcDbPolyline
 90
        8
 70
     1
 43
0.0
 10
-15.4236900118708
 20
59.87619128370352
 10
-15.80771578768872
 20
59.87619128370352
 10
-15.80771578768872
 20
58.90010174665076
 10
-18.39176256411201
 20
58.90010174665076
 42
0.4131164467977967
 10
-19.19175694739761
 20
58.1030995310698
 10
-19.1999120763262
 20
55.92680650071542
 42
0.4153115297271718
 10
-18.39991769304061
 20
55.12380871629648
 10
-15.4236900118708
 20
55.12380871629648
  0
LWPOLYLINE
  5
BE7
102
{ACAD_REACTORS
330
BEC
102
}
330
B9E
100
AcDbEntity
  8
9
100
AcDbPolyline
 90
       10
 70
     1
 43
0.0
 10
-20.59201288790928
 20
58.90010174665076
 10
-23.56830591826338
 20
58.90010174665076
 10
-23.56830591826338
 20
55.12380871629648
 10
-23.18424622689509
 20
55.12380871629648
 10
-23.18424622689509
 20
58.5001017466509
 10
-20.59204680345965
 20
58.5001017466509
 42
-0.4142135623730898
 10
-20.19204680345956
 20
58.1001017466508
 10
-20.19204680345956
 20
55.12380871629648
 10
-19.79201288790909
 20
55.12380871629648
 10
-19.79201288790909
 20
58.10010174665103
 42
0.4142135623731132
  0
LWPOLYLINE
  5
BE8
102
{ACAD_REACTORS
330
BEC
102
}
330
B9E
100
AcDbEntity
  8
9
100
AcDbPolyline
 90
        4
 70
     1
 43
0.0
 10
-24.19231812786165
 20
58.90010174665076
 10
-24.57637781922995
 20
58.90010174665076
 10
-24.57637781922995
 20
55.12380871629648
 10
-24.19231812786165
 20
55.12380871629648
  0
LWPOLYLINE
  5
BE9
102
{ACAD_REACTORS
330
BEC
102
}
330
B9E
100
AcDbEntity
  8
9
100
AcDbPolyline
 90
       10
 70
     1
 43
0.0
 10
-28.57661522808212
 20
58.5001017466509
 10
-25.98444972019706
 20
58.5001017466509
 42
-0.4142135623731731
 10
-25.58444972019652
 20
58.1001017466508
 10
-25.58444972019652
 20
55.12380871629648
 10
-25.2004239443786
 20
55.12380871629648
 10
-25.2004239443786
 20
58.10010174665103
 42
0.4142135623730717
 10
-26.00042394437833
 20
58.90010174665076
 10
-28.97664914363259
 20
58.90010174665076
 10
-28.97664914363259
 20
55.12380871629648
 10
-28.57661522808212
 20
55.12380871629648
  0
LWPOLYLINE
  5
BEA
102
{ACAD_REACTORS
330
BEC
102
}
330
B9E
100
AcDbEntity
  8
9
100
AcDbPolyline
 90
       12
 70
     1
 43
0.0
 10
-29.58465321349832
 20
58.10010174665103
 42
0.4142135623730716
 10
-30.3846532134985
 20
58.90010174665076
 10
-33.07296930642724
 20
58.90010174665076
 10
-33.07296930642724
 20
58.5001017466509
 10
-30.38468712904842
 20
58.5001017466509
 42
-0.4142135623730067
 10
-29.98468712904878
 20
58.1001017466508
 10
-29.98468712904878
 20
57.42799728675618
 10
-32.56098015940324
 20
57.42799728675596
 42
0.4142135623731289
 10
-33.36098015940343
 20
56.627997286756
 10
-33.36098015940343
 20
55.92380871629643
 42
0.4142135623731132
 10
-32.56098015940324
 20
55.12380871629648
 10
-29.58465321349832
 20
55.12380871629648
  0
LWPOLYLINE
  5
BEB
102
{ACAD_REACTORS
330
BEC
102
}
330
B9E
100
AcDbEntity
  8
9
100
AcDbPolyline
 90
       20
 70
     1
 43
0.0
 10
-34.7850262845518
 20
57.42799728675596
 10
-36.96125148380543
 20
57.42799728675596
 42
-0.4142135623730898
 10
-37.36125148380552
 20
57.82799728675604
 10
-37.36125148380552
 20
58.10010174665103
 42
-0.4142135623730744
 10
-36.96125148380543
 20
58.5001017466509
 10
-34.27303713752781
 20
58.50010174665067
 10
-34.27303713752781
 20
58.90010174665076
 10
-36.96128539935535
 20
58.90010174665076
 42
0.4142135623731289
 10
-37.76128539935553
 20
58.1001017466508
 10
-37.76128539935553
 20
57.82796337120567
 42
0.4142135623730716
 10
-36.9612853993558
 20
57.02796337120571
 10
-34.76901814481926
 20
57.02796337120571
 42
-0.414213562373168
 10
-34.36901814481962
 20
56.62796337120562
 10
-34.36901814481962
 20
55.90786840766487
 42
-0.4142135623730744
 10
-34.76901814481926
 20
55.507868407665
 10
-37.76128539935553
 20
55.507868407665
 10
-37.76128539935553
 20
55.12380871629648
 10
-34.7850262845518
 20
55.12380871629648
 42
0.4142135623731289
 10
-33.98502628455162
 20
55.92380871629643
 10
-33.98502628455162
 20
56.627997286756
 42
0.4142135623731132
  0
HATCH
  5
BEC
330
B9E
100
AcDbEntity
  8
9
100
AcDbHatch
 10
0.0
 20
0.0
 30
0.0
210
0.0
220
0.0
230
1.0
  2
SOLID
 70
     1
 71
     1
 91
       13
 92
        7
 72
     1
 73
     1
 93
       20
 10
-34.36901814481962
 20
55.90786840766487
 42
-0.414213562372991
 10
-34.76901814481926
 20
55.507868407665
 42
0.0
 10
-37.76128539935553
 20
55.507868407665
 42
0.0
 10
-37.76128539935553
 20
55.12380871629648
 42
0.0
 10
-34.7850262845518
 20
55.12380871629648
 42
0.4142135623731705
 10
-33.98502628455162
 20
55.92380871629666
 42
0.0
 10
-33.98502628455162
 20
56.627997286756
 42
0.4142135623731547
 10
-34.7850262845518
 20
57.42799728675596
 42
0.0
 10
-36.96125148380543
 20
57.42799728675596
 42
-0.4142135623730898
 10
-37.36125148380552
 20
57.82799728675604
 42
0.0
 10
-37.36125148380552
 20
58.1001017466508
 42
-0.4142135623731575
 10
-36.96125148380543
 20
58.5001017466509
 42
0.0
 10
-34.27303713752781
 20
58.50010174665067
 42
0.0
 10
-34.27303713752781
 20
58.90010174665076
 42
0.0
 10
-36.96128539935535
 20
58.90010174665076
 42
0.4142135623731705
 10
-37.76128539935553
 20
58.10010174665058
 42
0.0
 10
-37.76128539935553
 20
57.82796337120544
 42
0.4142135623730299
 10
-36.9612853993558
 20
57.02796337120571
 42
0.0
 10
-34.76901814481926
 20
57.02796337120571
 42
-0.4142135623730015
 10
-34.36901814481962
 20
56.62796337120608
 42
0.0
 97
        1
330
BEB
 92
        7
 72
     1
 73
     1
 93
       12
 10
-33.36098015940343
 20
55.92380871629666
 42
0.4142135623731547
 10
-32.56098015940324
 20
55.12380871629648
 42
0.0
 10
-29.58465321349877
 20
55.12380871629648
 42
0.0
 10
-29.58465321349832
 20
58.10010174665058
 42
0.4142135623731964
 10
-30.3846532134985
 20
58.90010174665076
 42
0.0
 10
-33.07296930642724
 20
58.90010174665076
 42
0.0
 10
-33.07296930642724
 20
58.50010174665067
 42
0.0
 10
-30.38468712904887
 20
58.5001017466509
 42
-0.4142135623732564
 10
-29.98468712904878
 20
58.10010174665103
 42
0.0
 10
-29.98468712904923
 20
57.42799728675596
 42
0.0
 10
-32.56098015940324
 20
57.42799728675596
 42
0.4142135623731705
 10
-33.36098015940343
 20
56.627997286756
 42
0.0
 97
        1
330
BEA
 92
       22
 72
     1
 73
     1
 93
        6
 10
-32.97692046803468
 20
56.62796337120562
 42
-0.4142135623731576
 10
-32.57692046803459
 20
57.02796337120571
 42
0.0
 10
-29.98468712904878
 20
57.02796337120571
 42
0.0
 10
-29.98468712904878
 20
55.507868407665
 42
0.0
 10
-32.57692046803459
 20
55.507868407665
 42
-0.4142135623731731
 10
-32.97692046803468
 20
55.90786840766487
 42
0.0
 97
        1
330
C11
 92
        7
 72
     1
 73
     1
 93
       10
 10
-28.57661522808212
 20
58.5001017466509
 42
0.0
 10
-25.98444972019661
 20
58.5001017466509
 42
-0.4142135623730067
 10
-25.58444972019652
 20
58.10010174665058
 42
0.0
 10
-25.58444972019606
 20
55.12380871629648
 42
0.0
 10
-25.20042394437906
 20
55.12380871629648
 42
0.0
 10
-25.2004239443786
 20
58.1001017466508
 42
0.4142135623731134
 10
-26.00042394437833
 20
58.90010174665076
 42
0.0
 10
-28.97664914363259
 20
58.90010174665076
 42
0.0
 10
-28.97664914363259
 20
55.12380871629648
 42
0.0
 10
-28.57661522808212
 20
55.12380871629648
 42
0.0
 97
        1
330
BE9
 92
        7
 72
     0
 73
     1
 93
        4
 10
-24.57637781922995
 20
55.12380871629648
 10
-24.19231812786165
 20
55.12380871629648
 10
-24.19231812786165
 20
58.90010174665076
 10
-24.57637781922995
 20
58.90010174665076
 97
        1
330
BE8
 92
        7
 72
     0
 73
     1
 93
        4
 10
-24.19231812786165
 20
59.87619128370352
 10
-24.5763778192304
 20
59.87619128370352
 10
-24.5763778192304
 20
59.28412752246913
 10
-24.1923181278612
 20
59.28412752246913
 97
        1
330
C12
 92
        7
 72
     1
 73
     1
 93
       10
 10
-23.18424622689509
 20
58.5001017466509
 42
0.0
 10
-20.59204680345965
 20
58.5001017466509
 42
-0.4142135623730898
 10
-20.19204680345956
 20
58.1001017466508
 42
0.0
 10
-20.19204680345956
 20
55.12380871629648
 42
0.0
 10
-19.79201288790909
 20
55.12380871629648
 42
0.0
 10
-19.79201288790909
 20
58.1001017466508
 42
0.4142135623731547
 10
-20.59201288790928
 20
58.90010174665076
 42
0.0
 10
-23.56830591826338
 20
58.90010174665076
 42
0.0
 10
-23.56830591826338
 20
55.12380871629648
 42
0.0
 10
-23.18424622689463
 20
55.12380871629648
 42
0.0
 97
        1
330
BE7
 92
        7
 72
     1
 73
     1
 93
        8
 10
-19.1999120763262
 20
55.92680650071542
 42
0.4153115297271299
 10
-18.39991769304061
 20
55.12380871629648
 42
0.0
 10
-15.4236900118708
 20
55.12380871629648
 42
0.0
 10
-15.4236900118708
 20
59.87619128370352
 42
0.0
 10
-15.80771578768872
 20
59.87619128370352
 42
0.0
 10
-15.80771578768872
 20
58.90010174665076
 42
0.0
 10
-18.39176256411201
 20
58.90010174665076
 42
0.4131164467977965
 10
-19.19175694739761
 20
58.1030995310698
 42
0.0
 97
        1
330
BE6
 92
       22
 72
     1
 73
     1
 93
        6
 10
-18.79994912667462
 20
58.1001017466508
 42
-0.4142135623731575
 10
-18.39994912667453
 20
58.5001017466509
 42
0.0
 10
-15.80771578768872
 20
58.50010174665067
 42
0.0
 10
-15.80771578768827
 20
55.507868407665
 42
0.0
 10
-18.39994912667453
 20
55.507868407665
 42
-0.4142135623731731
 10
-18.79994912667462
 20
55.90786840766487
 42
0.0
 97
        1
330
BE5
 92
        7
 72
     1
 73
     1
 93
       12
 10
-14.79964388672215
 20
55.92380871629621
 42
0.4142135623729885
 10
-13.99964388672242
 20
55.12380871629648
 42
0.0
 10
-11.8233508563676
 20
55.12380871629648
 42
0.4142135623731289
 10
-11.02335085636741
 20
55.92380871629666
 42
0.0
 10
-11.02335085636741
 20
58.90010174665076
 42
0.0
 10
-11.42338477191788
 20
58.90010174665076
 42
0.0
 10
-11.42338477191788
 20
55.91567577726095
 42
-0.4131711701795319
 10
-11.82196067063523
 20
55.51567831234956
 42
0.0
 10
-14.01419400962095
 20
55.50787335710947
 42
-0.4152567234626918
 10
-14.41561811090378
 20
55.90787082202087
 42
0.0
 10
-14.41561811090378
 20
58.90010174665076
 42
0.0
 10
-14.7996438867226
 20
58.90010174665076
 42
0.0
 97
        1
330
BE4
 92
        7
 72
     1
 73
     1
 93
       20
 10
-7.423079531965413
 20
57.02796337120571
 42
-0.414213562373168
 10
-7.023079531965322
 20
56.62796337120562
 42
0.0
 10
-7.023079531965322
 20
55.90786840766487
 42
-0.4142135623731575
 10
-7.423079531965413
 20
55.507868407665
 42
0.0
 10
-10.41534678650168
 20
55.507868407665
 42
0.0
 10
-10.41534678650168
 20
55.12380871629648
 42
0.0
 10
-7.445787917283723
 20
55.12380871629648
 42
0.4114777732065809
 10
-6.645822882998345
 20
55.91632914939783
 42
0.0
 10
-6.639238813324936
 20
56.62051771985716
 42
0.4169546541682913
 10
-7.439203847610315
 20
57.42799728675596
 42
0.0
 10
-9.615312870951584
 20
57.42799728675596
 42
-0.4142135623729911
 10
-10.01531287095122
 20
57.82799728675581
 42
0.0
 10
-10.01531287095122
 20
58.10010174665103
 42
-0.414213562372991
 10
-9.615312870951584
 20
58.5001017466509
 42
0.0
 10
-6.92703069357276
 20
58.50010174665067
 42
0.0
 10
-6.927030693572305
 20
58.90010174665076
 42
0.0
 10
-9.615346786501959
 20
58.90010174665076
 42
0.4142135623730467
 10
-10.41534678650168
 20
58.10010174665103
 42
0.0
 10
-10.41534678650168
 20
57.82796337120544
 42
0.4142135623730301
 10
-9.615346786501959
 20
57.02796337120571
 42
0.0
 97
        1
330
BE3
 92
        7
 72
     1
 73
     1
 93
       12
 10
-5.21497371544865
 20
57.42799728675596
 42
0.4142135623730871
 10
-6.014973715448377
 20
56.627997286756
 42
0.0
 10
-6.014973715448377
 20
55.92380871629621
 42
0.4142135623730715
 10
-5.21497371544865
 20
55.12380871629648
 42
0.0
 10
-2.23871460064447
 20
55.12380871629648
 42
0.0
 10
-2.23871460064447
 20
58.10010174665058
 42
0.414213562373155
 10
-3.038714600644652
 20
58.90010174665076
 42
0.0
 10
-5.726962862471737
 20
58.90010174665076
 42
0.0
 10
-5.726962862472191
 20
58.5001017466509
 42
0.0
 10
-3.038748516194573
 20
58.5001017466509
 42
-0.4142135623730067
 10
-2.638748516194482
 20
58.10010174665058
 42
0.0
 10
-2.638748516194482
 20
57.42799728675596
 42
0.0
 97
        1
330
BE2
 92
       22
 72
     1
 73
     1
 93
        6
 10
-2.638748516194937
 20
57.02796337120571
 42
0.0
 10
-2.638748516194482
 20
55.50786840766477
 42
0.0
 10
-5.21497371544865
 20
55.507868407665
 42
-0.4142135623731731
 10
-5.614973715448741
 20
55.90786840766509
 42
0.0
 10
-5.614973715448741
 20
56.62796337120562
 42
-0.4142135623731576
 10
-5.21497371544865
 20
57.02796337120571
 42
0.0
 97
        1
330
C0D
 75
     0
 76
     1
 47
0.0407044778999864
 98
       13
 10
-34.18710075113677
 20
56.16907953933765
 10
-33.12851374392494
 20
56.49471602641233
 10
-33.12851374392494
 20
56.49471602641233
 10
-28.77202873835904
 20
57.51232930166111
 10
-24.41554807250941
 20
57.91937341678636
 10
-24.41554807250941
 20
59.384734621186
 10
-23.31624584658039
 20
58.3264175319116
 10
-19.04119127844888
 20
57.75655517324913
 10
-19.04119127844888
 20
57.75655517324913
 10
-14.64399105416578
 20
57.43091868617466
 10
-8.048195057457178
 20
57.22739662861204
 10
-4.017427461911665
 20
57.18669281458665
 10
-4.017427461911665
 20
57.18669281458665
  0
TEXT
  5
BED
330
B9E
100
AcDbEntity
  8
leg fin
100
AcDbText
 10
3.391127401597259
 20
2.107634911895729
 30
0.0
 40
1.5
  1
Este desenho é propriedade da Sanindusa, S.A., e não pode ser copiado nem divulgado sem nossa autorização.
 50
90.0
 41
0.8
  7
SANINDUSA
100
AcDbText
  0
LINE
  5
BEE
330
B9E
100
AcDbEntity
  8
3
100
AcDbLine
 10
-90.0
 20
4.0
 30
0.0
 11
-90.0
 21
12.0
 31
0.0
  0
TEXT
  5
BEF
330
B9E
100
AcDbEntity
  8
1
100
AcDbText
 10
-39.0
 20
9.25
 30
0.0
 40
2.0
  1
Substituido por:
 41
0.8
  7
SANINDUSA
 11
-39.0
 21
10.25
 31
0.0
100
AcDbText
 73
     2
  0
POINT
  5
BF0
330
B9E
100
AcDbEntity
  8
SANINDUSA
100
AcDbPoint
 10
0.0
 20
0.0
 30
0.0
  0
TEXT
  5
BF1
330
B9E
100
AcDbEntity
  8
1
100
AcDbText
 10
-89.0
 20
16.74927010445663
 30
0.0
 40
2.0
  1
Normas:
 41
0.8
  7
SANINDUSA
 11
-89.0
 21
17.74927010445663
 31
0.0
100
AcDbText
 73
     2
  0
LINE
  5
BF2
330
B9E
100
AcDbEntity
  8
3
100
AcDbLine
 10
-90.0
 20
12.0
 30
0.0
 11
-90.0
 21
20.0
 31
0.0
  0
LINE
  5
BF3
330
B9E
100
AcDbEntity
  8
3
100
AcDbLine
 10
-110.546019464768
 20
12.0
 30
0.0
 11
-110.546019464768
 21
20.0
 31
0.0
  0
TEXT
  5
BF4
330
B9E
100
AcDbEntity
  8
1
100
AcDbText
 10
-109.6177520618648
 20
17.25
 30
0.0
 40
2.0
  1
Cor:
 41
0.8
  7
SANINDUSA
 11
-109.6177520618648
 21
18.25
 31
0.0
100
AcDbText
 73
     2
  0
LINE
  5
BF5
330
B9E
100
AcDbEntity
  8
leg fin
100
AcDbLine
 10
-91.42857142857156
 20
20.0
 30
0.0
 11
-91.42857142857156
 21
28.5
 31
0.0
  0
LINE
  5
BF6
330
B9E
100
AcDbEntity
  8
leg fin
100
AcDbLine
 10
-104.2857142857142
 20
20.0
 30
0.0
 11
-104.2857142857142
 21
28.5
 31
0.0
  0
LINE
  5
BF7
330
B9E
100
AcDbEntity
  8
leg fin
100
AcDbLine
 10
-117.1428571428573
 20
20.0
 30
0.0
 11
-117.1428571428573
 21
28.5
 31
0.0
  0
POINT
  5
BF8
330
B9E
100
AcDbEntity
  8
SANINDUSA
100
AcDbPoint
 10
-117.1428571428573
 20
28.5
 30
0.0
  0
POINT
  5
BF9
330
B9E
100
AcDbEntity
  8
SANINDUSA
100
AcDbPoint
 10
-104.2857142857142
 20
28.5
 30
0.0
  0
POINT
  5
BFA
330
B9E
100
AcDbEntity
  8
SANINDUSA
100
AcDbPoint
 10
-91.42857142857156
 20
28.5
 30
0.0
  0
TEXT
  5
BFB
330
B9E
100
AcDbEntity
  8
1
100
AcDbText
 10
-116.200160604496
 20
26.43288406845113
 30
0.0
 40
1.5
  1
Nº Seq.:
 41
0.8
  7
SANINDUSA
 11
-116.200160604496
 21
27.18288406845113
 31
0.0
100
AcDbText
 73
     2
  0
TEXT
  5
BFC
330
B9E
100
AcDbEntity
  8
1
100
AcDbText
 10
-103.2106584078738
 20
26.43288406845113
 30
0.0
 40
1.5
  1
Tipo:
 41
0.8
  7
SANINDUSA
 11
-103.2106584078738
 21
27.18288406845113
 31
0.0
100
AcDbText
 73
     2
  0
TEXT
  5
BFD
330
B9E
100
AcDbEntity
  8
1
100
AcDbText
 10
-90.22114672289353
 20
26.43288406845113
 30
0.0
 40
1.5
  1
Prod.:
 41
0.8
  7
SANINDUSA
 11
-90.22114672289353
 21
27.18288406845113
 31
0.0
100
AcDbText
 73
     2
  0
TEXT
  5
BFE
330
B9E
100
AcDbEntity
  8
1
100
AcDbText
 10
-64.77320576346574
 20
26.43288406845113
 30
0.0
 40
1.5
  1
Rev.:
 41
0.8
  7
SANINDUSA
 11
-64.77320576346574
 21
27.18288406845113
 31
0.0
100
AcDbText
 73
     2
  0
LINE
  5
BFF
330
B9E
100
AcDbEntity
  8
leg fin
100
AcDbLine
 10
-52.85714285714266
 20
20.0
 30
0.0
 11
-52.85714285714266
 21
28.5
 31
0.0
  0
LINE
  5
C00
330
B9E
100
AcDbEntity
  8
leg fin
100
AcDbLine
 10
-65.71428571428578
 20
20.0
 30
0.0
 11
-65.71428571428578
 21
28.5
 31
0.0
  0
LINE
  5
C01
330
B9E
100
AcDbEntity
  8
leg fin
100
AcDbLine
 10
-78.57142857142844
 20
20.0
 30
0.0
 11
-78.57142857142844
 21
28.5
 31
0.0
  0
POINT
  5
C02
330
B9E
100
AcDbEntity
  8
SANINDUSA
100
AcDbPoint
 10
-78.57142857142844
 20
28.5
 30
0.0
  0
POINT
  5
C03
330
B9E
100
AcDbEntity
  8
SANINDUSA
100
AcDbPoint
 10
-65.71428571428578
 20
28.5
 30
0.0
  0
POINT
  5
C04
330
B9E
100
AcDbEntity
  8
SANINDUSA
100
AcDbPoint
 10
-52.85714285714266
 20
28.5
 30
0.0
  0
TEXT
  5
C05
330
B9E
100
AcDbEntity
  8
1
100
AcDbText
 10
-77.61097961686573
 20
26.43288406845113
 30
0.0
 40
1.5
  1
Peça:
 41
0.8
  7
SANINDUSA
 11
-77.61097961686573
 21
27.18288406845113
 31
0.0
100
AcDbText
 73
     2
  0
TEXT
  5
C06
330
B9E
100
AcDbEntity
  8
1
100
AcDbText
 10
-52.06538060077036
 20
26.43288406845113
 30
0.0
 40
1.5
  1
Alt.:
 41
0.8
  7
SANINDUSA
 11
-52.06538060077036
 21
27.18288406845113
 31
0.0
100
AcDbText
 73
     2
  0
LINE
  5
C07
330
B9E
100
AcDbEntity
  8
3
100
AcDbLine
 10
0.0
 20
12.0
 30
0.0
 11
-40.0
 21
12.0
 31
0.0
  0
LINE
  5
C08
330
B9E
100
AcDbEntity
  8
3
100
AcDbLine
 10
-40.0
 20
32.5
 30
0.0
 11
0.0
 21
32.5
 31
0.0
  0
TEXT
  5
C09
330
B9E
100
AcDbEntity
  8
1
100
AcDbText
 10
-19.0
 20
29.75
 30
0.0
 40
2.0
  1
Folha:
 41
0.8
  7
SANINDUSA
 11
-19.0
 21
30.75
 31
0.0
100
AcDbText
 73
     2
  0
LINE
  5
C0A
330
B9E
100
AcDbEntity
  8
3
100
AcDbLine
 10
-20.0
 20
32.5
 30
0.0
 11
-20.0
 21
20.0
 31
0.0
  0
TEXT
  5
C0B
330
B9E
100
AcDbEntity
  8
1
100
AcDbText
 10
-39.0
 20
29.75
 30
0.0
 40
2.0
  1
Escala:
 41
0.8
  7
SANINDUSA
 11
-39.0
 21
30.75
 31
0.0
100
AcDbText
 73
     2
  0
TEXT
  5
C0C
330
B9E
100
AcDbEntity
  8
1
100
AcDbText
 10
-39.0
 20
17.25
 30
0.0
 40
2.0
  1
Substitui:
 41
0.8
  7
SANINDUSA
 11
-39.0
 21
18.25
 31
0.0
100
AcDbText
 73
     2
  0
LWPOLYLINE
  5
C0D
102
{ACAD_REACTORS
330
BEC
102
}
330
B9E
100
AcDbEntity
  8
9
100
AcDbPolyline
 90
        6
 70
     1
 43
0.0
 10
-2.638748516194482
 20
57.02796337120571
 10
-2.638748516194482
 20
55.50786840766477
 10
-5.21497371544865
 20
55.507868407665
 42
-0.4142135623730898
 10
-5.614973715448741
 20
55.90786840766487
 10
-5.614973715448741
 20
56.62796337120562
 42
-0.4142135623731576
 10
-5.21497371544865
 20
57.02796337120571
  0
LINE
  5
C0E
330
B9E
100
AcDbEntity
  8
3
100
AcDbLine
 10
-40.0
 20
50.0
 30
0.0
 11
0.0
 21
50.0
 31
0.0
  0
ATTDEF
  5
C0F
330
B9E
100
AcDbEntity
  8
1
100
AcDbText
 10
-31.30691739422431
 20
40.25
 30
0.0
 40
2.0
  1
XXXXXXXXXXXXXXX
 41
0.8
  7
SANINDUSA
 72
     4
 11
-20.0
 21
41.25
 31
0.0
100
AcDbAttributeDefinition
  3
Observações:
  2
OBS
 70
     0
  0
TEXT
  5
C10
330
B9E
100
AcDbEntity
  8
1
100
AcDbText
 10
-39.0
 20
47.25
 30
0.0
 40
2.0
  1
Observações:
 41
0.8
  7
SANINDUSA
 11
-39.0
 21
48.25
 31
0.0
100
AcDbText
 73
     2
  0
LWPOLYLINE
  5
C11
102
{ACAD_REACTORS
330
BEC
102
}
330
B9E
100
AcDbEntity
  8
9
100
AcDbPolyline
 90
        6
 70
     1
 43
0.0
 10
-29.98468712904878
 20
57.02796337120571
 10
-29.98468712904878
 20
55.507868407665
 10
-32.57692046803459
 20
55.507868407665
 42
-0.4142135623731731
 10
-32.97692046803468
 20
55.90786840766487
 10
-32.97692046803468
 20
56.62796337120562
 42
-0.4142135623731576
 10
-32.57692046803459
 20
57.02796337120571
  0
LWPOLYLINE
  5
C12
102
{ACAD_REACTORS
330
BEC
102
}
330
B9E
100
AcDbEntity
  8
9
100
AcDbPolyline
 90
        4
 70
     1
 43
0.0
 10
-24.19231812786165
 20
59.87619128370352
 10
-24.57637781922995
 20
59.87619128370352
 10
-24.57637781922995
 20
59.28412752246913
 10
-24.19231812786165
 20
59.28412752246913
  0
ENDBLK
  5
C14
330
B9E
100
AcDbEntity
  8
0
100
AcDbBlockEnd
  0
ENDSEC
  0
SECTION
  2
ENTITIES
  0
ARC
  5
140E
330
1F
100
AcDbEntity
  8
SANINDUSA
100
AcDbCircle
 10
4038.15773900786
 20
1894.507859366776
 30
0.0
 40
0.0045000000000003
100
AcDbArc
 50
72.48617500185861
 51
107.5380640024419
  0
ARC
  5
140F
330
1F
100
AcDbEntity
  8
SANINDUSA
100
AcDbCircle
 10
4038.156613651934
 20
1894.511586026269
 30
0.0
 40
0.0006024366406776
100
AcDbArc
 50
112.4734048864124
 51
191.0032628893714
  0
LWPOLYLINE
  5
1410
330
1F
100
AcDbEntity
  8
SANINDUSA
100
AcDbPolyline
 90
        8
 70
   128
 43
0.0
 10
4038.159458868737
 20
1894.511405149327
 10
4038.159446219514
 20
1894.511645952092
 10
4038.159435144225
 20
1894.511738696919
 10
4038.159410985718
 20
1894.511835405455
 10
4038.159372034082
 20
1894.511921563969
 10
4038.159293344775
 20
1894.512025872098
 10
4038.159161607334
 20
1894.512122193203
 10
4038.15909247526
 20
1894.512141818033
  0
LINE
  5
1411
330
1F
100
AcDbEntity
  8
SANINDUSA
100
AcDbLine
 10
4038.16223900786
 20
1894.391802941498
 30
0.0
 11
4038.162239008182
 21
1894.40008270167
 31
0.0
  0
LINE
  5
1412
330
1F
100
AcDbEntity
  8
SANINDUSA
100
AcDbLine
 10
4038.15323900857
 20
1894.40008270167
 30
0.0
 11
4038.15323900786
 21
1894.391802941498
 31
0.0
  0
LWPOLYLINE
  5
1413
330
1F
100
AcDbEntity
  8
SANINDUSA
100
AcDbPolyline
 90
        8
 70
   128
 43
0.0
 10
4038.155076051662
 20
1894.405139760898
 10
4038.155082619349
 20
1894.405061842726
 10
4038.154944290006
 20
1894.404480146096
 10
4038.154638175452
 20
1894.40378876947
 10
4038.154170450353
 20
1894.402915069686
 10
4038.153697541514
 20
1894.40196447991
 10
4038.15335707047
 20
1894.400986397491
 10
4038.153265024135
 20
1894.400232547747
  0
LWPOLYLINE
  5
1414
330
1F
100
AcDbEntity
  8
SANINDUSA
100
AcDbPolyline
 90
        7
 70
   128
 43
0.0
 10
4038.162178978855
 20
1894.400576816724
 10
4038.162158163795
 20
1894.400820785986
 10
4038.161863193447
 20
1894.401767806934
 10
4038.161429908657
 20
1894.402685234176
 10
4038.160985217029
 20
1894.40351055734
 10
4038.160628308141
 20
1894.404239090012
 10
4038.160479767779
 20
1894.404696853684
  0
LWPOLYLINE
  5
1415
330
1F
100
AcDbEntity
  8
SANINDUSA
100
AcDbPolyline
 90
       16
 70
   128
 43
0.0
 10
4038.180489788363
 20
1894.361802944766
 10
4038.180164939324
 20
1894.364594386743
 10
4038.179705249677
 20
1894.366926865505
 10
4038.17919564114
 20
1894.368585014568
 10
4038.178069307068
 20
1894.371160195993
 10
4038.176712455759
 20
1894.373705470787
 10
4038.175074661682
 20
1894.376582981871
 10
4038.173557134876
 20
1894.379075946139
 10
4038.172778903106
 20
1894.38029173188
 10
4038.172188642034
 20
1894.381183000134
 10
4038.171505297134
 20
1894.382178963946
 10
4038.170463221678
 20
1894.383614571617
 10
4038.169089863608
 20
1894.385434107707
 10
4038.167439582357
 20
1894.387732798086
 10
4038.16561136634
 20
1894.390516044424
 10
4038.163773585642
 20
1894.393782609926
  0
LWPOLYLINE
  5
1416
330
1F
100
AcDbEntity
  8
SANINDUSA
100
AcDbPolyline
 90
       17
 70
   128
 43
0.0
 10
4038.151704429249
 20
1894.393782609926
 10
4038.149866650412
 20
1894.390516044424
 10
4038.148038432534
 20
1894.387732798086
 10
4038.146388150351
 20
1894.385434107707
 10
4038.145014793212
 20
1894.383614571617
 10
4038.143972718688
 20
1894.382178963946
 10
4038.143289372857
 20
1894.381183000134
 10
4038.142699111784
 20
1894.38029173188
 10
4038.141920880945
 20
1894.379075946139
 10
4038.140592402844
 20
1894.376902313755
 10
4038.139105251125
 20
1894.374316708968
 10
4038.137829865394
 20
1894.371977547036
 10
4038.137023060182
 20
1894.370365382956
 10
4038.136282375846
 20
1894.368585014568
 10
4038.135772765912
 20
1894.366926865505
 10
4038.135313077895
 20
1894.364594386743
 10
4038.134988226062
 20
1894.361802944766
  0
LINE
  5
1417
330
1F
100
AcDbEntity
  8
SANINDUSA
100
AcDbLine
 10
4038.146037572595
 20
1894.338343793378
 30
0.0
 11
4038.146037572595
 21
1894.330900939034
 31
0.0
  0
LINE
  5
1418
330
1F
100
AcDbEntity
  8
SANINDUSA
100
AcDbLine
 10
4038.170037573734
 20
1894.330900939034
 30
0.0
 11
4038.170037573734
 21
1894.338343793378
 31
0.0
  0
LINE
  5
1419
330
1F
100
AcDbEntity
  8
SANINDUSA
100
AcDbLine
 10
4038.146130421577
 20
1894.330717367543
 30
0.0
 11
4038.146626553098
 21
1894.330228825883
 31
0.0
  0
LINE
  5
141A
330
1F
100
AcDbEntity
  8
SANINDUSA
100
AcDbLine
 10
4038.169448590437
 20
1894.330228825883
 30
0.0
 11
4038.169944723103
 21
1894.330717367543
 31
0.0
  0
LINE
  5
141B
330
1F
100
AcDbEntity
  8
SANINDUSA
100
AcDbLine
 10
4038.155677388021
 20
1894.331602049844
 30
0.0
 11
4038.155684734294
 21
1894.33160077952
 31
0.0
  0
LINE
  5
141C
330
1F
100
AcDbEntity
  8
SANINDUSA
100
AcDbLine
 10
4038.155728409598
 20
1894.331598790215
 30
0.0
 11
4038.155809071446
 21
1894.331605875717
 31
0.0
  0
LINE
  5
141D
330
1F
100
AcDbEntity
  8
SANINDUSA
100
AcDbLine
 10
4038.157932613576
 20
1894.331636791901
 30
0.0
 11
4038.158474263335
 21
1894.331543182806
 31
0.0
  0
LINE
  5
141E
330
1F
100
AcDbEntity
  8
SANINDUSA
100
AcDbLine
 10
4038.158517938638
 20
1894.331541193501
 30
0.0
 11
4038.15946365201
 21
1894.331624267475
 31
0.0
  0
LINE
  5
141F
330
1F
100
AcDbEntity
  8
SANINDUSA
100
AcDbLine
 10
4038.160632735649
 20
1894.331594643967
 30
0.0
 11
4038.161263792375
 21
1894.331485586093
 31
0.0
  0
LINE
  5
1420
330
1F
100
AcDbEntity
  8
SANINDUSA
100
AcDbLine
 10
4038.153718866939
 20
1894.331516032891
 30
0.0
 11
4038.154056234816
 21
1894.331457728372
 31
0.0
  0
LINE
  5
1421
330
1F
100
AcDbEntity
  8
SANINDUSA
100
AcDbLine
 10
4038.161307467679
 20
1894.331483596788
 30
0.0
 11
4038.161940066674
 21
1894.331539163218
 31
0.0
  0
LINE
  5
1422
330
1F
100
AcDbEntity
  8
SANINDUSA
100
AcDbLine
 10
4038.154099911983
 20
1894.331455739067
 30
0.0
 11
4038.15573761479
 21
1894.331599598603
 31
0.0
  0
LINE
  5
1423
330
1F
100
AcDbEntity
  8
SANINDUSA
100
AcDbLine
 10
4038.155707091624
 20
1894.331596916394
 30
0.0
 11
4038.156845763857
 21
1894.331400131659
 31
0.0
  0
LINE
  5
1424
330
1F
100
AcDbEntity
  8
SANINDUSA
100
AcDbLine
 10
4038.156889441022
 20
1894.331398142354
 30
0.0
 11
4038.15852714383
 21
1894.331542001889
 31
0.0
  0
LINE
  5
1425
330
1F
100
AcDbEntity
  8
SANINDUSA
100
AcDbLine
 10
4038.158496620664
 20
1894.33153931968
 30
0.0
 11
4038.159635292897
 21
1894.331342534946
 31
0.0
  0
LINE
  5
1426
330
1F
100
AcDbEntity
  8
SANINDUSA
100
AcDbLine
 10
4038.15200620384
 20
1894.331387525277
 30
0.0
 11
4038.152427735338
 21
1894.331314677225
 31
0.0
  0
LINE
  5
1427
330
1F
100
AcDbEntity
  8
SANINDUSA
100
AcDbLine
 10
4038.159678970063
 20
1894.331340541915
 30
0.0
 11
4038.161316672871
 21
1894.331484405176
 31
0.0
  0
LINE
  5
1428
330
1F
100
AcDbEntity
  8
SANINDUSA
100
AcDbLine
 10
4038.161286151567
 20
1894.331481722967
 30
0.0
 11
4038.162424821938
 21
1894.331284938233
 31
0.0
  0
LINE
  5
1429
330
1F
100
AcDbEntity
  8
SANINDUSA
100
AcDbLine
 10
4038.152471412504
 20
1894.331312684195
 30
0.0
 11
4038.154109115312
 21
1894.331456547455
 31
0.0
  0
LINE
  5
142A
330
1F
100
AcDbEntity
  8
SANINDUSA
100
AcDbLine
 10
4038.154078594009
 20
1894.331453865246
 30
0.0
 11
4038.155217264378
 21
1894.331257080511
 31
0.0
  0
LINE
  5
142B
330
1F
100
AcDbEntity
  8
SANINDUSA
100
AcDbLine
 10
4038.162468499104
 20
1894.331282945202
 30
0.0
 11
4038.163867343748
 21
1894.331405823903
 31
0.0
  0
LINE
  5
142C
330
1F
100
AcDbEntity
  8
SANINDUSA
100
AcDbLine
 10
4038.164585950384
 20
1894.331335941182
 30
0.0
 11
4038.165214350978
 21
1894.331227341519
 31
0.0
  0
LINE
  5
142D
330
1F
100
AcDbEntity
  8
SANINDUSA
100
AcDbLine
 10
4038.155260941545
 20
1894.331255087481
 30
0.0
 11
4038.156898646215
 21
1894.331398950742
 31
0.0
  0
LINE
  5
142E
330
1F
100
AcDbEntity
  8
SANINDUSA
100
AcDbLine
 10
4038.156868123048
 20
1894.331396268533
 30
0.0
 11
4038.158006795281
 21
1894.331199483798
 31
0.0
  0
LINE
  5
142F
330
1F
100
AcDbEntity
  8
SANINDUSA
100
AcDbLine
 10
4038.150528405393
 20
1894.331218430625
 30
0.0
 11
4038.150799237723
 21
1894.331171626078
 31
0.0
  0
LINE
  5
1430
330
1F
100
AcDbEntity
  8
SANINDUSA
100
AcDbLine
 10
4038.158050470585
 20
1894.331197490768
 30
0.0
 11
4038.159688175255
 21
1894.331341350303
 31
0.0
  0
LINE
  5
1431
330
1F
100
AcDbEntity
  8
SANINDUSA
100
AcDbLine
 10
4038.15965765209
 20
1894.33133867182
 30
0.0
 11
4038.160796324322
 21
1894.331141887085
 31
0.0
  0
LINE
  5
1432
330
1F
100
AcDbEntity
  8
SANINDUSA
100
AcDbLine
 10
4038.165258030007
 20
1894.331225348489
 30
0.0
 11
4038.165403241822
 21
1894.331238103883
 31
0.0
  0
LINE
  5
1433
330
1F
100
AcDbEntity
  8
SANINDUSA
100
AcDbLine
 10
4038.150842913026
 20
1894.331169633047
 30
0.0
 11
4038.152480617696
 21
1894.331313496308
 31
0.0
  0
LINE
  5
1434
330
1F
100
AcDbEntity
  8
SANINDUSA
100
AcDbLine
 10
4038.152450094531
 20
1894.331310814099
 30
0.0
 11
4038.153588766763
 21
1894.331114029364
 31
0.0
  0
LINE
  5
1435
330
1F
100
AcDbEntity
  8
SANINDUSA
100
AcDbLine
 10
4038.160839999625
 20
1894.331139894054
 30
0.0
 11
4038.162477704296
 21
1894.33128375359
 31
0.0
  0
LINE
  5
1436
330
1F
100
AcDbEntity
  8
SANINDUSA
100
AcDbLine
 10
4038.16244718113
 20
1894.331281075107
 30
0.0
 11
4038.163585853363
 21
1894.331084286647
 31
0.0
  0
LINE
  5
1437
330
1F
100
AcDbEntity
  8
SANINDUSA
100
AcDbLine
 10
4038.153632443929
 20
1894.331112036334
 30
0.0
 11
4038.155270146737
 21
1894.331255895869
 31
0.0
  0
LINE
  5
1438
330
1F
100
AcDbEntity
  8
SANINDUSA
100
AcDbLine
 10
4038.155239623571
 20
1894.331253217385
 30
0.0
 11
4038.156378295804
 21
1894.331056432651
 31
0.0
  0
LINE
  5
1439
330
1F
100
AcDbEntity
  8
SANINDUSA
100
AcDbLine
 10
4038.163629528666
 20
1894.331082297341
 30
0.0
 11
4038.165267231474
 21
1894.331226156877
 31
0.0
  0
LINE
  5
143A
330
1F
100
AcDbEntity
  8
SANINDUSA
100
AcDbLine
 10
4038.16523671017
 20
1894.331223474668
 30
0.0
 11
4038.166387124518
 21
1894.33102465965
 31
0.0
  0
LINE
  5
143B
330
1F
100
AcDbEntity
  8
SANINDUSA
100
AcDbLine
 10
4038.15642197297
 20
1894.331054439621
 30
0.0
 11
4038.158059675778
 21
1894.331198299156
 31
0.0
  0
LINE
  5
143C
330
1F
100
AcDbEntity
  8
SANINDUSA
100
AcDbLine
 10
4038.158029152611
 20
1894.331195616947
 30
0.0
 11
4038.159167824844
 21
1894.330998832212
 31
0.0
  0
LINE
  5
143D
330
1F
100
AcDbEntity
  8
SANINDUSA
100
AcDbLine
 10
4038.149623396406
 20
1894.331062508599
 30
0.0
 11
4038.150852118218
 21
1894.331170441435
 31
0.0
  0
LINE
  5
143E
330
1F
100
AcDbEntity
  8
SANINDUSA
100
AcDbLine
 10
4038.150821596915
 20
1894.331167762952
 30
0.0
 11
4038.151960267285
 21
1894.330970974491
 31
0.0
  0
LINE
  5
143F
330
1F
100
AcDbEntity
  8
SANINDUSA
100
AcDbLine
 10
4038.15921150201
 20
1894.330996842907
 30
0.0
 11
4038.160849204817
 21
1894.331140702442
 31
0.0
  0
LINE
  5
1440
330
1F
100
AcDbEntity
  8
SANINDUSA
100
AcDbLine
 10
4038.160818681652
 20
1894.331138020234
 30
0.0
 11
4038.161957353884
 21
1894.330941235499
 31
0.0
  0
LINE
  5
1441
330
1F
100
AcDbEntity
  8
SANINDUSA
100
AcDbLine
 10
4038.152003944452
 20
1894.330968985186
 30
0.0
 11
4038.153641647259
 21
1894.331112844722
 31
0.0
  0
LINE
  5
1442
330
1F
100
AcDbEntity
  8
SANINDUSA
100
AcDbLine
 10
4038.153611125955
 20
1894.331110162513
 30
0.0
 11
4038.154749796325
 21
1894.330913377778
 31
0.0
  0
LINE
  5
1443
330
1F
100
AcDbEntity
  8
SANINDUSA
100
AcDbLine
 10
4038.16200103105
 20
1894.330939246194
 30
0.0
 11
4038.163638733858
 21
1894.331083105729
 31
0.0
  0
LINE
  5
1444
330
1F
100
AcDbEntity
  8
SANINDUSA
100
AcDbLine
 10
4038.163608212555
 20
1894.331080423521
 30
0.0
 11
4038.164746882925
 21
1894.330883638786
 31
0.0
  0
LINE
  5
1445
330
1F
100
AcDbEntity
  8
SANINDUSA
100
AcDbLine
 10
4038.154793473491
 20
1894.330911388473
 30
0.0
 11
4038.156431176299
 21
1894.331055248008
 31
0.0
  0
LINE
  5
1446
330
1F
100
AcDbEntity
  8
SANINDUSA
100
AcDbLine
 10
4038.156400654997
 20
1894.331052565799
 30
0.0
 11
4038.157539325366
 21
1894.330855781065
 31
0.0
  0
LINE
  5
1447
330
1F
100
AcDbEntity
  8
SANINDUSA
100
AcDbLine
 10
4038.164790558228
 20
1894.330881645755
 30
0.0
 11
4038.166444736133
 21
1894.331026954429
 31
0.0
  0
LINE
  5
1448
330
1F
100
AcDbEntity
  8
SANINDUSA
100
AcDbLine
 10
4038.157583002532
 20
1894.33085379176
 30
0.0
 11
4038.159220707203
 21
1894.330997651295
 31
0.0
  0
LINE
  5
1449
330
1F
100
AcDbEntity
  8
SANINDUSA
100
AcDbLine
 10
4038.159190184036
 20
1894.330994969086
 30
0.0
 11
4038.160328856269
 21
1894.330798184352
 31
0.0
  0
LINE
  5
144A
330
1F
100
AcDbEntity
  8
SANINDUSA
100
AcDbLine
 10
4038.150375444973
 20
1894.330825934039
 30
0.0
 11
4038.152013149644
 21
1894.330969793574
 31
0.0
  0
LINE
  5
144B
330
1F
100
AcDbEntity
  8
SANINDUSA
100
AcDbLine
 10
4038.151982626478
 20
1894.330967111365
 30
0.0
 11
4038.15312129871
 21
1894.33077032663
 31
0.0
  0
LINE
  5
144C
330
1F
100
AcDbEntity
  8
SANINDUSA
100
AcDbLine
 10
4038.160372531573
 20
1894.330796191321
 30
0.0
 11
4038.162010236243
 21
1894.330940054582
 31
0.0
  0
LINE
  5
144D
330
1F
100
AcDbEntity
  8
SANINDUSA
100
AcDbLine
 10
4038.161979713077
 20
1894.330937372373
 30
0.0
 11
4038.163118385309
 21
1894.330740587638
 31
0.0
  0
LINE
  5
144E
330
1F
100
AcDbEntity
  8
SANINDUSA
100
AcDbLine
 10
4038.153164974014
 20
1894.330768337326
 30
0.0
 11
4038.154802678683
 21
1894.330912196861
 31
0.0
  0
LINE
  5
144F
330
1F
100
AcDbEntity
  8
SANINDUSA
100
AcDbLine
 10
4038.149820156927
 20
1894.330916339384
 30
0.0
 11
4038.15033176967
 21
1894.330827923344
 31
0.0
  0
LINE
  5
1450
330
1F
100
AcDbEntity
  8
SANINDUSA
100
AcDbLine
 10
4038.154772155517
 20
1894.330909514652
 30
0.0
 11
4038.15591082775
 21
1894.330712729917
 31
0.0
  0
LINE
  5
1451
330
1F
100
AcDbEntity
  8
SANINDUSA
100
AcDbLine
 10
4038.163162060612
 20
1894.330738594608
 30
0.0
 11
4038.16479976342
 21
1894.330882457868
 31
0.0
  0
LINE
  5
1452
330
1F
100
AcDbEntity
  8
SANINDUSA
100
AcDbLine
 10
4038.164769242118
 20
1894.33087977566
 30
0.0
 11
4038.165616205493
 21
1894.330733401553
 31
0.0
  0
LINE
  5
1453
330
1F
100
AcDbEntity
  8
SANINDUSA
100
AcDbLine
 10
4038.155954504917
 20
1894.330710736887
 30
0.0
 11
4038.157592207724
 21
1894.330854600148
 31
0.0
  0
LINE
  5
1454
330
1F
100
AcDbEntity
  8
SANINDUSA
100
AcDbLine
 10
4038.157561684559
 20
1894.330851917939
 30
0.0
 11
4038.158700356791
 21
1894.330655133204
 31
0.0
  0
LINE
  5
1455
330
1F
100
AcDbEntity
  8
SANINDUSA
100
AcDbLine
 10
4038.150164492959
 20
1894.33080740072
 30
0.0
 11
4038.150384650165
 21
1894.330826742427
 31
0.0
  0
LINE
  5
1456
330
1F
100
AcDbEntity
  8
SANINDUSA
100
AcDbLine
 10
4038.150354126999
 20
1894.330824060218
 30
0.0
 11
4038.151492799232
 21
1894.330627275483
 31
0.0
  0
LINE
  5
1457
330
1F
100
AcDbEntity
  8
SANINDUSA
100
AcDbLine
 10
4038.158744033957
 20
1894.330653140174
 30
0.0
 11
4038.160381736765
 21
1894.330796999709
 31
0.0
  0
LINE
  5
1458
330
1F
100
AcDbEntity
  8
SANINDUSA
100
AcDbLine
 10
4038.160351213599
 20
1894.330794321225
 30
0.0
 11
4038.161489885832
 21
1894.330597536491
 31
0.0
  0
LINE
  5
1459
330
1F
100
AcDbEntity
  8
SANINDUSA
100
AcDbLine
 10
4038.151536476398
 20
1894.330625282453
 30
0.0
 11
4038.153174179206
 21
1894.330769145713
 31
0.0
  0
LINE
  5
145A
330
1F
100
AcDbEntity
  8
SANINDUSA
100
AcDbLine
 10
4038.153143657902
 20
1894.330766463505
 30
0.0
 11
4038.154282328273
 21
1894.33056967877
 31
0.0
  0
LINE
  5
145B
330
1F
100
AcDbEntity
  8
SANINDUSA
100
AcDbLine
 10
4038.161533562997
 20
1894.330595543461
 30
0.0
 11
4038.163171265805
 21
1894.330739402996
 31
0.0
  0
LINE
  5
145C
330
1F
100
AcDbEntity
  8
SANINDUSA
100
AcDbLine
 10
4038.163140742639
 20
1894.330736724512
 30
0.0
 11
4038.164279414871
 21
1894.330539936052
 31
0.0
  0
LINE
  5
145D
330
1F
100
AcDbEntity
  8
SANINDUSA
100
AcDbLine
 10
4038.154326005439
 20
1894.330567685739
 30
0.0
 11
4038.155963708247
 21
1894.330711545275
 31
0.0
  0
LINE
  5
145E
330
1F
100
AcDbEntity
  8
SANINDUSA
100
AcDbLine
 10
4038.155933186943
 20
1894.330708866791
 30
0.0
 11
4038.157071857312
 21
1894.330512082057
 31
0.0
  0
LINE
  5
145F
330
1F
100
AcDbEntity
  8
SANINDUSA
100
AcDbLine
 10
4038.157115534479
 20
1894.330510089026
 30
0.0
 11
4038.158753237286
 21
1894.330653948562
 31
0.0
  0
LINE
  5
1460
330
1F
100
AcDbEntity
  8
SANINDUSA
100
AcDbLine
 10
4038.158722715983
 20
1894.330651270078
 30
0.0
 11
4038.159861386353
 21
1894.330454481618
 31
0.0
  0
LINE
  5
1461
330
1F
100
AcDbEntity
  8
SANINDUSA
100
AcDbLine
 10
4038.151131207654
 20
1894.330589683579
 30
0.0
 11
4038.15154568159
 21
1894.330626090841
 31
0.0
  0
LINE
  5
1462
330
1F
100
AcDbEntity
  8
SANINDUSA
100
AcDbLine
 10
4038.151515158424
 20
1894.330623412357
 30
0.0
 11
4038.152653830657
 21
1894.330426627622
 31
0.0
  0
LINE
  5
1463
330
1F
100
AcDbEntity
  8
SANINDUSA
100
AcDbLine
 10
4038.164323092038
 20
1894.330537946747
 30
0.0
 11
4038.165040517757
 21
1894.330600967483
 31
0.0
  0
LINE
  5
1464
330
1F
100
AcDbEntity
  8
SANINDUSA
100
AcDbLine
 10
4038.159905063519
 20
1894.330452492313
 30
0.0
 11
4038.16154276819
 21
1894.330596351849
 31
0.0
  0
LINE
  5
1465
330
1F
100
AcDbEntity
  8
SANINDUSA
100
AcDbLine
 10
4038.161512245024
 20
1894.330593669639
 30
0.0
 11
4038.162650917256
 21
1894.330396884905
 31
0.0
  0
LINE
  5
1466
330
1F
100
AcDbEntity
  8
SANINDUSA
100
AcDbLine
 10
4038.15269750596
 20
1894.330424634592
 30
0.0
 11
4038.154335210631
 21
1894.330568494127
 31
0.0
  0
LINE
  5
1467
330
1F
100
AcDbEntity
  8
SANINDUSA
100
AcDbLine
 10
4038.154304687465
 20
1894.330565811918
 30
0.0
 11
4038.155443359698
 21
1894.330369027184
 31
0.0
  0
LINE
  5
1468
330
1F
100
AcDbEntity
  8
SANINDUSA
100
AcDbLine
 10
4038.16269459256
 20
1894.3303948956
 30
0.0
 11
4038.16433229723
 21
1894.330538755135
 31
0.0
  0
LINE
  5
1469
330
1F
100
AcDbEntity
  8
SANINDUSA
100
AcDbLine
 10
4038.164301774064
 20
1894.330536072926
 30
0.0
 11
4038.164429685632
 21
1894.330513967053
 31
0.0
  0
LINE
  5
146A
330
1F
100
AcDbEntity
  8
SANINDUSA
100
AcDbLine
 10
4038.155487035001
 20
1894.330367037879
 30
0.0
 11
4038.157124739671
 21
1894.330510897414
 31
0.0
  0
LINE
  5
146B
330
1F
100
AcDbEntity
  8
SANINDUSA
100
AcDbLine
 10
4038.157094216505
 20
1894.330508215205
 30
0.0
 11
4038.158232888738
 21
1894.33031143047
 31
0.0
  0
LINE
  5
146C
330
1F
100
AcDbEntity
  8
SANINDUSA
100
AcDbLine
 10
4038.158276565904
 20
1894.330309441166
 30
0.0
 11
4038.159914268712
 21
1894.330453300701
 31
0.0
  0
LINE
  5
146D
330
1F
100
AcDbEntity
  8
SANINDUSA
100
AcDbLine
 10
4038.159883745545
 20
1894.330450618492
 30
0.0
 11
4038.161022417778
 21
1894.330253833757
 31
0.0
  0
LINE
  5
146E
330
1F
100
AcDbEntity
  8
SANINDUSA
100
AcDbLine
 10
4038.152486553946
 20
1894.330406104998
 30
0.0
 11
4038.152706711152
 21
1894.33042544298
 31
0.0
  0
LINE
  5
146F
330
1F
100
AcDbEntity
  8
SANINDUSA
100
AcDbLine
 10
4038.152676187986
 20
1894.330422760771
 30
0.0
 11
4038.153158752779
 21
1894.330339366423
 31
0.0
  0
LINE
  5
1470
330
1F
100
AcDbEntity
  8
SANINDUSA
100
AcDbLine
 10
4038.161066094945
 20
1894.330251840727
 30
0.0
 11
4038.162703797752
 21
1894.330395703988
 31
0.0
  0
LINE
  5
1471
330
1F
100
AcDbEntity
  8
SANINDUSA
100
AcDbLine
 10
4038.162673274587
 20
1894.330393021778
 30
0.0
 11
4038.162939724112
 21
1894.330346973465
 31
0.0
  0
LINE
  5
1472
330
1F
100
AcDbEntity
  8
SANINDUSA
100
AcDbLine
 10
4038.154267518381
 20
1894.330259909706
 30
0.0
 11
4038.155496240193
 21
1894.330367846267
 31
0.0
  0
LINE
  5
1473
330
1F
100
AcDbEntity
  8
SANINDUSA
100
AcDbLine
 10
4038.155465718889
 20
1894.330365164058
 30
0.0
 11
4038.156616133238
 21
1894.33016634904
 31
0.0
  0
LINE
  5
1474
330
1F
100
AcDbEntity
  8
SANINDUSA
100
AcDbLine
 10
4038.156631593192
 20
1894.33016494088
 30
0.0
 11
4038.158285769234
 21
1894.330310249554
 31
0.0
  0
LINE
  5
1475
330
1F
100
AcDbEntity
  8
SANINDUSA
100
AcDbLine
 10
4038.15825524793
 20
1894.330307567344
 30
0.0
 11
4038.159102211306
 21
1894.330161193238
 31
0.0
  0
LINE
  5
1476
330
1F
100
AcDbEntity
  8
SANINDUSA
100
AcDbLine
 10
4038.160357697466
 20
1894.330189613478
 30
0.0
 11
4038.161075298274
 21
1894.33025265284
 31
0.0
  0
ARC
  5
1477
330
1F
100
AcDbEntity
  8
SANINDUSA
100
AcDbCircle
 10
4038.157532415151
 20
1894.355265851576
 30
0.0
 40
0.02
100
AcDbArc
 50
160.7530306760468
 51
181.3011849884148
  0
ARC
  5
1478
330
1F
100
AcDbEntity
  8
SANINDUSA
100
AcDbCircle
 10
4038.158542729557
 20
1894.355265851576
 30
0.0
 40
0.0200000000000001
100
AcDbArc
 50
358.6988150115852
 51
19.20595513360736
  0
ARC
  5
1479
330
1F
100
AcDbEntity
  8
SANINDUSA
100
AcDbCircle
 10
4038.158037485302
 20
1894.271246875189
 30
0.0
 40
0.0842158194497809
100
AcDbArc
 50
82.03831521601138
 51
97.96267283501189
  0
LWPOLYLINE
  5
147A
330
1F
100
AcDbEntity
  8
SANINDUSA
100
AcDbPolyline
 90
        8
 70
   128
 43
0.0
 10
4038.16443617695
 20
1894.33920109816
 10
4038.165814260552
 20
1894.33914508097
 10
4038.167234583357
 20
1894.339046681152
 10
4038.16840797157
 20
1894.338910402582
 10
4038.169298695931
 20
1894.338737537937
 10
4038.169813884953
 20
1894.338567929195
 10
4038.170039328346
 20
1894.338436348216
 10
4038.170039704601
 20
1894.338448216991
  0
LWPOLYLINE
  5
147B
330
1F
100
AcDbEntity
  8
SANINDUSA
100
AcDbPolyline
 90
        9
 70
   128
 43
0.0
 10
4038.146021098429
 20
1894.338426405416
 10
4038.146020057211
 20
1894.338421357648
 10
4038.146149752261
 20
1894.338513595836
 10
4038.146564124683
 20
1894.338677747027
 10
4038.147263047816
 20
1894.338843440489
 10
4038.148279070454
 20
1894.338989948706
 10
4038.149555400545
 20
1894.339102638738
 10
4038.151087832237
 20
1894.339183343427
 10
4038.151646201098
 20
1894.33920018919
  0
ARC
  5
147C
330
1F
100
AcDbEntity
  8
SANINDUSA
100
AcDbCircle
 10
4038.139209799346
 20
1894.323795210792
 30
0.0
 40
0.0440634294068853
100
AcDbArc
 50
26.30476909298353
 51
42.70715961556567
  0
ARC
  5
147D
330
1F
100
AcDbEntity
  8
SANINDUSA
100
AcDbCircle
 10
4038.1777207876
 20
1894.323430203476
 30
0.0
 40
0.0449727117715867
100
AcDbArc
 50
137.7217154116764
 51
153.752711228089
  0
LWPOLYLINE
  5
1480
330
1F
100
AcDbEntity
  8
SANINDUSA
100
AcDbPolyline
 90
        9
 70
   128
 43
0.0
 10
4038.159311740258
 20
1894.467502767072
 10
4038.159279695312
 20
1894.470308417307
 10
4038.159247976327
 20
1894.473467284666
 10
4038.159197124252
 20
1894.479382956253
 10
4038.15914948524
 20
1894.486003035532
 10
4038.159106459999
 20
1894.493148842679
 10
4038.159069205234
 20
1894.500610807763
 10
4038.159062048952
 20
1894.502239936815
 10
4038.159036918143
 20
1894.508729660736
  0
ARC
  5
1481
330
1F
100
AcDbEntity
  8
SANINDUSA
100
AcDbCircle
 10
4038.157739007445
 20
1894.472697181428
 30
0.0
 40
0.0054272856014566
100
AcDbArc
 50
253.1550602655198
 51
286.8449397344802
  0
LWPOLYLINE
  5
1482
330
1F
100
AcDbEntity
  8
SANINDUSA
100
AcDbPolyline
 90
        9
 70
   128
 43
0.0
 10
4038.156441098609
 20
1894.508729660736
 10
4038.156423919434
 20
1894.50415001236
 10
4038.156404071087
 20
1894.499572554456
 10
4038.156365963231
 20
1894.492144176589
 10
4038.156322245085
 20
1894.48506007515
 10
4038.156274093846
 20
1894.478528285251
 10
4038.156222923258
 20
1894.472724625693
 10
4038.156211633766
 20
1894.47158684753
 10
4038.156166274631
 20
1894.467502767072
  0
ARC
  5
1483
330
1F
100
AcDbEntity
  8
SANINDUSA
100
AcDbCircle
 10
4038.157739008377
 20
1894.464116671028
 30
0.0
 40
0.0446318655268995
100
AcDbArc
 50
88.33358439947744
 51
91.66641560052255
  0
ARC
  5
1484
330
1F
100
AcDbEntity
  8
SANINDUSA
100
AcDbCircle
 10
4038.159109207449
 20
1894.507877108751
 30
0.0
 40
0.0008556112609079
100
AcDbArc
 50
70.65053038036118
 51
94.8466118983133
  0
LWPOLYLINE
  5
1485
330
1F
100
AcDbEntity
  8
SANINDUSA
100
AcDbPolyline
 90
        9
 70
   128
 43
0.0
 10
4038.159392696405
 20
1894.508684391008
 10
4038.159406105587
 20
1894.504669377433
 10
4038.159421396041
 20
1894.500651800857
 10
4038.159454512009
 20
1894.493268633114
 10
4038.15949275584
 20
1894.486198002325
 10
4038.159535101214
 20
1894.479646796213
 10
4038.159580303886
 20
1894.473792249189
 10
4038.159608498747
 20
1894.470665568338
 10
4038.159636982316
 20
1894.467888319717
  0
ARC
  5
1486
330
1F
100
AcDbEntity
  8
SANINDUSA
100
AcDbCircle
 10
4038.1592129653
 20
1894.467916050166
 30
0.0
 40
0.000424922825633
100
AcDbArc
 50
283.4415849854482
 51
356.2582202732194
  0
ARC
  5
1487
330
1F
100
AcDbEntity
  8
SANINDUSA
100
AcDbCircle
 10
4038.156265052536
 20
1894.467916052651
 30
0.0
 40
0.0004249259271111
100
AcDbArc
 50
183.742088134984
 51
256.5581066197371
  0
LWPOLYLINE
  5
1488
330
1F
100
AcDbEntity
  8
SANINDUSA
100
AcDbPolyline
 90
        9
 70
   128
 43
0.0
 10
4038.155841032574
 20
1894.467888319717
 10
4038.155866310531
 20
1894.470333808885
 10
4038.155891387323
 20
1894.473057189809
 10
4038.155936871254
 20
1894.478800976501
 10
4038.155979672978
 20
1894.485264906512
 10
4038.156018533344
 20
1894.492274546848
 10
4038.156052407408
 20
1894.499624544607
 10
4038.156070050383
 20
1894.504153424726
 10
4038.156085320347
 20
1894.508684391008
  0
ARC
  5
1489
330
1F
100
AcDbEntity
  8
SANINDUSA
100
AcDbCircle
 10
4038.156368807967
 20
1894.507877119263
 30
0.0
 40
0.0008556009001958
100
AcDbArc
 50
85.15323939396376
 51
109.3496183301507
  0
ELLIPSE
  5
148A
330
1F
100
AcDbEntity
  8
SANINDUSA
100
AcDbEllipse
 10
4038.158238997961
 20
1894.59837910613
 30
0.0
 11
-0.0039998385076002
 21
0.3645990923130343
 31
0.0
210
0.0
220
0.0
230
1.0
 40
0.000098582782218
 41
1.936815470126133
 42
2.147254808043652
  0
ARC
  5
148B
330
1F
100
AcDbEntity
  8
SANINDUSA
100
AcDbCircle
 10
4038.333901637348
 20
1894.50954075308
 30
0.0
 40
0.1745110421295346
100
AcDbArc
 50
179.6103020484385
 51
180.2811634618323
  0
LWPOLYLINE
  5
148C
330
1F
100
AcDbEntity
  8
SANINDUSA
100
AcDbPolyline
 90
        3
 70
   128
 43
0.0
 10
4038.159483872885
 20
1894.510700309501
 10
4038.159461051757
 20
1894.511388206707
 10
4038.159459742317
 20
1894.511405164228
  0
ARC
  5
148D
330
1F
100
AcDbEntity
  8
SANINDUSA
100
AcDbCircle
 10
4037.804389021829
 20
1894.505662290738
 30
0.0
 40
0.3551305884876363
100
AcDbArc
 50
359.9567228981272
 51
0.8128471744027201
  0
LINE
  5
148E
330
1F
100
AcDbEntity
  8
SANINDUSA
100
AcDbLine
 10
4038.159530870488
 20
1894.500285584406
 30
0.0
 11
4038.159519508198
 21
1894.505394056935
 31
0.0
  0
ARC
  5
148F
330
1F
100
AcDbEntity
  8
SANINDUSA
100
AcDbCircle
 10
4042.519608914011
 20
1894.507581540695
 30
0.0
 40
4.360084147209912
100
AcDbArc
 50
180.0958759878085
 51
180.531691365103
  0
ELLIPSE
  5
1490
330
1F
100
AcDbEntity
  8
SANINDUSA
100
AcDbEllipse
 10
4038.158238997961
 20
1894.59837910613
 30
0.0
 11
-0.0039998385076002
 21
0.3645990923130343
 31
0.0
210
0.0
220
0.0
230
1.0
 40
0.000098582782218
 41
4.15390233749487
 42
4.34411451565443
  0
LINE
  5
1491
330
1F
100
AcDbEntity
  8
SANINDUSA
100
AcDbLine
 10
4038.160389008531
 20
1894.405177147911
 30
0.0
 11
4038.160389007861
 21
1894.399651065845
 31
0.0
  0
LINE
  5
1492
330
1F
100
AcDbEntity
  8
SANINDUSA
100
AcDbLine
 10
4038.155958507522
 20
1894.50539405673
 30
0.0
 11
4038.155947145233
 21
1894.500285584204
 31
0.0
  0
ARC
  5
1493
330
1F
100
AcDbEntity
  8
SANINDUSA
100
AcDbCircle
 10
4038.598317499674
 20
1894.505076630991
 30
0.0
 40
0.4423591058170635
100
AcDbArc
 50
179.2715833840637
 51
179.9588867750944
  0
LWPOLYLINE
  5
1494
330
1F
100
AcDbEntity
  8
SANINDUSA
100
AcDbPolyline
 90
        3
 70
   128
 43
0.0
 10
4038.15602122114
 20
1894.511471057163
 10
4038.15602092498
 20
1894.511468598471
 10
4038.155994142005
 20
1894.510700309501
  0
ARC
  5
1495
330
1F
100
AcDbEntity
  8
SANINDUSA
100
AcDbCircle
 10
4038.017123019306
 20
1894.509574294133
 30
0.0
 40
0.1389651504459683
100
AcDbArc
 50
359.633087564288
 51
0.4755513752332349
  0
ELLIPSE
  5
1496
330
1F
100
AcDbEntity
  8
SANINDUSA
100
AcDbEllipse
 10
4038.15723901776
 20
1894.59837910613
 30
0.0
 11
0.0039998385075999
 21
0.3645990923130155
 31
0.0
210
0.0
220
0.0
230
0.9999999999999998
 40
0.0000985827822184
 41
4.135930499178868
 42
4.346369837073723
  0
LINE
  5
1497
330
1F
100
AcDbEntity
  8
SANINDUSA
100
AcDbLine
 10
4038.155089008221
 20
1894.405177147911
 30
0.0
 11
4038.155089007861
 21
1894.399651065845
 31
0.0
  0
ELLIPSE
  5
1498
330
1F
100
AcDbEntity
  8
SANINDUSA
100
AcDbEllipse
 10
4038.15723901776
 20
1894.59837910613
 30
0.0
 11
0.0039998385075999
 21
0.3645990923130155
 31
0.0
210
0.0
220
0.0
230
0.9999999999999998
 40
0.0000985827822184
 41
1.939070791547197
 42
2.129282969727559
  0
ARC
  5
1499
330
1F
100
AcDbEntity
  8
SANINDUSA
100
AcDbCircle
 10
4033.76201777853
 20
1894.507766931299
 30
0.0
 40
4.393935736137914
100
AcDbArc
 50
359.4699874373077
 51
359.9024452012764
  0
ARC
  5
149A
330
1F
100
AcDbEntity
  8
SANINDUSA
100
AcDbCircle
 10
4037.931459942543
 20
1894.509762198127
 30
0.0
 40
0.2249835254391749
100
AcDbArc
 50
359.7370463300451
 51
0.3643384778171843
  0
ARC
  5
149B
330
1F
100
AcDbEntity
  8
SANINDUSA
100
AcDbCircle
 10
4038.157739007445
 20
1894.506772708611
 30
0.0
 40
0.0046073603359757
100
AcDbArc
 50
73.60986080004304
 51
106.3901391999569
  0
ARC
  5
149C
330
1F
100
AcDbEntity
  8
SANINDUSA
100
AcDbCircle
 10
4038.336468769602
 20
1894.509804401528
 30
0.0
 40
0.1774351063909598
100
AcDbArc
 50
179.5516539037603
 51
180.3470479384557
  0
ARC
  5
149D
330
1F
100
AcDbEntity
  8
SANINDUSA
100
AcDbCircle
 10
4038.158904432652
 20
1894.510721456886
 30
0.0
 40
0.0004902385782953
100
AcDbArc
 50
0.7276781286641385
 51
74.05654550786355
  0
ARC
  5
149E
330
1F
100
AcDbEntity
  8
SANINDUSA
100
AcDbCircle
 10
4038.156573582238
 20
1894.510721456886
 30
0.0
 40
0.0004902385782957
100
AcDbArc
 50
105.9434544921364
 51
179.2723218713358
  0
ARC
  5
149F
330
1F
100
AcDbEntity
  8
SANINDUSA
100
AcDbCircle
 10
4038.158142507874
 20
1894.392214009306
 30
0.0
 40
0.0041170734737829
100
AcDbArc
 50
264.3756191067955
 51
354.269732687033
  0
ARC
  5
14A0
330
1F
100
AcDbEntity
  8
SANINDUSA
100
AcDbCircle
 10
4038.157335504943
 20
1894.3922140045
 30
0.0
 40
0.0041170690765816
100
AcDbArc
 50
185.7302062343777
 51
275.6244419744429
  0
LINE
  5
14A1
330
1F
100
AcDbEntity
  8
SANINDUSA
100
AcDbLine
 10
4038.15326178872
 20
1894.400081315861
 30
0.0
 11
4038.15327477322
 21
1894.400230036901
 31
0.0
  0
ELLIPSE
  5
14A2
330
1F
100
AcDbEntity
  8
SANINDUSA
100
AcDbEllipse
 10
4038.15773900786
 20
1894.598377301426
 30
0.0
 11
0.0044997700809775
 21
0.3646030031530947
 31
0.0
210
0.0
220
0.0
230
1.0
 40
0.0001247621699761
 41
4.134807654641273
 42
4.34524699254073
  0
ELLIPSE
  5
14A3
330
1F
100
AcDbEntity
  8
SANINDUSA
100
AcDbEllipse
 10
4038.15773900786
 20
1894.598377301426
 30
0.0
 11
-0.0044997700809807
 21
0.3646030031533887
 31
0.0
210
0.0
220
0.0
230
0.9999999999999994
 40
0.000124762169976
 41
1.937938314653925
 42
2.148377652571314
  0
ARC
  5
14A4
330
1F
100
AcDbEntity
  8
SANINDUSA
100
AcDbCircle
 10
4038.155490733668
 20
1894.399668027327
 30
0.0
 40
0.0004020833011695
100
AcDbArc
 50
182.41749167109
 51
244.9119804745449
  0
ARC
  5
14A5
330
1F
100
AcDbEntity
  8
SANINDUSA
100
AcDbCircle
 10
4038.159987275507
 20
1894.399668033289
 30
0.0
 40
0.0004020911234063
100
AcDbArc
 50
295.0883968380555
 51
357.5817051421357
  0
LWPOLYLINE
  5
14A6
330
1F
100
AcDbEntity
  8
SANINDUSA
100
AcDbPolyline
 90
       12
 70
   128
 43
0.0
 10
4038.155089008221
 20
1894.405177147911
 10
4038.154927449832
 20
1894.404373461233
 10
4038.15457377077
 20
1894.403568969892
 10
4038.154152198294
 20
1894.402747841404
 10
4038.153753189901
 20
1894.401875706242
 10
4038.153479472334
 20
1894.400974297748
 10
4038.153411914194
 20
1894.40012236856
 10
4038.153571025068
 20
1894.39940154724
 10
4038.153943218822
 20
1894.398892903553
 10
4038.154395295838
 20
1894.398729273902
 10
4038.154899722496
 20
1894.399003716038
 10
4038.155089008221
 20
1894.399651067184
  0
LINE
  5
14A7
330
1F
100
AcDbEntity
  8
SANINDUSA
100
AcDbLine
 10
4038.160511352653
 20
1894.404608214126
 30
0.0
 11
4038.160389008531
 21
1894.405177147911
 31
0.0
  0
CIRCLE
  5
14A8
330
1F
100
AcDbEntity
  8
SANINDUSA
100
AcDbCircle
 10
4038.157739011061
 20
1894.372802944672
 30
0.0
 40
0.0040000033395542
  0
LWPOLYLINE
  5
14A9
330
1F
100
AcDbEntity
  8
SANINDUSA
100
AcDbPolyline
 90
       17
 70
   128
 43
0.0
 10
4038.162193060452
 20
1894.395488979147
 10
4038.162390064979
 20
1894.395377876089
 10
4038.163700799057
 20
1894.393898317443
 10
4038.164324800083
 20
1894.392143482195
 10
4038.164177977079
 20
1894.390324110018
 10
4038.163280413086
 20
1894.388675780819
 10
4038.161782008195
 20
1894.387409442888
 10
4038.159862492764
 20
1894.386619606839
 10
4038.157739008377
 20
1894.386354284213
 10
4038.156490628207
 20
1894.386444443689
 10
4038.154426917965
 20
1894.387031534539
 10
4038.152697029123
 20
1894.388150775657
 10
4038.151546113724
 20
1894.389688456283
 10
4038.151116191009
 20
1894.391453990565
 10
4038.151445430304
 20
1894.393235424386
 10
4038.152488172585
 20
1894.39482851498
 10
4038.15323900857
 20
1894.395390653835
  0
LINE
  5
14AA
330
1F
100
AcDbEntity
  8
SANINDUSA
100
AcDbLine
 10
4038.134989007907
 20
1894.361802944766
 30
0.0
 11
4038.180489006052
 21
1894.361802944766
 31
0.0
  0
ARC
  5
14AB
330
1F
100
AcDbEntity
  8
SANINDUSA
100
AcDbCircle
 10
4038.15773900786
 20
1894.372802941498
 30
0.0
 40
0.0036361249127083
100
AcDbArc
 50
136.5261485765092
 51
316.5261485585826
  0
ARC
  5
14AC
330
1F
100
AcDbEntity
  8
SANINDUSA
100
AcDbCircle
 10
4038.15773900786
 20
1894.372802941498
 30
0.0
 40
0.0036361249127083
100
AcDbArc
 50
316.5261485585826
 51
136.5261485765092
  0
ARC
  5
14AD
330
1F
100
AcDbEntity
  8
SANINDUSA
100
AcDbCircle
 10
4038.15773900786
 20
1894.372802941498
 30
0.0
 40
0.0038249352000002
100
AcDbArc
 50
136.5261485585826
 51
316.5261485585826
  0
ARC
  5
14AE
330
1F
100
AcDbEntity
  8
SANINDUSA
100
AcDbCircle
 10
4038.15773900786
 20
1894.372802941498
 30
0.0
 40
0.0038249352000002
100
AcDbArc
 50
316.5261485585826
 51
136.5261485585826
  0
LWPOLYLINE
  5
14AF
330
1F
100
AcDbEntity
  8
SANINDUSA
100
AcDbPolyline
 90
        3
 70
   128
 43
0.0
 10
4038.169944724599
 20
1894.330717367903
 10
4038.170032239118
 20
1894.330945012943
 10
4038.169778368035
 20
1894.331206584202
  0
LINE
  5
14B0
330
1F
100
AcDbEntity
  8
SANINDUSA
100
AcDbLine
 10
4038.169778368805
 20
1894.333687534933
 30
0.0
 11
4038.169778368805
 21
1894.331206583742
 31
0.0
  0
ARC
  5
14B1
330
1F
100
AcDbEntity
  8
SANINDUSA
100
AcDbCircle
 10
4038.163994476223
 20
1894.316810498909
 30
0.0
 40
0.0178406202725156
100
AcDbArc
 50
71.08301228892355
 51
89.30697851408474
  0
LINE
  5
14B2
330
1F
100
AcDbEntity
  8
SANINDUSA
100
AcDbLine
 10
4038.164210262153
 20
1894.332168863596
 30
0.0
 11
4038.164210262153
 21
1894.334649814787
 31
0.0
  0
LWPOLYLINE
  5
14B3
330
1F
100
AcDbEntity
  8
SANINDUSA
100
AcDbPolyline
 90
       14
 70
   128
 43
0.0
 10
4038.164210262308
 20
1894.332168863939
 10
4038.162286060462
 20
1894.332283707188
 10
4038.160226990068
 20
1894.332354655342
 10
4038.158098413208
 20
1894.332379454599
 10
4038.155967906648
 20
1894.332357315199
 10
4038.153903103033
 20
1894.332288944946
 10
4038.151969548845
 20
1894.33217651196
 10
4038.150228625695
 20
1894.332023581342
 10
4038.148735602917
 20
1894.331835018323
 10
4038.147537874588
 20
1894.331616798268
 10
4038.146673462885
 20
1894.331375853942
 10
4038.146169811087
 20
1894.331119833367
 10
4038.146042905347
 20
1894.330856861399
 10
4038.14613042173
 20
1894.330717367903
  0
LINE
  5
14B4
330
1F
100
AcDbEntity
  8
SANINDUSA
100
AcDbLine
 10
4038.165047208144
 20
1894.331528032402
 30
0.0
 11
4038.164210262153
 21
1894.332168863596
 31
0.0
  0
LWPOLYLINE
  5
14B5
330
1F
100
AcDbEntity
  8
SANINDUSA
100
AcDbPolyline
 90
       15
 70
   128
 43
0.0
 10
4038.14713372157
 20
1894.329954461978
 10
4038.146652150499
 20
1894.330205229895
 10
4038.146547161574
 20
1894.330462599025
 10
4038.146822225833
 20
1894.330718053357
 10
4038.147468247051
 20
1894.330963143931
 10
4038.14846385696
 20
1894.331189768241
 10
4038.149776125858
 20
1894.331390427278
 10
4038.151361646661
 20
1894.331558482574
 10
4038.153167980323
 20
1894.331688375996
 10
4038.155135378772
 20
1894.331775812284
 10
4038.157198770503
 20
1894.331817900614
 10
4038.159289904469
 20
1894.331813247727
 10
4038.161339618796
 20
1894.331762010084
 10
4038.1632801132
 20
1894.331665878968
 10
4038.165047208378
 20
1894.331528032051
  0
LINE
  5
14B6
330
1F
100
AcDbEntity
  8
SANINDUSA
100
AcDbLine
 10
4038.165047208144
 20
1894.331528032402
 30
0.0
 11
4038.168941422814
 21
1894.330855034459
 31
0.0
  0
LWPOLYLINE
  5
14B7
330
1F
100
AcDbEntity
  8
SANINDUSA
100
AcDbPolyline
 90
       15
 70
   128
 43
0.0
 10
4038.168941421965
 20
1894.330855036007
 10
4038.169422993967
 20
1894.330604264365
 10
4038.169527983824
 20
1894.330346895234
 10
4038.169252919565
 20
1894.330091440902
 10
4038.168606898347
 20
1894.329846350328
 10
4038.167611288438
 20
1894.329619726018
 10
4038.166299017677
 20
1894.329419070707
 10
4038.164713496874
 20
1894.329251015411
 10
4038.162907165075
 20
1894.329121121989
 10
4038.160939766625
 20
1894.329033681975
 10
4038.158876374895
 20
1894.328991593645
 10
4038.156785239065
 20
1894.328996246533
 10
4038.154735526601
 20
1894.329047484176
 10
4038.152795030335
 20
1894.329143619017
 10
4038.151027937019
 20
1894.329281462209
  0
LINE
  5
14B8
330
1F
100
AcDbEntity
  8
SANINDUSA
100
AcDbLine
 10
4038.151027936535
 20
1894.329281463406
 30
0.0
 11
4038.147133721866
 21
1894.329954461349
 31
0.0
  0
LWPOLYLINE
  5
14B9
330
1F
100
AcDbEntity
  8
SANINDUSA
100
AcDbPolyline
 90
       34
 70
   128
 43
0.0
 10
4038.166180065433
 20
1894.331120008455
 10
4038.167131553004
 20
1894.330917214827
 10
4038.167754358211
 20
1894.330695902781
 10
4038.168025976577
 20
1894.33046406679
 10
4038.167936584512
 20
1894.330230085031
 10
4038.167489419291
 20
1894.33000241764
 10
4038.166700637499
 20
1894.329789293782
 10
4038.165598752509
 20
1894.329598409908
 10
4038.164223585808
 20
1894.329436672704
 10
4038.162624838362
 20
1894.329309919701
 10
4038.160860296869
 20
1894.329222740458
 10
4038.158993734578
 20
1894.329178282843
 10
4038.15709261463
 20
1894.329178148733
 10
4038.155225646281
 20
1894.329222349302
 10
4038.15346030944
 20
1894.329309286402
 10
4038.151860407153
 20
1894.329435815887
 10
4038.150483763376
 20
1894.329597363101
 10
4038.149380133087
 20
1894.329788090513
 10
4038.148589406693
 20
1894.330001110063
 10
4038.148140159966
 20
1894.330228714125
 10
4038.148048632378
 20
1894.330462680982
 10
4038.148318131054
 20
1894.330694554226
 10
4038.148938916223
 20
1894.330915955679
 10
4038.149888549531
 20
1894.331118875967
 10
4038.151132710809
 20
1894.331295991169
 10
4038.152626431147
 20
1894.33144089006
 10
4038.154315723637
 20
1894.331548342334
 10
4038.156139534498
 20
1894.331614462511
 10
4038.158031944717
 20
1894.331636858956
 10
4038.159924557963
 20
1894.331614723282
 10
4038.161748972321
 20
1894.331548860149
 10
4038.163439244563
 20
1894.331441642569
 10
4038.164934287379
 20
1894.331296948568
 10
4038.166180065433
 20
1894.331120008455
  0
LINE
  5
14BA
330
1F
100
AcDbEntity
  8
SANINDUSA
100
AcDbLine
 10
4038.164210262153
 20
1894.334649814787
 30
0.0
 11
4038.169778368805
 21
1894.333687534933
 31
0.0
  0
LINE
  5
14BB
330
1F
100
AcDbEntity
  8
SANINDUSA
100
AcDbLine
 10
4038.169778368805
 20
1894.331206583742
 30
0.0
 11
4038.168941422814
 21
1894.330855034459
 31
0.0
  0
SPLINE
  5
14BC
330
1F
100
AcDbEntity
  8
SANINDUSA
100
AcDbSpline
210
0.0
220
0.0
230
1.0
 70
    12
 71
     3
 72
    13
 73
     9
 74
     0
 42
0.0000000001
 43
0.0000000001
 40
0.0
 40
0.0
 40
0.0
 40
0.0
 40
0.3296989226428994
 40
0.5535778388802028
 40
0.6801719528715795
 40
0.7951116630317205
 40
0.900734720160355
 40
0.9999999999999998
 40
0.9999999999999998
 40
0.9999999999999998
 40
0.9999999999999998
 10
4038.159666071246
 20
1894.331341704206
 30
0.0
 41
1.0
 10
4038.159673390224
 20
1894.331350534114
 30
0.0
 41
1.0
 10
4038.159685679087
 20
1894.331365359886
 30
0.0
 41
1.0
 10
4038.159697545506
 20
1894.331413954781
 30
0.0
 41
1.0
 10
4038.159705284396
 20
1894.331457736876
 30
0.0
 41
1.0
 10
4038.159709736986
 20
1894.331496288941
 30
0.0
 41
1.0
 10
4038.159712386787
 20
1894.331535769446
 30
0.0
 41
1.0
 10
4038.159712677301
 20
1894.331561893193
 30
0.0
 41
1.0
 10
4038.159712818051
 20
1894.331574549751
 30
0.0
 41
1.0
  0
SPLINE
  5
14BD
330
1F
100
AcDbEntity
  8
SANINDUSA
100
AcDbSpline
210
0.0
220
0.0
230
1.0
 70
    12
 71
     3
 72
    13
 73
     9
 74
     0
 42
0.0000000001
 43
0.0000000001
 40
0.0
 40
0.0
 40
0.0
 40
0.0
 40
0.3297001215907915
 40
0.5535798519622527
 40
0.6801615703571029
 40
0.7951111167366884
 40
0.9007345579628529
 40
1.0
 40
1.0
 40
1.0
 40
1.0
 10
4038.155248042727
 20
1894.331256249772
 30
0.0
 41
1.0
 10
4038.15525536179
 20
1894.331265080255
 30
0.0
 41
1.0
 10
4038.155267650795
 20
1894.331279906994
 30
0.0
 41
1.0
 10
4038.155279516288
 20
1894.331328496176
 30
0.0
 41
1.0
 10
4038.155287256532
 20
1894.331372287097
 30
0.0
 41
1.0
 10
4038.155291708214
 20
1894.331410832126
 30
0.0
 41
1.0
 10
4038.155294358306
 20
1894.33145031524
 30
0.0
 41
1.0
 10
4038.155294648794
 20
1894.331476438842
 30
0.0
 41
1.0
 10
4038.155294789532
 20
1894.331489095317
 30
0.0
 41
1.0
  0
SPLINE
  5
14BE
330
1F
100
AcDbEntity
  8
SANINDUSA
100
AcDbSpline
210
0.0
220
0.0
230
1.0
 70
    12
 71
     3
 72
    13
 73
     9
 74
     0
 42
0.0000000001
 43
0.0000000001
 40
0.0
 40
0.0
 40
0.0
 40
0.0
 40
0.3296952471577306
 40
0.5535669404826225
 40
0.6801662989905292
 40
0.7951141459049569
 40
0.9007360255472448
 40
1.0
 40
1.0
 40
1.0
 40
1.0
 10
4038.158037571768
 20
1894.331198653059
 30
0.0
 41
1.0
 10
4038.158044890058
 20
1894.331207483841
 30
0.0
 41
1.0
 10
4038.158057177657
 20
1894.331222310955
 30
0.0
 41
1.0
 10
4038.158069049879
 20
1894.331270898443
 30
0.0
 41
1.0
 10
4038.158076784378
 20
1894.331314687871
 30
0.0
 41
1.0
 10
4038.158081237474
 20
1894.331353235493
 30
0.0
 41
1.0
 10
4038.158083887297
 20
1894.331392718509
 30
0.0
 41
1.0
 10
4038.158084177819
 20
1894.331418842123
 30
0.0
 41
1.0
 10
4038.158084318573
 20
1894.331431498603
 30
0.0
 41
1.0
  0
SPLINE
  5
14BF
330
1F
100
AcDbEntity
  8
SANINDUSA
100
AcDbSpline
210
0.0
220
0.0
230
1.0
 70
    12
 71
     3
 72
    13
 73
     9
 74
     0
 42
0.0000000001
 43
0.0000000001
 40
0.0
 40
0.0
 40
0.0
 40
0.0
 40
0.3296982192448818
 40
0.55357193069466
 40
0.6801724304514322
 40
0.7951118953928031
 40
0.900735029277297
 40
0.9999999999999998
 40
0.9999999999999998
 40
0.9999999999999998
 40
0.9999999999999998
 10
4038.160827100808
 20
1894.331141056345
 30
0.0
 41
1.0
 10
4038.160834419111
 20
1894.331149887007
 30
0.0
 41
1.0
 10
4038.160846706732
 20
1894.331164713918
 30
0.0
 41
1.0
 10
4038.160858578847
 20
1894.331213302412
 30
0.0
 41
1.0
 10
4038.160866313402
 20
1894.331257088954
 30
0.0
 41
1.0
 10
4038.160870765833
 20
1894.331295641
 30
0.0
 41
1.0
 10
4038.160873419284
 20
1894.331335121527
 30
0.0
 41
1.0
 10
4038.160873707822
 20
1894.33136124533
 30
0.0
 41
1.0
 10
4038.160873847613
 20
1894.33137390189
 30
0.0
 41
1.0
  0
SPLINE
  5
14C0
330
1F
100
AcDbEntity
  8
SANINDUSA
100
AcDbSpline
210
0.0
220
0.0
230
1.0
 70
    12
 71
     3
 72
    13
 73
     9
 74
     0
 42
0.0000000001
 43
0.0000000001
 40
0.0
 40
0.0
 40
0.0
 40
0.0
 40
0.3296962290290474
 40
0.553569145700978
 40
0.6801691960111758
 40
0.7951176710582005
 40
0.9007352843410199
 40
1.0
 40
1.0
 40
1.0
 40
1.0
 10
4038.153619545112
 20
1894.331113198624
 30
0.0
 41
1.0
 10
4038.153626862608
 20
1894.331122029446
 30
0.0
 41
1.0
 10
4038.153639148889
 20
1894.331136856641
 30
0.0
 41
1.0
 10
4038.153651021278
 20
1894.331185443894
 30
0.0
 41
1.0
 10
4038.153658756088
 20
1894.331229233657
 30
0.0
 41
1.0
 10
4038.153663208123
 20
1894.331267779796
 30
0.0
 41
1.0
 10
4038.153665861276
 20
1894.331307265286
 30
0.0
 41
1.0
 10
4038.153666151369
 20
1894.331333387874
 30
0.0
 41
1.0
 10
4038.153666291917
 20
1894.331346044169
 30
0.0
 41
1.0
  0
SPLINE
  5
14C1
330
1F
100
AcDbEntity
  8
SANINDUSA
100
AcDbSpline
210
0.0
220
0.0
230
1.0
 70
    12
 71
     3
 72
    13
 73
     9
 74
     0
 42
0.0000000001
 43
0.0000000001
 40
0.0
 40
0.0
 40
0.0
 40
0.0
 40
0.3296964413670687
 40
0.5535676349489895
 40
0.6801667108524338
 40
0.7951143011717658
 40
0.9007362471316387
 40
0.9999999999999998
 40
0.9999999999999998
 40
0.9999999999999998
 40
0.9999999999999998
 10
4038.163616631711
 20
1894.331083455907
 30
0.0
 41
1.0
 10
4038.163623949191
 20
1894.331092288281
 30
0.0
 41
1.0
 10
4038.163636235403
 20
1894.331107118033
 30
0.0
 41
1.0
 10
4038.163648107887
 20
1894.331155704947
 30
0.0
 41
1.0
 10
4038.163655842674
 20
1894.331199494445
 30
0.0
 41
1.0
 10
4038.163660294828
 20
1894.331238042141
 30
0.0
 41
1.0
 10
4038.163662947819
 20
1894.331277525011
 30
0.0
 41
1.0
 10
4038.163663237952
 20
1894.331303648685
 30
0.0
 41
1.0
 10
4038.163663378516
 20
1894.331316305177
 30
0.0
 41
1.0
  0
SPLINE
  5
14C2
330
1F
100
AcDbEntity
  8
SANINDUSA
100
AcDbSpline
210
0.0
220
0.0
230
1.0
 70
    12
 71
     3
 72
    13
 73
     9
 74
     0
 42
0.0000000001
 43
0.0000000001
 40
0.0
 40
0.0
 40
0.0
 40
0.0
 40
0.32969870970034
 40
0.5535733108171283
 40
0.6801614584241395
 40
0.7951112859338951
 40
0.9007345374622001
 40
1.0
 40
1.0
 40
1.0
 40
1.0
 10
4038.156409074152
 20
1894.331055601911
 30
0.0
 41
1.0
 10
4038.156416391632
 20
1894.331064433175
 30
0.0
 41
1.0
 10
4038.156428677883
 20
1894.331079261114
 30
0.0
 41
1.0
 10
4038.15644055019
 20
1894.331127843763
 30
0.0
 41
1.0
 10
4038.156448284525
 20
1894.331171639305
 30
0.0
 41
1.0
 10
4038.156452740412
 20
1894.331210183986
 30
0.0
 41
1.0
 10
4038.156455389558
 20
1894.331249667474
 30
0.0
 41
1.0
 10
4038.156455680163
 20
1894.331275791003
 30
0.0
 41
1.0
 10
4038.156455820957
 20
1894.331288447456
 30
0.0
 41
1.0
  0
SPLINE
  5
14C3
330
1F
100
AcDbEntity
  8
SANINDUSA
100
AcDbSpline
210
0.0
220
0.0
230
1.0
 70
    28
 71
     1
 72
     4
 73
     2
 74
     0
 42
0.0000000001
 43
0.0000000001
 40
0.0
 40
0.0
 40
1.0
 40
1.0
 10
4038.166411022255
 20
1894.331030512081
 30
0.0
 41
1.0
 10
4038.166435165861
 20
1894.33102633603
 30
0.0
 41
1.0
  0
SPLINE
  5
14C4
330
1F
100
AcDbEntity
  8
SANINDUSA
100
AcDbSpline
210
0.0
220
0.0
230
1.0
 70
    28
 71
     1
 72
     4
 73
     2
 74
     0
 42
0.0000000001
 43
0.0000000001
 40
0.0
 40
0.0
 40
1.0
 40
1.0
 10
4038.166406160751
 20
1894.331025859193
 30
0.0
 41
1.0
 10
4038.166411022255
 20
1894.331030512081
 30
0.0
 41
1.0
  0
SPLINE
  5
14C5
330
1F
100
AcDbEntity
  8
SANINDUSA
100
AcDbSpline
210
0.0
220
0.0
230
1.0
 70
    12
 71
     3
 72
    13
 73
     9
 74
     0
 42
0.0000000001
 43
0.0000000001
 40
0.0
 40
0.0
 40
0.0
 40
0.0
 40
0.3296971140326787
 40
0.5535675168269567
 40
0.680167155616645
 40
0.7951146946606786
 40
0.9007362914107627
 40
1.0
 40
1.0
 40
1.0
 40
1.0
 10
4038.159198603192
 20
1894.330998001473
 30
0.0
 41
1.0
 10
4038.159205922069
 20
1894.331006833773
 30
0.0
 41
1.0
 10
4038.159218210598
 20
1894.331021663367
 30
0.0
 41
1.0
 10
4038.159230077893
 20
1894.331070250764
 30
0.0
 41
1.0
 10
4038.159237816413
 20
1894.331114039901
 30
0.0
 41
1.0
 10
4038.159242268756
 20
1894.331152587642
 30
0.0
 41
1.0
 10
4038.159244918754
 20
1894.331192070646
 30
0.0
 41
1.0
 10
4038.159245209254
 20
1894.331218194261
 30
0.0
 41
1.0
 10
4038.159245349998
 20
1894.331230850742
 30
0.0
 41
1.0
  0
SPLINE
  5
14C6
330
1F
100
AcDbEntity
  8
SANINDUSA
100
AcDbSpline
210
0.0
220
0.0
230
1.0
 70
    12
 71
     3
 72
    13
 73
     9
 74
     0
 42
0.0000000001
 43
0.0000000001
 40
0.0
 40
0.0
 40
0.0
 40
0.0
 40
0.0992552948004714
 40
0.204873007657592
 40
0.3198239844256705
 40
0.4464292627678053
 40
0.6702739895381381
 40
1.0
 40
1.0
 40
1.0
 40
1.0
 10
4038.152037792438
 20
1894.331202993022
 30
0.0
 41
1.0
 10
4038.1520375932
 20
1894.331190339147
 30
0.0
 41
1.0
 10
4038.152037181951
 20
1894.331164220264
 30
0.0
 41
1.0
 10
4038.15203432113
 20
1894.331124740991
 30
0.0
 41
1.0
 10
4038.152030037061
 20
1894.331086190895
 30
0.0
 41
1.0
 10
4038.152022842945
 20
1894.331042387418
 30
0.0
 41
1.0
 10
4038.152008671654
 20
1894.330993851954
 30
0.0
 41
1.0
 10
4038.151997625254
 20
1894.330978996126
 30
0.0
 41
1.0
 10
4038.151991045634
 20
1894.330970147477
 30
0.0
 41
1.0
  0
SPLINE
  5
14C7
330
1F
100
AcDbEntity
  8
SANINDUSA
100
AcDbSpline
210
0.0
220
0.0
230
1.0
 70
    12
 71
     3
 72
    13
 73
     9
 74
     0
 42
0.0000000001
 43
0.0000000001
 40
0.0
 40
0.0
 40
0.0
 40
0.0
 40
0.3296992189393078
 40
0.5535783363738679
 40
0.6801725641338338
 40
0.7951209020993338
 40
0.9007346309518565
 40
1.0
 40
1.0
 40
1.0
 40
1.0
 10
4038.161988132233
 20
1894.330940404759
 30
0.0
 41
1.0
 10
4038.161995451225
 20
1894.330949234636
 30
0.0
 41
1.0
 10
4038.162007740108
 20
1894.330964060356
 30
0.0
 41
1.0
 10
4038.162019606422
 20
1894.331012655509
 30
0.0
 41
1.0
 10
4038.162027345665
 20
1894.331056437892
 30
0.0
 41
1.0
 10
4038.162031797595
 20
1894.331094991522
 30
0.0
 41
1.0
 10
4038.162034447899
 20
1894.331134471027
 30
0.0
 41
1.0
 10
4038.162034738325
 20
1894.33116059369
 30
0.0
 41
1.0
 10
4038.162034879039
 20
1894.331173250304
 30
0.0
 41
1.0
  0
SPLINE
  5
14C8
330
1F
100
AcDbEntity
  8
SANINDUSA
100
AcDbSpline
210
0.0
220
0.0
230
1.0
 70
    12
 71
     3
 72
    13
 73
     9
 74
     0
 42
0.0000000001
 43
0.0000000001
 40
0.0
 40
0.0
 40
0.0
 40
0.0
 40
0.3296987449941707
 40
0.5535702552412916
 40
0.6801705203001431
 40
0.7951186279721743
 40
0.9007356015907641
 40
1.0
 40
1.0
 40
1.0
 40
1.0
 10
4038.154780574674
 20
1894.330912547038
 30
0.0
 41
1.0
 10
4038.154787893552
 20
1894.33092137936
 30
0.0
 41
1.0
 10
4038.154800182083
 20
1894.33093620899
 30
0.0
 41
1.0
 10
4038.154812049369
 20
1894.330984796209
 30
0.0
 41
1.0
 10
4038.154819787907
 20
1894.3310285857
 30
0.0
 41
1.0
 10
4038.154824240132
 20
1894.331067131867
 30
0.0
 41
1.0
 10
4038.154826890291
 20
1894.331106617496
 30
0.0
 41
1.0
 10
4038.154827180752
 20
1894.331132740024
 30
0.0
 41
1.0
 10
4038.15482732148
 20
1894.331145396309
 30
0.0
 41
1.0
  0
SPLINE
  5
14C9
330
1F
100
AcDbEntity
  8
SANINDUSA
100
AcDbSpline
210
0.0
220
0.0
230
1.0
 70
    12
 71
     3
 72
    13
 73
     9
 74
     0
 42
0.0000000001
 43
0.0000000001
 40
0.0
 40
0.0
 40
0.0
 40
0.0
 40
0.3296951107046879
 40
0.5535726860329868
 40
0.680165031718195
 40
0.7951131168618227
 40
0.9007358198228414
 40
1.0
 40
1.0
 40
1.0
 40
1.0
 10
4038.164777661274
 20
1894.330882808046
 30
0.0
 41
1.0
 10
4038.164784978889
 20
1894.330891638146
 30
0.0
 41
1.0
 10
4038.164797265488
 20
1894.330906464275
 30
0.0
 41
1.0
 10
4038.164809136826
 20
1894.330955057703
 30
0.0
 41
1.0
 10
4038.164816872676
 20
1894.330998843001
 30
0.0
 41
1.0
 10
4038.164821323632
 20
1894.331037390786
 30
0.0
 41
1.0
 10
4038.164823979831
 20
1894.331076873318
 30
0.0
 41
1.0
 10
4038.164824269568
 20
1894.331102997077
 30
0.0
 41
1.0
 10
4038.164824409942
 20
1894.331115653591
 30
0.0
 41
1.0
  0
SPLINE
  5
14CA
330
1F
100
AcDbEntity
  8
SANINDUSA
100
AcDbSpline
210
0.0
220
0.0
230
1.0
 70
    12
 71
     3
 72
    13
 73
     9
 74
     0
 42
0.0000000001
 43
0.0000000001
 40
0.0
 40
0.0
 40
0.0
 40
0.0
 40
0.32970005605301
 40
0.5535797419216642
 40
0.6801614351546039
 40
0.7951109586845217
 40
0.900734378914861
 40
1.0
 40
1.0
 40
1.0
 40
1.0
 10
4038.157570103714
 20
1894.330854950325
 30
0.0
 41
1.0
 10
4038.157577422778
 20
1894.330863780808
 30
0.0
 41
1.0
 10
4038.157589711782
 20
1894.330878607548
 30
0.0
 41
1.0
 10
4038.157601577275
 20
1894.330927196727
 30
0.0
 41
1.0
 10
4038.157609317519
 20
1894.330970987652
 30
0.0
 41
1.0
 10
4038.157613769202
 20
1894.331009532672
 30
0.0
 41
1.0
 10
4038.157616419295
 20
1894.33104901584
 30
0.0
 41
1.0
 10
4038.157616709782
 20
1894.331075139402
 30
0.0
 41
1.0
 10
4038.157616850519
 20
1894.33108779587
 30
0.0
 41
1.0
  0
SPLINE
  5
14CB
330
1F
100
AcDbEntity
  8
SANINDUSA
100
AcDbSpline
210
0.0
220
0.0
230
1.0
 70
    28
 71
     1
 72
     4
 73
     2
 74
     0
 42
0.0000000001
 43
0.0000000001
 40
0.0
 40
0.0
 40
1.0
 40
1.0
 10
4038.166435165861
 20
1894.33102633603
 30
0.0
 41
1.0
 10
4038.166401299248
 20
1894.331023363249
 30
0.0
 41
1.0
  0
SPLINE
  5
14CC
330
1F
100
AcDbEntity
  8
SANINDUSA
100
AcDbSpline
210
0.0
220
0.0
230
1.0
 70
    28
 71
     1
 72
     4
 73
     2
 74
     0
 42
0.0000000001
 43
0.0000000001
 40
0.0
 40
0.0
 40
1.0
 40
1.0
 10
4038.166401299248
 20
1894.331023363249
 30
0.0
 41
1.0
 10
4038.166406160751
 20
1894.331025859193
 30
0.0
 41
1.0
  0
SPLINE
  5
14CD
330
1F
100
AcDbEntity
  8
SANINDUSA
100
AcDbSpline
210
0.0
220
0.0
230
1.0
 70
    28
 71
     1
 72
     4
 73
     2
 74
     0
 42
0.0000000001
 43
0.0000000001
 40
0.0
 40
0.0
 40
1.0
 40
1.0
 10
4038.166435165861
 20
1894.33102633603
 30
0.0
 41
1.0
 10
4038.166406160751
 20
1894.331025859193
 30
0.0
 41
1.0
  0
SPLINE
  5
14CE
330
1F
100
AcDbEntity
  8
SANINDUSA
100
AcDbSpline
210
0.0
220
0.0
230
1.0
 70
    12
 71
     3
 72
    13
 73
     9
 74
     0
 42
0.0000000001
 43
0.0000000001
 40
0.0
 40
0.0
 40
0.0
 40
0.0
 40
0.3296958594576871
 40
0.5535733865788296
 40
0.6801657050051356
 40
0.7951137653971983
 40
0.9007358411972193
 40
1.0
 40
1.0
 40
1.0
 40
1.0
 10
4038.160359632755
 20
1894.330797353612
 30
0.0
 41
1.0
 10
4038.160366951144
 20
1894.330806183695
 30
0.0
 41
1.0
 10
4038.16037923903
 20
1894.330821009781
 30
0.0
 41
1.0
 10
4038.160391110363
 20
1894.330869603255
 30
0.0
 41
1.0
 10
4038.160398845583
 20
1894.330913388594
 30
0.0
 41
1.0
 10
4038.160403298433
 20
1894.330951936195
 30
0.0
 41
1.0
 10
4038.160405948291
 20
1894.330991419029
 30
0.0
 41
1.0
 10
4038.160406238809
 20
1894.331017542666
 30
0.0
 41
1.0
 10
4038.16040637956
 20
1894.331030199156
 30
0.0
 41
1.0
  0
SPLINE
  5
14CF
330
1F
100
AcDbEntity
  8
SANINDUSA
100
AcDbSpline
210
0.0
220
0.0
230
1.0
 70
    12
 71
     3
 72
    13
 73
     9
 74
     0
 42
0.0000000001
 43
0.0000000001
 40
0.0
 40
0.0
 40
0.0
 40
0.0
 40
0.0992545055624923
 40
0.204871631736589
 40
0.3198211495226535
 40
0.4464253409848762
 40
0.6702582944091413
 40
1.0
 40
1.0
 40
1.0
 40
1.0
 10
4038.150409292961
 20
1894.331059941874
 30
0.0
 41
1.0
 10
4038.150409094736
 20
1894.331047287983
 30
0.0
 41
1.0
 10
4038.15040868558
 20
1894.331021169034
 30
0.0
 41
1.0
 10
4038.150405820185
 20
1894.330981690076
 30
0.0
 41
1.0
 10
4038.150401540364
 20
1894.330943139436
 30
0.0
 41
1.0
 10
4038.150394345439
 20
1894.330899338273
 30
0.0
 41
1.0
 10
4038.150380170278
 20
1894.330850791895
 30
0.0
 41
1.0
 10
4038.150369125235
 20
1894.330835939541
 30
0.0
 41
1.0
 10
4038.150362546155
 20
1894.330827092604
 30
0.0
 41
1.0
  0
SPLINE
  5
14D0
330
1F
100
AcDbEntity
  8
SANINDUSA
100
AcDbSpline
210
0.0
220
0.0
230
1.0
 70
    12
 71
     3
 72
    13
 73
     9
 74
     0
 42
0.0000000001
 43
0.0000000001
 40
0.0
 40
0.0
 40
0.0
 40
0.0
 40
0.0992457763202876
 40
0.2048642196401926
 40
0.3198151709558463
 40
0.446420941292501
 40
0.6702727082061722
 40
1.0
 40
1.0
 40
1.0
 40
1.0
 10
4038.153198822
 20
1894.331002341436
 30
0.0
 41
1.0
 10
4038.153198623752
 20
1894.330989688792
 30
0.0
 41
1.0
 10
4038.153198214526
 20
1894.330963571065
 30
0.0
 41
1.0
 10
4038.153195349218
 20
1894.330924093348
 30
0.0
 41
1.0
 10
4038.153191069442
 20
1894.33088554282
 30
0.0
 41
1.0
 10
4038.153183874021
 20
1894.330841739501
 30
0.0
 41
1.0
 10
4038.153169700745
 20
1894.330793199241
 30
0.0
 41
1.0
 10
4038.153158654594
 20
1894.330778344057
 30
0.0
 41
1.0
 10
4038.153152075196
 20
1894.330769495891
 30
0.0
 41
1.0
  0
SPLINE
  5
14D1
330
1F
100
AcDbEntity
  8
SANINDUSA
100
AcDbSpline
210
0.0
220
0.0
230
1.0
 70
    12
 71
     3
 72
    13
 73
     9
 74
     0
 42
0.0000000001
 43
0.0000000001
 40
0.0
 40
0.0
 40
0.0
 40
0.0
 40
0.3296988315558776
 40
0.5535783768582445
 40
0.6801718364720712
 40
0.7951115148774348
 40
0.9007348449237595
 40
1.0
 40
1.0
 40
1.0
 40
1.0
 10
4038.163149161795
 20
1894.330739756899
 30
0.0
 41
1.0
 10
4038.163156480197
 20
1894.330748586861
 30
0.0
 41
1.0
 10
4038.163168768106
 20
1894.330763412744
 30
0.0
 41
1.0
 10
4038.163180639331
 20
1894.330812007224
 30
0.0
 41
1.0
 10
4038.163188374606
 20
1894.330855789676
 30
0.0
 41
1.0
 10
4038.163192826791
 20
1894.330894341702
 30
0.0
 41
1.0
 10
4038.163195480279
 20
1894.330933822046
 30
0.0
 41
1.0
 10
4038.163195768811
 20
1894.330959945872
 30
0.0
 41
1.0
 10
4038.163195908601
 20
1894.330972602443
 30
0.0
 41
1.0
  0
SPLINE
  5
14D2
330
1F
100
AcDbEntity
  8
SANINDUSA
100
AcDbSpline
210
0.0
220
0.0
230
1.0
 70
    12
 71
     3
 72
    13
 73
     9
 74
     0
 42
0.0000000001
 43
0.0000000001
 40
0.0
 40
0.0
 40
0.0
 40
0.0
 40
0.3296967801877451
 40
0.5535754891689457
 40
0.68016847588209
 40
0.7951176306651
 40
0.9007351183985354
 40
1.0
 40
1.0
 40
1.0
 40
1.0
 10
4038.155941606099
 20
1894.330711899178
 30
0.0
 41
1.0
 10
4038.155948923606
 20
1894.330720729308
 30
0.0
 41
1.0
 10
4038.155961210025
 20
1894.330735555487
 30
0.0
 41
1.0
 10
4038.15597308226
 20
1894.330784148665
 30
0.0
 41
1.0
 10
4038.155980816336
 20
1894.330827934506
 30
0.0
 41
1.0
 10
4038.155985272272
 20
1894.330866480309
 30
0.0
 41
1.0
 10
4038.155987921555
 20
1894.33090596589
 30
0.0
 41
1.0
 10
4038.155988212124
 20
1894.330932088431
 30
0.0
 41
1.0
 10
4038.155988352904
 20
1894.330944744723
 30
0.0
 41
1.0
  0
SPLINE
  5
14D3
330
1F
100
AcDbEntity
  8
SANINDUSA
100
AcDbSpline
210
0.0
220
0.0
230
1.0
 70
    12
 71
     3
 72
    12
 73
     8
 74
     0
 42
0.0000000001
 43
0.0000000001
 40
0.0
 40
0.0
 40
0.0
 40
0.0
 40
0.1183023107501829
 40
0.3387346482104836
 40
0.5591560671225523
 40
0.7795760996092872
 40
0.9999999999999998
 40
0.9999999999999998
 40
0.9999999999999998
 40
0.9999999999999998
 10
4038.165614983598
 20
1894.330737491922
 30
0.0
 41
1.0
 10
4038.165626075494
 20
1894.330734939932
 30
0.0
 41
1.0
 10
4038.165657834887
 20
1894.330727632829
 30
0.0
 41
1.0
 10
4038.165712611403
 20
1894.330749204882
 30
0.0
 41
1.0
 10
4038.165766237656
 20
1894.330796904142
 30
0.0
 41
1.0
 10
4038.165803949204
 20
1894.330866588531
 30
0.0
 41
1.0
 10
4038.165808839083
 20
1894.330918930924
 30
0.0
 41
1.0
 10
4038.165811284044
 20
1894.33094510235
 30
0.0
 41
1.0
  0
SPLINE
  5
14D4
330
1F
100
AcDbEntity
  8
SANINDUSA
100
AcDbSpline
210
0.0
220
0.0
230
1.0
 70
    12
 71
     3
 72
    13
 73
     9
 74
     0
 42
0.0000000001
 43
0.0000000001
 40
0.0
 40
0.0
 40
0.0
 40
0.0
 40
0.3296981888164858
 40
0.5535778543189594
 40
0.6801713819003503
 40
0.7951116096331389
 40
0.9007346942895553
 40
1.0
 40
1.0
 40
1.0
 40
1.0
 10
4038.15873113514
 20
1894.330654302464
 30
0.0
 41
1.0
 10
4038.158738452634
 20
1894.330663132453
 30
0.0
 41
1.0
 10
4038.158750739031
 20
1894.330677958397
 30
0.0
 41
1.0
 10
4038.158762611375
 20
1894.330726552747
 30
0.0
 41
1.0
 10
4038.158770345076
 20
1894.33077033537
 30
0.0
 41
1.0
 10
4038.158774801624
 20
1894.330808887075
 30
0.0
 41
1.0
 10
4038.158777450512
 20
1894.330848367719
 30
0.0
 41
1.0
 10
4038.15877774114
 20
1894.330874491456
 30
0.0
 41
1.0
 10
4038.158777881945
 20
1894.330887148009
 30
0.0
 41
1.0
  0
SPLINE
  5
14D5
330
1F
100
AcDbEntity
  8
SANINDUSA
100
AcDbSpline
210
0.0
220
0.0
230
1.0
 70
    12
 71
     3
 72
    13
 73
     9
 74
     0
 42
0.0000000001
 43
0.0000000001
 40
0.0
 40
0.0
 40
0.0
 40
0.0
 40
0.0992555004196542
 40
0.2048641342436632
 40
0.3198231891861125
 40
0.4464212193911609
 40
0.6702553896669828
 40
0.9999999999999998
 40
0.9999999999999998
 40
0.9999999999999998
 40
0.9999999999999998
 10
4038.151570324385
 20
1894.330859290288
 30
0.0
 41
1.0
 10
4038.15157012542
 20
1894.330846636335
 30
0.0
 41
1.0
 10
4038.151569714752
 20
1894.330820518474
 30
0.0
 41
1.0
 10
4038.151566849484
 20
1894.330781040643
 30
0.0
 41
1.0
 10
4038.151562570411
 20
1894.330742488572
 30
0.0
 41
1.0
 10
4038.151555374265
 20
1894.33069869122
 30
0.0
 41
1.0
 10
4038.151541202833
 20
1894.33065014333
 30
0.0
 41
1.0
 10
4038.151530157087
 20
1894.330635291425
 30
0.0
 41
1.0
 10
4038.151523577581
 20
1894.330626444743
 30
0.0
 41
1.0
  0
SPLINE
  5
14D6
330
1F
100
AcDbEntity
  8
SANINDUSA
100
AcDbSpline
210
0.0
220
0.0
230
1.0
 70
    12
 71
     3
 72
    13
 73
     9
 74
     0
 42
0.0000000001
 43
0.0000000001
 40
0.0
 40
0.0
 40
0.0
 40
0.0
 40
0.3296952707525062
 40
0.5535662891727697
 40
0.680166276101499
 40
0.7951141312422167
 40
0.9007360184433776
 40
0.9999999999999998
 40
0.9999999999999998
 40
0.9999999999999998
 40
0.9999999999999998
 10
4038.16152066418
 20
1894.330596705751
 30
0.0
 41
1.0
 10
4038.161527983072
 20
1894.330605536477
 30
0.0
 41
1.0
 10
4038.161540271668
 20
1894.330620363479
 30
0.0
 41
1.0
 10
4038.161552138877
 20
1894.330668951392
 30
0.0
 41
1.0
 10
4038.161559877401
 20
1894.330712740441
 30
0.0
 41
1.0
 10
4038.161564329743
 20
1894.330751288198
 30
0.0
 41
1.0
 10
4038.161566979741
 20
1894.330790771198
 30
0.0
 41
1.0
 10
4038.161567270242
 20
1894.330816894814
 30
0.0
 41
1.0
 10
4038.161567410985
 20
1894.330829551296
 30
0.0
 41
1.0
  0
SPLINE
  5
14D7
330
1F
100
AcDbEntity
  8
SANINDUSA
100
AcDbSpline
210
0.0
220
0.0
230
1.0
 70
    12
 71
     3
 72
    13
 73
     9
 74
     0
 42
0.0000000001
 43
0.0000000001
 40
0.0
 40
0.0
 40
0.0
 40
0.0
 40
0.0992553839576513
 40
0.2048637689056021
 40
0.3198233734499492
 40
0.4464287655166928
 40
0.6702736933580577
 40
1.0
 40
1.0
 40
1.0
 40
1.0
 10
4038.154359853426
 20
1894.330801693575
 30
0.0
 41
1.0
 10
4038.154359654225
 20
1894.330789039643
 30
0.0
 41
1.0
 10
4038.154359243073
 20
1894.330762921845
 30
0.0
 41
1.0
 10
4038.154356381735
 20
1894.330723443573
 30
0.0
 41
1.0
 10
4038.15435209832
 20
1894.330684891911
 30
0.0
 41
1.0
 10
4038.154344903858
 20
1894.330641088146
 30
0.0
 41
1.0
 10
4038.154330732677
 20
1894.330592552424
 30
0.0
 41
1.0
 10
4038.154319686255
 20
1894.330577696648
 30
0.0
 41
1.0
 10
4038.154313106621
 20
1894.33056884803
 30
0.0
 41
1.0
  0
SPLINE
  5
14D8
330
1F
100
AcDbEntity
  8
SANINDUSA
100
AcDbSpline
210
0.0
220
0.0
230
1.0
 70
    12
 71
     3
 72
    13
 73
     9
 74
     0
 42
0.0000000001
 43
0.0000000001
 40
0.0
 40
0.0
 40
0.0
 40
0.0
 40
0.3296983103488136
 40
0.5535713927280759
 40
0.6801725468341565
 40
0.7951120435362001
 40
0.9007349045089824
 40
1.0
 40
1.0
 40
1.0
 40
1.0
 10
4038.16431019322
 20
1894.330539109038
 30
0.0
 41
1.0
 10
4038.164317512101
 20
1894.330547939644
 30
0.0
 41
1.0
 10
4038.164329800676
 20
1894.330562766445
 30
0.0
 41
1.0
 10
4038.164341667985
 20
1894.330611355354
 30
0.0
 41
1.0
 10
4038.164349406154
 20
1894.330655141538
 30
0.0
 41
1.0
 10
4038.164353858991
 20
1894.330693693624
 30
0.0
 41
1.0
 10
4038.164356508755
 20
1894.330733174311
 30
0.0
 41
1.0
 10
4038.164356799273
 20
1894.330759298036
 30
0.0
 41
1.0
 10
4038.164356940026
 20
1894.330771954582
 30
0.0
 41
1.0
  0
SPLINE
  5
14D9
330
1F
100
AcDbEntity
  8
SANINDUSA
100
AcDbSpline
210
0.0
220
0.0
230
1.0
 70
    12
 71
     3
 72
    13
 73
     9
 74
     0
 42
0.0000000001
 43
0.0000000001
 40
0.0
 40
0.0
 40
0.0
 40
0.0
 40
0.0992545366681817
 40
0.2048765775620556
 40
0.3198266763110078
 40
0.4464309876160715
 40
0.6702579822774311
 40
1.0
 40
1.0
 40
1.0
 40
1.0
 10
4038.157149382466
 20
1894.330744096862
 30
0.0
 41
1.0
 10
4038.157149183212
 20
1894.330731442796
 30
0.0
 41
1.0
 10
4038.157148771919
 20
1894.330705322864
 30
0.0
 41
1.0
 10
4038.157145911273
 20
1894.330665846186
 30
0.0
 41
1.0
 10
4038.157141627038
 20
1894.330627294404
 30
0.0
 41
1.0
 10
4038.157134433438
 20
1894.330583493438
 30
0.0
 41
1.0
 10
4038.157120260253
 20
1894.330534951677
 30
0.0
 41
1.0
 10
4038.157109214961
 20
1894.330520098716
 30
0.0
 41
1.0
 10
4038.157102635661
 20
1894.330511251317
 30
0.0
 41
1.0
  0
SPLINE
  5
14DA
330
1F
100
AcDbEntity
  8
SANINDUSA
100
AcDbSpline
210
0.0
220
0.0
230
1.0
 70
    12
 71
     3
 72
    13
 73
     9
 74
     0
 42
0.0000000001
 43
0.0000000001
 40
0.0
 40
0.0
 40
0.0
 40
0.0
 40
0.3297001536376213
 40
0.5535726203795467
 40
0.6801734263401669
 40
0.7951126069655973
 40
0.9007351774819472
 40
1.0
 40
1.0
 40
1.0
 40
1.0
 10
4038.159892164702
 20
1894.330453650878
 30
0.0
 41
1.0
 10
4038.159899483567
 20
1894.330462483059
 30
0.0
 41
1.0
 10
4038.159911772075
 20
1894.330477312452
 30
0.0
 41
1.0
 10
4038.159923639471
 20
1894.330525900844
 30
0.0
 41
1.0
 10
4038.159931377634
 20
1894.330569687117
 30
0.0
 41
1.0
 10
4038.159935830472
 20
1894.330608239186
 30
0.0
 41
1.0
 10
4038.159938480236
 20
1894.330647719878
 30
0.0
 41
1.0
 10
4038.159938770755
 20
1894.330673843602
 30
0.0
 41
1.0
 10
4038.159938911507
 20
1894.330686500148
 30
0.0
 41
1.0
  0
SPLINE
  5
14DB
330
1F
100
AcDbEntity
  8
SANINDUSA
100
AcDbSpline
210
0.0
220
0.0
230
1.0
 70
    12
 71
     3
 72
    13
 73
     9
 74
     0
 42
0.0000000001
 43
0.0000000001
 40
0.0
 40
0.0
 40
0.0
 40
0.0
 40
0.0992550430979649
 40
0.2048727412657612
 40
0.3198228815872261
 40
0.4464277587033998
 40
0.6702565086175287
 40
1.0
 40
1.0
 40
1.0
 40
1.0
 10
4038.152731353949
 20
1894.330658642427
 30
0.0
 41
1.0
 10
4038.152731155723
 20
1894.330645988538
 30
0.0
 41
1.0
 10
4038.152730746566
 20
1894.330619869592
 30
0.0
 41
1.0
 10
4038.152727881175
 20
1894.330580390607
 30
0.0
 41
1.0
 10
4038.152723601339
 20
1894.330541840081
 30
0.0
 41
1.0
 10
4038.152716406574
 20
1894.330498038829
 30
0.0
 41
1.0
 10
4038.15270223098
 20
1894.330449497401
 30
0.0
 41
1.0
 10
4038.152691186155
 20
1894.330434644333
 30
0.0
 41
1.0
 10
4038.152684607143
 20
1894.330425796883
 30
0.0
 41
1.0
  0
SPLINE
  5
14DC
330
1F
100
AcDbEntity
  8
SANINDUSA
100
AcDbSpline
210
0.0
220
0.0
230
1.0
 70
    12
 71
     3
 72
    15
 73
    11
 74
     0
 42
0.0000000001
 43
0.0000000001
 40
0.0
 40
0.0
 40
0.0
 40
0.0
 40
0.1249980038290666
 40
0.249998365803012
 40
0.3749995630019474
 40
0.499996569918867
 40
0.6249953713858747
 40
0.7499969305044107
 40
0.8749965345894587
 40
1.0
 40
1.0
 40
1.0
 40
1.0
 10
4038.165136552016
 20
1894.330779908077
 30
0.0
 41
1.0
 10
4038.165134805829
 20
1894.330754233577
 30
0.0
 41
1.0
 10
4038.165131313424
 20
1894.330702884093
 30
0.0
 41
1.0
 10
4038.165104464934
 20
1894.330641457733
 30
0.0
 41
1.0
 10
4038.165066089634
 20
1894.330603946579
 30
0.0
 41
1.0
 10
4038.165020444093
 20
1894.330596328165
 30
0.0
 41
1.0
 10
4038.164974807994
 20
1894.330619720127
 30
0.0
 41
1.0
 10
4038.164936430233
 20
1894.330670497532
 30
0.0
 41
1.0
 10
4038.164909581728
 20
1894.33074120419
 30
0.0
 41
1.0
 10
4038.16490608959
 20
1894.330793761546
 30
0.0
 41
1.0
 10
4038.164904343495
 20
1894.33082004063
 30
0.0
 41
1.0
  0
SPLINE
  5
14DD
330
1F
100
AcDbEntity
  8
SANINDUSA
100
AcDbSpline
210
0.0
220
0.0
230
1.0
 70
    12
 71
     3
 72
    13
 73
     9
 74
     0
 42
0.0000000001
 43
0.0000000001
 40
0.0
 40
0.0
 40
0.0
 40
0.0
 40
0.3296965596562353
 40
0.5535672769417508
 40
0.6801588083469186
 40
0.7951146777820936
 40
0.900726673888761
 40
0.9999999999999998
 40
0.9999999999999998
 40
0.9999999999999998
 40
0.9999999999999998
 10
4038.162681693743
 20
1894.330396054165
 30
0.0
 41
1.0
 10
4038.162689012071
 20
1894.330404886303
 30
0.0
 41
1.0
 10
4038.162701299694
 20
1894.330419715645
 30
0.0
 41
1.0
 10
4038.162713171426
 20
1894.330468303911
 30
0.0
 41
1.0
 10
4038.162720906842
 20
1894.330512089717
 30
0.0
 41
1.0
 10
4038.162725359042
 20
1894.330550638749
 30
0.0
 41
1.0
 10
4038.162728009488
 20
1894.330590121834
 30
0.0
 41
1.0
 10
4038.162728299854
 20
1894.330616245637
 30
0.0
 41
1.0
 10
4038.162728440547
 20
1894.330628903435
 30
0.0
 41
1.0
  0
SPLINE
  5
14DE
330
1F
100
AcDbEntity
  8
SANINDUSA
100
AcDbSpline
210
0.0
220
0.0
230
1.0
 70
    12
 71
     3
 72
    13
 73
     9
 74
     0
 42
0.0000000001
 43
0.0000000001
 40
0.0
 40
0.0
 40
0.0
 40
0.0
 40
0.0992550184289981
 40
0.2048726903464458
 40
0.3198228020980658
 40
0.4464276477477125
 40
0.6702723643818236
 40
1.0
 40
1.0
 40
1.0
 40
1.0
 10
4038.155520882988
 20
1894.330601045714
 30
0.0
 41
1.0
 10
4038.155520684764
 20
1894.330588391826
 30
0.0
 41
1.0
 10
4038.155520275608
 20
1894.330562272884
 30
0.0
 41
1.0
 10
4038.155517410206
 20
1894.330522793867
 30
0.0
 41
1.0
 10
4038.155513130417
 20
1894.330484243482
 30
0.0
 41
1.0
 10
4038.155505935159
 20
1894.33044043998
 30
0.0
 41
1.0
 10
4038.155491761361
 20
1894.330391905189
 30
0.0
 41
1.0
 10
4038.155480715498
 20
1894.330377046697
 30
0.0
 41
1.0
 10
4038.155474136183
 20
1894.330368196444
 30
0.0
 41
1.0
  0
SPLINE
  5
14DF
330
1F
100
AcDbEntity
  8
SANINDUSA
100
AcDbSpline
210
0.0
220
0.0
230
1.0
 70
    12
 71
     3
 72
    13
 73
     9
 74
     0
 42
0.0000000001
 43
0.0000000001
 40
0.0
 40
0.0
 40
0.0
 40
0.0
 40
0.0992452038182114
 40
0.2048680443889423
 40
0.3198181930131587
 40
0.4464230792738956
 40
0.6702572610840593
 40
1.0
 40
1.0
 40
1.0
 40
1.0
 10
4038.158310413892
 20
1894.330543445276
 30
0.0
 41
1.0
 10
4038.158310214845
 20
1894.330530792444
 30
0.0
 41
1.0
 10
4038.15830980396
 20
1894.330504673693
 30
0.0
 41
1.0
 10
4038.158306939524
 20
1894.330465198539
 30
0.0
 41
1.0
 10
4038.158302659362
 20
1894.33042664633
 30
0.0
 41
1.0
 10
4038.158295464579
 20
1894.330382845519
 30
0.0
 41
1.0
 10
4038.158281289023
 20
1894.330334299027
 30
0.0
 41
1.0
 10
4038.158270245346
 20
1894.330319446665
 30
0.0
 41
1.0
 10
4038.158263667086
 20
1894.330310599731
 30
0.0
 41
1.0
  0
SPLINE
  5
14E0
330
1F
100
AcDbEntity
  8
SANINDUSA
100
AcDbSpline
210
0.0
220
0.0
230
1.0
 70
    12
 71
     3
 72
    13
 73
     9
 74
     0
 42
0.0000000001
 43
0.0000000001
 40
0.0
 40
0.0
 40
0.0
 40
0.0
 40
0.0992461271071628
 40
0.2048646203247213
 40
0.3198156259470148
 40
0.4464214560964321
 40
0.6702733287650982
 40
1.0
 40
1.0
 40
1.0
 40
1.0
 10
4038.161099942931
 20
1894.330485848562
 30
0.0
 41
1.0
 10
4038.161099743902
 20
1894.330473195928
 30
0.0
 41
1.0
 10
4038.161099333063
 20
1894.330447078262
 30
0.0
 41
1.0
 10
4038.161096468448
 20
1894.330407600465
 30
0.0
 41
1.0
 10
4038.161092188454
 20
1894.33036904995
 30
0.0
 41
1.0
 10
4038.161084993153
 20
1894.330325246625
 30
0.0
 41
1.0
 10
4038.161070819493
 20
1894.330276706431
 30
0.0
 41
1.0
 10
4038.161059774707
 20
1894.330261851202
 30
0.0
 41
1.0
 10
4038.161053196127
 20
1894.330253003017
 30
0.0
 41
1.0
  0
SPLINE
  5
14E1
330
1F
100
AcDbEntity
  8
SANINDUSA
100
AcDbSpline
210
0.0
220
0.0
230
1.0
 70
    12
 71
     3
 72
    12
 73
     8
 74
     0
 42
0.0000000001
 43
0.0000000001
 40
0.0
 40
0.0
 40
0.0
 40
0.0
 40
0.1183060155678284
 40
0.338737426790459
 40
0.5591579195107364
 40
0.7795770258115056
 40
1.0
 40
1.0
 40
1.0
 40
1.0
 10
4038.162938500354
 20
1894.330351063834
 30
0.0
 41
1.0
 10
4038.162949592911
 20
1894.330348511809
 30
0.0
 41
1.0
 10
4038.162981353461
 20
1894.330341204771
 30
0.0
 41
1.0
 10
4038.1630361299
 20
1894.33036277673
 30
0.0
 41
1.0
 10
4038.163089756308
 20
1894.330410476071
 30
0.0
 41
1.0
 10
4038.163127467814
 20
1894.330480160439
 30
0.0
 41
1.0
 10
4038.163132357699
 20
1894.330532502834
 30
0.0
 41
1.0
 10
4038.163134802664
 20
1894.330558674262
 30
0.0
 41
1.0
  0
SPLINE
  5
14E2
330
1F
100
AcDbEntity
  8
SANINDUSA
100
AcDbSpline
210
0.0
220
0.0
230
1.0
 70
    12
 71
     3
 72
    12
 73
     8
 74
     0
 42
0.0000000001
 43
0.0000000001
 40
0.0
 40
0.0
 40
0.0
 40
0.0
 40
0.2280667590457612
 40
0.4561378996700727
 40
0.6842126073994224
 40
0.9122853829971148
 40
1.0
 40
1.0
 40
1.0
 40
1.0
 10
4038.154136660108
 20
1894.330479448514
 30
0.0
 41
1.0
 10
4038.154138402663
 20
1894.330453197675
 30
0.0
 41
1.0
 10
4038.154141887804
 20
1894.330400695493
 30
0.0
 41
1.0
 10
4038.154168779692
 20
1894.33032958534
 30
0.0
 41
1.0
 10
4038.154206993206
 20
1894.330280345849
 30
0.0
 41
1.0
 10
4038.15424375617
 20
1894.33025718354
 30
0.0
 41
1.0
 10
4038.154264179417
 20
1894.330262334598
 30
0.0
 41
1.0
 10
4038.154269852276
 20
1894.330263765381
 30
0.0
 41
1.0
  0
SPLINE
  5
14E3
330
1F
100
AcDbEntity
  8
SANINDUSA
100
AcDbSpline
210
0.0
220
0.0
230
1.0
 70
    28
 71
     1
 72
     4
 73
     2
 74
     0
 42
0.0000000001
 43
0.0000000001
 40
0.0
 40
0.0
 40
1.0
 40
1.0
 10
4038.156630306104
 20
1894.330165052639
 30
0.0
 41
1.0
 10
4038.156606160636
 20
1894.330169224964
 30
0.0
 41
1.0
  0
SPLINE
  5
14E4
330
1F
100
AcDbEntity
  8
SANINDUSA
100
AcDbSpline
210
0.0
220
0.0
230
1.0
 70
    12
 71
     3
 72
    13
 73
     9
 74
     0
 42
0.0000000001
 43
0.0000000001
 40
0.0
 40
0.0
 40
0.0
 40
0.0
 40
0.0992459860212975
 40
0.2048640090674886
 40
0.3198238479731818
 40
0.4464222215913865
 40
0.670273021164539
 40
0.9999999999999998
 40
0.9999999999999998
 40
0.9999999999999998
 40
0.9999999999999998
 10
4038.156681914414
 20
1894.330400394128
 30
0.0
 41
1.0
 10
4038.156681715161
 20
1894.330387741476
 30
0.0
 41
1.0
 10
4038.156681303865
 20
1894.330361623814
 30
0.0
 41
1.0
 10
4038.156678442891
 20
1894.330322145244
 30
0.0
 41
1.0
 10
4038.156674159496
 20
1894.330283592657
 30
0.0
 41
1.0
 10
4038.156666964346
 20
1894.330239792946
 30
0.0
 41
1.0
 10
4038.156652794045
 20
1894.330191251255
 30
0.0
 41
1.0
 10
4038.156641747344
 20
1894.330176396504
 30
0.0
 41
1.0
 10
4038.156635167609
 20
1894.330167548583
 30
0.0
 41
1.0
  0
SPLINE
  5
14E5
330
1F
100
AcDbEntity
  8
SANINDUSA
100
AcDbSpline
210
0.0
220
0.0
230
1.0
 70
    28
 71
     1
 72
     4
 73
     2
 74
     0
 42
0.0000000001
 43
0.0000000001
 40
0.0
 40
0.0
 40
1.0
 40
1.0
 10
4038.156606160636
 20
1894.330169224964
 30
0.0
 41
1.0
 10
4038.156635167609
 20
1894.330167548583
 30
0.0
 41
1.0
  0
SPLINE
  5
14E6
330
1F
100
AcDbEntity
  8
SANINDUSA
100
AcDbSpline
210
0.0
220
0.0
230
1.0
 70
    28
 71
     1
 72
     4
 73
     2
 74
     0
 42
0.0000000001
 43
0.0000000001
 40
0.0
 40
0.0
 40
1.0
 40
1.0
 10
4038.156664174581
 20
1894.33016802542
 30
0.0
 41
1.0
 10
4038.156630306104
 20
1894.330165052639
 30
0.0
 41
1.0
  0
SPLINE
  5
14E7
330
1F
100
AcDbEntity
  8
SANINDUSA
100
AcDbSpline
210
0.0
220
0.0
230
1.0
 70
    12
 71
     3
 72
    12
 73
     8
 74
     0
 42
0.0000000001
 43
0.0000000001
 40
0.0
 40
0.0
 40
0.0
 40
0.0
 40
0.1183060155678284
 40
0.338737426790459
 40
0.5591579195107364
 40
0.7795770258115056
 40
1.0
 40
1.0
 40
1.0
 40
1.0
 10
4038.159100987548
 20
1894.330165283607
 30
0.0
 41
1.0
 10
4038.159112080105
 20
1894.330162731581
 30
0.0
 41
1.0
 10
4038.159143840655
 20
1894.330155424544
 30
0.0
 41
1.0
 10
4038.159198617094
 20
1894.330176996502
 30
0.0
 41
1.0
 10
4038.159252243501
 20
1894.330224695844
 30
0.0
 41
1.0
 10
4038.159289955008
 20
1894.330294380212
 30
0.0
 41
1.0
 10
4038.159294844894
 20
1894.330346722608
 30
0.0
 41
1.0
 10
4038.159297289857
 20
1894.330372894035
 30
0.0
 41
1.0
  0
SPLINE
  5
14E8
330
1F
100
AcDbEntity
  8
SANINDUSA
100
AcDbSpline
210
0.0
220
0.0
230
1.0
 70
    28
 71
     1
 72
     4
 73
     2
 74
     0
 42
0.0000000001
 43
0.0000000001
 40
0.0
 40
0.0
 40
1.0
 40
1.0
 10
4038.156630306104
 20
1894.330165052639
 30
0.0
 41
1.0
 10
4038.156635167609
 20
1894.330167548583
 30
0.0
 41
1.0
  0
LWPOLYLINE
  5
14E9
330
1F
100
AcDbEntity
  8
SANINDUSA
100
AcDbPolyline
 90
        3
 70
   128
 43
0.0
 10
4038.150302203903
 20
1894.330717632399
 10
4038.151526738489
 20
1894.330544749127
 10
4038.152319165478
 20
1894.330462427662
  0
LINE
  5
14EA
330
1F
100
AcDbEntity
  8
SANINDUSA
100
AcDbLine
 10
4038.153266920281
 20
1894.330384913804
 30
0.0
 11
4038.154102530259
 21
1894.330331758283
 31
0.0
  0
LINE
  5
14EB
330
1F
100
AcDbEntity
  8
SANINDUSA
100
AcDbLine
 10
4038.154724914615
 20
1894.330300090237
 30
0.0
 11
4038.156129329622
 21
1894.330250479163
 31
0.0
  0
LWPOLYLINE
  5
14EC
330
1F
100
AcDbEntity
  8
SANINDUSA
100
AcDbPolyline
 90
        3
 70
   128
 43
0.0
 10
4038.1573670102
 20
1894.330229541139
 10
4038.158325499455
 20
1894.330227160679
 10
4038.158706797818
 20
1894.330229529963
  0
LWPOLYLINE
  5
14ED
330
1F
100
AcDbEntity
  8
SANINDUSA
100
AcDbPolyline
 90
        3
 70
   128
 43
0.0
 10
4038.159258228326
 20
1894.330236324893
 10
4038.160172472307
 20
1894.330256560669
 10
4038.160279537151
 20
1894.330259686188
  0
LINE
  5
14EE
330
1F
100
AcDbEntity
  8
SANINDUSA
100
AcDbLine
 10
4038.161981591399
 20
1894.330332262337
 30
0.0
 11
4038.162745807299
 21
1894.330380486801
 31
0.0
  0
LWPOLYLINE
  5
14EF
330
1F
100
AcDbEntity
  8
SANINDUSA
100
AcDbPolyline
 90
        3
 70
   128
 43
0.0
 10
4038.16311993503
 20
1894.330408213512
 10
4038.163552467311
 20
1894.330444043355
 10
4038.164922254691
 20
1894.330590577649
  0
LWPOLYLINE
  5
14F0
330
1F
100
AcDbEntity
  8
SANINDUSA
100
AcDbPolyline
 90
        3
 70
   128
 43
0.0
 10
4038.165088443617
 20
1894.330612676071
 10
4038.166092867562
 20
1894.330776626097
 10
4038.166839922378
 20
1894.330956855641
  0
LWPOLYLINE
  5
14F1
330
1F
100
AcDbEntity
  8
SANINDUSA
100
AcDbPolyline
 90
        3
 70
   128
 43
0.0
 10
4038.149114402542
 20
1894.330995472
 10
4038.149374934444
 20
1894.330916626231
 10
4038.150302203903
 20
1894.330717632399
  0
LINE
  5
14F2
330
1F
100
AcDbEntity
  8
SANINDUSA
100
AcDbLine
 10
4038.166185734513
 20
1894.331004203507
 30
0.0
 11
4038.165774003934
 21
1894.33089346554
 31
0.0
  0
LINE
  5
14F3
330
1F
100
AcDbEntity
  8
SANINDUSA
100
AcDbLine
 10
4038.165278207874
 20
1894.330791815426
 30
0.0
 11
4038.165123358434
 21
1894.330764608133
 31
0.0
  0
LINE
  5
14F4
330
1F
100
AcDbEntity
  8
SANINDUSA
100
AcDbLine
 10
4038.160277542433
 20
1894.330354955441
 30
0.0
 11
4038.159376227654
 21
1894.330331722245
 31
0.0
  0
LWPOLYLINE
  5
14F5
330
1F
100
AcDbEntity
  8
SANINDUSA
100
AcDbPolyline
 90
        3
 70
   128
 43
0.0
 10
4038.154059213186
 20
1894.330436909424
 10
4038.153493423545
 20
1894.330475816355
 10
4038.153379200557
 20
1894.330484514908
  0
LINE
  5
14F6
330
1F
100
AcDbEntity
  8
SANINDUSA
100
AcDbLine
 10
4038.137537572355
 20
1894.354811691374
 30
0.0
 11
4038.147616337514
 21
1894.354811691374
 31
0.0
  0
LINE
  5
14F7
330
1F
100
AcDbEntity
  8
SANINDUSA
100
AcDbLine
 10
4038.168480431235
 20
1894.354811691374
 30
0.0
 11
4038.178537572354
 21
1894.354811691374
 31
0.0
  0
LWPOLYLINE
  5
14FB
330
1F
100
AcDbEntity
  8
SANINDUSA
100
AcDbPolyline
 90
        3
 70
   128
 43
0.0
 10
4038.146321895133
 20
1894.354673379885
 10
4038.146321897926
 20
1894.354673387335
 10
4038.146381471837
 20
1894.354572446869
  0
LWPOLYLINE
  5
14FC
330
1F
100
AcDbEntity
  8
SANINDUSA
100
AcDbPolyline
 90
        5
 70
   128
 43
0.0
 10
4038.169693792769
 20
1894.354586677478
 10
4038.169730673144
 20
1894.354703502582
 10
4038.169753237227
 20
1894.354673394786
 10
4038.169753240953
 20
1894.354673394786
 10
4038.169753240953
 20
1894.354673394786
  0
SPLINE
  5
14FF
330
1F
100
AcDbEntity
  8
SANINDUSA
100
AcDbSpline
210
0.0
220
0.0
230
1.0
 70
    12
 71
     3
 72
     9
 73
     5
 74
     0
 42
0.0000000001
 43
0.0000000001
 40
0.0
 40
0.0
 40
0.0
 40
0.0
 40
0.5336395724924561
 40
1.0
 40
1.0
 40
1.0
 40
1.0
 10
4038.169746647189
 20
1894.339684279488
 30
0.0
 41
1.0
 10
4038.16881384373
 20
1894.339583343519
 30
0.0
 41
1.0
 10
4038.167065840947
 20
1894.339394197185
 30
0.0
 41
1.0
 10
4038.165312311996
 20
1894.33926858052
 30
0.0
 41
1.0
 10
4038.164494535485
 20
1894.339209997879
 30
0.0
 41
1.0
  0
ARC
  5
1500
330
1F
100
AcDbEntity
  8
SANINDUSA
100
AcDbCircle
 10
4038.158037614392
 20
1894.251292081775
 30
0.0
 40
0.0881547039362381
100
AcDbArc
 50
85.79958854489669
 51
94.20037840644555
  0
SPLINE
  5
1501
330
1F
100
AcDbEntity
  8
SANINDUSA
100
AcDbSpline
210
0.0
220
0.0
230
1.0
 70
    12
 71
     3
 72
     9
 73
     5
 74
     0
 42
0.0000000001
 43
0.0000000001
 40
0.0
 40
0.0
 40
0.0
 40
0.0
 40
0.4658638586383233
 40
1.0
 40
1.0
 40
1.0
 40
1.0
 10
4038.151580744023
 20
1894.339210001604
 30
0.0
 41
1.0
 10
4038.150763817406
 20
1894.3392685227
 30
0.0
 41
1.0
 10
4038.149010243694
 20
1894.339394141151
 30
0.0
 41
1.0
 10
4038.147262192046
 20
1894.339583262787
 30
0.0
 41
1.0
 10
4038.146328494484
 20
1894.339684279488
 30
0.0
 41
1.0
  0
SPLINE
  5
1502
330
1F
100
AcDbEntity
  8
SANINDUSA
100
AcDbSpline
210
0.0
220
0.0
230
1.0
 70
    12
 71
     3
 72
    11
 73
     7
 74
     0
 42
0.0000000001
 43
0.0000000001
 40
0.0
 40
0.0
 40
0.0
 40
0.0
 40
0.2499999365655922
 40
0.49999968508052
 40
0.7499996852772135
 40
1.0
 40
1.0
 40
1.0
 40
1.0
 10
4038.146328374343
 20
1894.339683817552
 30
0.0
 41
1.0
 10
4038.145971237241
 20
1894.339767875647
 30
0.0
 41
1.0
 10
4038.145256963306
 20
1894.339935991774
 30
0.0
 41
1.0
 10
4038.144390602082
 20
1894.340645806076
 30
0.0
 41
1.0
 10
4038.14379302507
 20
1894.34158897856
 30
0.0
 41
1.0
 10
4038.143718000566
 20
1894.342312090127
 30
0.0
 41
1.0
 10
4038.143680488291
 20
1894.342673646139
 30
0.0
 41
1.0
  0
LWPOLYLINE
  5
1503
330
1F
100
AcDbEntity
  8
SANINDUSA
100
AcDbPolyline
 90
       11
 70
   128
 43
0.0
 10
4038.143680488291
 20
1894.342673646139
 10
4038.143680740679
 20
1894.342674089448
 10
4038.143819801109
 20
1894.343201210575
 10
4038.143934988016
 20
1894.344143850581
 10
4038.144024242247
 20
1894.345450835155
 10
4038.144075523661
 20
1894.346973588542
 10
4038.144081334183
 20
1894.348531478868
 10
4038.144040284278
 20
1894.349936151729
 10
4038.143957435685
 20
1894.351016359256
 10
4038.14384366625
 20
1894.351645061599
 10
4038.143711568387
 20
1894.351758355127
  0
SPLINE
  5
1504
330
1F
100
AcDbEntity
  8
SANINDUSA
100
AcDbSpline
210
0.0
220
0.0
230
1.0
 70
    12
 71
     3
 72
    10
 73
     6
 74
     0
 42
0.0000000001
 43
0.0000000001
 40
0.0
 40
0.0
 40
0.0
 40
0.0
 40
0.4927822923666551
 40
0.9855669148338584
 40
1.0
 40
1.0
 40
1.0
 40
1.0
 10
4038.146321895133
 20
1894.354673379885
 30
0.0
 41
1.0
 10
4038.145979050697
 20
1894.354589367586
 30
0.0
 41
1.0
 10
4038.145293360205
 20
1894.354421342591
 30
0.0
 41
1.0
 10
4038.14464327086
 20
1894.354003648466
 30
0.0
 41
1.0
 10
4038.144454329678
 20
1894.353691904608
 30
0.0
 41
1.0
 10
4038.14444895328
 20
1894.35368303381
 30
0.0
 41
1.0
  0
SPLINE
  5
1505
330
1F
100
AcDbEntity
  8
SANINDUSA
100
AcDbSpline
210
0.0
220
0.0
230
1.0
 70
    12
 71
     3
 72
    10
 73
     6
 74
     0
 42
0.0000000001
 43
0.0000000001
 40
0.0
 40
0.0
 40
0.0
 40
0.0
 40
0.4969478993488309
 40
0.9938974769038226
 40
1.0
 40
1.0
 40
1.0
 40
1.0
 10
4038.169753240953
 20
1894.354673394786
 30
0.0
 41
1.0
 10
4038.170095871018
 20
1894.354589229477
 30
0.0
 41
1.0
 10
4038.170781132307
 20
1894.354420898577
 30
0.0
 41
1.0
 10
4038.171427929251
 20
1894.354008215399
 30
0.0
 41
1.0
 10
4038.171614487235
 20
1894.353702161797
 30
0.0
 41
1.0
 10
4038.171616750369
 20
1894.353698449062
 30
0.0
 41
1.0
  0
LWPOLYLINE
  5
1506
330
1F
100
AcDbEntity
  8
SANINDUSA
100
AcDbPolyline
 90
       11
 70
   128
 43
0.0
 10
4038.172363570491
 20
1894.351758362578
 10
4038.172337418953
 20
1894.35177828543
 10
4038.172207071045
 20
1894.351560065375
 10
4038.172098460207
 20
1894.350835496412
 10
4038.172024010281
 20
1894.349699416981
 10
4038.171991574177
 20
1894.348291607426
 10
4038.172003625492
 20
1894.346778264122
 10
4038.172057232419
 20
1894.345327639805
 10
4038.172145447293
 20
1894.344086581693
 10
4038.172263609776
 20
1894.343153359221
 10
4038.172394658039
 20
1894.342673642413
  0
SPLINE
  5
1507
330
1F
100
AcDbEntity
  8
SANINDUSA
100
AcDbSpline
210
0.0
220
0.0
230
1.0
 70
    12
 71
     3
 72
    11
 73
     7
 74
     0
 42
0.0000000001
 43
0.0000000001
 40
0.0
 40
0.0
 40
0.0
 40
0.0
 40
0.2499998344419132
 40
0.4999998170121779
 40
0.7499998253851816
 40
1.0
 40
1.0
 40
1.0
 40
1.0
 10
4038.169746643464
 20
1894.339684041069
 30
0.0
 41
1.0
 10
4038.170103780502
 20
1894.339768099271
 30
0.0
 41
1.0
 10
4038.170818054791
 20
1894.339936215723
 30
0.0
 41
1.0
 10
4038.171684417338
 20
1894.340646029162
 30
0.0
 41
1.0
 10
4038.17228199589
 20
1894.341589201763
 30
0.0
 41
1.0
 10
4038.172357019541
 20
1894.342312313612
 30
0.0
 41
1.0
 10
4038.172394531378
 20
1894.342673869656
 30
0.0
 41
1.0
  0
LWPOLYLINE
  5
1508
330
1F
100
AcDbEntity
  8
SANINDUSA
100
AcDbPolyline
 90
       12
 70
   128
 43
0.0
 10
4038.135272735911
 20
1894.269811691569
 10
4038.135412835116
 20
1894.276291356274
 10
4038.135580931156
 20
1894.282711901554
 10
4038.135775093986
 20
1894.288978227732
 10
4038.136034525763
 20
1894.29604188338
 10
4038.136328225323
 20
1894.302764531077
 10
4038.136653022905
 20
1894.309018464611
 10
4038.13700725331
 20
1894.314712291436
 10
4038.137392229931
 20
1894.319835139291
 10
4038.137804308972
 20
1894.324293041454
 10
4038.138243734902
 20
1894.328035713957
 10
4038.138251478383
 20
1894.328085658924
  0
LINE
  5
150A
330
1F
100
AcDbEntity
  8
SANINDUSA
100
AcDbLine
 10
4038.137510814304
 20
1894.269811691569
 30
0.0
 11
4038.135272735911
 21
1894.269811691569
 31
0.0
  0
LWPOLYLINE
  5
150C
330
1F
100
AcDbEntity
  8
SANINDUSA
100
AcDbPolyline
 90
       11
 70
   128
 43
0.0
 10
4038.17783141003
 20
1894.328035710232
 10
4038.178270837823
 20
1894.324293034004
 10
4038.178682918259
 20
1894.319835128115
 10
4038.179067893485
 20
1894.314712272809
 10
4038.179422123889
 20
1894.309018440397
 10
4038.179746920774
 20
1894.302764501275
 10
4038.180040622661
 20
1894.296041849853
 10
4038.180300051878
 20
1894.288978190945
 10
4038.180494214008
 20
1894.282711876408
 10
4038.180662310281
 20
1894.276291344167
 10
4038.180802410999
 20
1894.269811691569
  0
LINE
  5
150D
330
1F
100
AcDbEntity
  8
SANINDUSA
100
AcDbLine
 10
4038.180802410999
 20
1894.269811691569
 30
0.0
 11
4038.178564200708
 21
1894.269811691569
 31
0.0
  0
LINE
  5
150E
330
1F
100
AcDbEntity
  8
SANINDUSA
100
AcDbLine
 10
4038.136305748778
 20
1894.353340123738
 30
0.0
 11
4038.13455497643
 21
1894.269811691569
 31
0.0
  0
LINE
  5
150F
330
1F
100
AcDbEntity
  8
SANINDUSA
100
AcDbLine
 10
4038.136317376543
 20
1894.353340114752
 30
0.0
 11
4038.136305748778
 21
1894.353340123738
 31
0.0
  0
LINE
  5
1510
330
1F
100
AcDbEntity
  8
SANINDUSA
100
AcDbLine
 10
4038.136229791642
 20
1894.348345713841
 30
0.0
 11
4038.136317376543
 21
1894.353340114752
 31
0.0
  0
LWPOLYLINE
  5
1511
330
1F
100
AcDbEntity
  8
SANINDUSA
100
AcDbPolyline
 90
       13
 70
   128
 43
0.0
 10
4038.137041440765
 20
1894.342031540201
 10
4038.136835165619
 20
1894.341995669381
 10
4038.13665109693
 20
1894.342654766367
 10
4038.136482655136
 20
1894.343968393133
 10
4038.136379409647
 20
1894.345211552308
 10
4038.136316536292
 20
1894.346181770639
 10
4038.136278443103
 20
1894.346871306972
 10
4038.136255549099
 20
1894.347340056525
 10
4038.136242017913
 20
1894.34765599467
 10
4038.136234301673
 20
1894.347874218451
 10
4038.136228811061
 20
1894.348136810438
 10
4038.136228645053
 20
1894.34825046532
 10
4038.136229791744
 20
1894.348345713542
  0
LINE
  5
1513
330
1F
100
AcDbEntity
  8
SANINDUSA
100
AcDbLine
 10
4038.13455497643
 20
1894.269811691569
 30
0.0
 11
4038.135272735911
 21
1894.269811691569
 31
0.0
  0
LINE
  5
1514
330
1F
100
AcDbEntity
  8
SANINDUSA
100
AcDbLine
 10
4038.179769395931
 20
1894.353340123738
 30
0.0
 11
4038.181520166406
 21
1894.269811691569
 31
0.0
  0
LINE
  5
1515
330
1F
100
AcDbEntity
  8
SANINDUSA
100
AcDbLine
 10
4038.180802410999
 20
1894.269811691569
 30
0.0
 11
4038.181520166406
 21
1894.269811691569
 31
0.0
  0
LWPOLYLINE
  5
1517
330
1F
100
AcDbEntity
  8
SANINDUSA
100
AcDbPolyline
 90
        9
 70
   128
 43
0.0
 10
4038.179845354119
 20
1894.348345713542
 10
4038.179846620718
 20
1894.348218658791
 10
4038.179845577636
 20
1894.348073685394
 10
4038.179834129819
 20
1894.347681773679
 10
4038.17977356405
 20
1894.346441795902
 10
4038.179629141995
 20
1894.344363460169
 10
4038.179456724384
 20
1894.34285069801
 10
4038.179258609722
 20
1894.342031041012
 10
4038.17903370277
 20
1894.342031540201
  0
LWPOLYLINE
  5
1518
330
1F
100
AcDbEntity
  8
SANINDUSA
100
AcDbPolyline
 90
        3
 70
   128
 43
0.0
 10
4038.179757768819
 20
1894.353340113388
 10
4038.179764072011
 20
1894.352959090696
 10
4038.179845354119
 20
1894.348345713542
  0
LINE
  5
1519
330
1F
100
AcDbEntity
  8
SANINDUSA
100
AcDbLine
 10
4038.179757768165
 20
1894.353340114752
 30
0.0
 11
4038.179769395931
 21
1894.353340123738
 31
0.0
  0
LINE
  5
151A
330
1F
100
AcDbEntity
  8
SANINDUSA
100
AcDbLine
 10
4038.178564200708
 20
1894.269811691569
 30
0.0
 11
4038.137510814304
 21
1894.269811691569
 31
0.0
  0
LINE
  5
151B
330
1F
100
AcDbEntity
  8
SANINDUSA
100
AcDbLine
 10
4038.170453640232
 20
1894.337690701561
 30
0.0
 11
4038.170037573734
 21
1894.337360424773
 31
0.0
  0
ARC
  5
151C
330
1F
100
AcDbEntity
  8
SANINDUSA
100
AcDbCircle
 10
4038.179833699252
 20
1894.348322935744
 30
0.0
 40
0.0000255864026272
100
AcDbArc
 50
62.90223359206549
 51
73.88350168658774
  0
ARC
  5
151D
330
1F
100
AcDbEntity
  8
SANINDUSA
100
AcDbCircle
 10
4038.136241385586
 20
1894.348323091637
 30
0.0
 40
0.0000254198298838
100
AcDbArc
 50
106.0829042063486
 51
117.1353739902091
  0
LINE
  5
151E
330
1F
100
AcDbEntity
  8
SANINDUSA
100
AcDbLine
 10
4038.168454001257
 20
1894.354811692463
 30
0.0
 11
4038.170148283753
 21
1894.354811691374
 31
0.0
  0
LINE
  5
151F
330
1F
100
AcDbEntity
  8
SANINDUSA
100
AcDbLine
 10
4038.145926860954
 20
1894.354811691374
 30
0.0
 11
4038.147616337514
 21
1894.354811691374
 31
0.0
  0
ARC
  5
1521
330
1F
100
AcDbEntity
  8
SANINDUSA
100
AcDbCircle
 10
4038.1782572291
 20
1894.353312759369
 30
0.0
 40
0.0014989334236186
100
AcDbArc
 50
1.097489577610123
 51
89.96197095757251
  0
LWPOLYLINE
  5
1522
330
1F
100
AcDbEntity
  8
SANINDUSA
100
AcDbPolyline
 90
        3
 70
   128
 43
0.0
 10
4038.136319258082
 20
1894.353341469394
 10
4038.136313236384
 20
1894.35296170585
 10
4038.136234343583
 20
1894.348347516583
  0
ARC
  5
1523
330
1F
100
AcDbEntity
  8
SANINDUSA
100
AcDbCircle
 10
4038.137817915442
 20
1894.35331276048
 30
0.0
 40
0.0014989323140509
100
AcDbArc
 50
90.03806757793503
 51
178.9025520527543
  0
LINE
  5
1524
330
1F
100
AcDbEntity
  8
SANINDUSA
100
AcDbLine
 10
4038.181520166406
 20
1894.269811691569
 30
0.0
 11
4038.181095792512
 21
1894.269811691569
 31
0.0
  0
LINE
  5
1525
330
1F
100
AcDbEntity
  8
SANINDUSA
100
AcDbLine
 10
4038.134964569653
 20
1894.269811691569
 30
0.0
 11
4038.13455497643
 21
1894.269811691569
 31
0.0
  0
LINE
  5
1526
330
1F
100
AcDbEntity
  8
SANINDUSA
100
AcDbLine
 10
4038.179755886541
 20
1894.353341472763
 30
0.0
 11
4038.179757768165
 21
1894.353340114752
 31
0.0
  0
LINE
  5
1527
330
1F
100
AcDbEntity
  8
SANINDUSA
100
AcDbLine
 10
4038.136319258167
 20
1894.353341472763
 30
0.0
 11
4038.136317376543
 21
1894.353340114752
 31
0.0
  0
ARC
  5
1528
330
1F
100
AcDbEntity
  8
SANINDUSA
100
AcDbCircle
 10
4038.178258608222
 20
1894.353312273489
 30
0.0
 40
0.0014994190730846
100
AcDbArc
 50
1.063878924449891
 51
89.97909458265935
  0
ARC
  5
1529
330
1F
100
AcDbEntity
  8
SANINDUSA
100
AcDbCircle
 10
4038.137816535845
 20
1894.353312274845
 30
0.0
 40
0.0014994177171864
100
AcDbArc
 50
90.02085458382673
 51
178.9361719181944
  0
ARC
  5
152A
330
1F
100
AcDbEntity
  8
SANINDUSA
100
AcDbCircle
 10
4038.178270234853
 20
1894.353312273345
 30
0.0
 40
0.0014994192146155
100
AcDbArc
 50
1.064169084650663
 51
89.97937926074419
  0
ARC
  5
152B
330
1F
100
AcDbEntity
  8
SANINDUSA
100
AcDbCircle
 10
4038.137804909016
 20
1894.353312273717
 30
0.0
 40
0.0014994188425599
100
AcDbArc
 50
90.02065127584032
 51
178.9358448833153
  0
LWPOLYLINE
  5
152C
330
1F
100
AcDbEntity
  8
SANINDUSA
100
AcDbPolyline
 90
        4
 70
   128
 43
0.0
 10
4038.159459742317
 20
1894.511405164228
 10
4038.159439215967
 20
1894.511671313868
 10
4038.159415932903
 20
1894.511481204854
 10
4038.159394631693
 20
1894.510727682934
  0
LWPOLYLINE
  5
152D
330
1F
100
AcDbEntity
  8
SANINDUSA
100
AcDbPolyline
 90
        4
 70
   128
 43
0.0
 10
4038.156083383197
 20
1894.510727682934
 10
4038.156065470139
 20
1894.511403063164
 10
4038.15604562738
 20
1894.511673414932
 10
4038.15602122114
 20
1894.511471057163
  0
LWPOLYLINE
  5
152E
330
1F
100
AcDbEntity
  8
SANINDUSA
100
AcDbPolyline
 90
        5
 70
   128
 43
0.0
 10
4038.156392466808
 20
1894.512118408309
 10
4038.156396445418
 20
1894.512148761974
 10
4038.156404270391
 20
1894.512103045212
 10
4038.156433448726
 20
1894.511426517592
 10
4038.156438919314
 20
1894.511192837583
  0
LWPOLYLINE
  5
152F
330
1F
100
AcDbEntity
  8
SANINDUSA
100
AcDbPolyline
 90
        3
 70
   128
 43
0.0
 10
4038.159039095575
 20
1894.511192837583
 10
4038.159062700877
 20
1894.511947953926
 10
4038.159085533181
 20
1894.512118616925
  0
LWPOLYLINE
  5
1530
330
1F
100
AcDbEntity
  8
SANINDUSA
100
AcDbPolyline
 90
        8
 70
   128
 43
0.0
 10
4038.155320246303
 20
1894.399303877579
 10
4038.155086005637
 20
1894.398594708966
 10
4038.154592877785
 20
1894.398312466071
 10
4038.154461779231
 20
1894.398302847372
 10
4038.153902331898
 20
1894.398496167586
 10
4038.153441742593
 20
1894.399074176179
 10
4038.153244842375
 20
1894.399887220786
 10
4038.15326178872
 20
1894.400081315861
  0
LWPOLYLINE
  5
1531
330
1F
100
AcDbEntity
  8
SANINDUSA
100
AcDbPolyline
 90
        7
 70
   128
 43
0.0
 10
4038.16221622617
 20
1894.400084094928
 10
4038.162149569551
 20
1894.399382212983
 10
4038.161810843805
 20
1894.398716332243
 10
4038.161317071477
 20
1894.398358153032
 10
4038.160795374373
 20
1894.398331748174
 10
4038.160357697466
 20
1894.398638719545
 10
4038.160157768587
 20
1894.399303877579
  0
LWPOLYLINE
  5
1532
330
1F
100
AcDbEntity
  8
SANINDUSA
100
AcDbPolyline
 90
       12
 70
   128
 43
0.0
 10
4038.160389008531
 20
1894.399651067184
 10
4038.160550566921
 20
1894.399044135438
 10
4038.160904244119
 20
1894.398759173082
 10
4038.161325818458
 20
1894.398773679362
 10
4038.161724826852
 20
1894.399085836337
 10
4038.161998542556
 20
1894.399674253391
 10
4038.162066102559
 20
1894.400455975757
 10
4038.161906991684
 20
1894.401346372293
 10
4038.161534797931
 20
1894.402317436264
 10
4038.161082719052
 20
1894.403220103906
 10
4038.160578294257
 20
1894.404296928869
 10
4038.160511352653
 20
1894.404608214126
  0
LWPOLYLINE
  5
1533
330
1F
100
AcDbEntity
  8
SANINDUSA
100
AcDbPolyline
 90
       16
 70
   128
 43
0.0
 10
4038.15323900857
 20
1894.395085239635
 10
4038.152875125939
 20
1894.394810834752
 10
4038.151900943899
 20
1894.393317760752
 10
4038.151579682315
 20
1894.391637908147
 10
4038.151953399713
 20
1894.389952437805
 10
4038.152992757568
 20
1894.388449074553
 10
4038.154587653065
 20
1894.387308956908
 10
4038.156539967814
 20
1894.386680262016
 10
4038.157739008377
 20
1894.386580796765
 10
4038.159772150749
 20
1894.386871101187
 10
4038.161569117168
 20
1894.387700708435
 10
4038.162938815141
 20
1894.388968186305
 10
4038.163742673183
 20
1894.390562588201
 10
4038.163856816078
 20
1894.392289513574
 10
4038.163265802498
 20
1894.393939489351
 10
4038.162239008182
 20
1894.395105177389
  0
SPLINE
  5
1536
330
1F
100
AcDbEntity
  8
SANINDUSA
100
AcDbSpline
210
0.0
220
0.0
230
1.0
 70
    12
 71
     3
 72
     9
 73
     5
 74
     0
 42
0.0000000001
 43
0.0000000001
 40
0.0
 40
0.0
 40
0.0
 40
0.0
 40
0.4925689209151726
 40
1.0
 40
1.0
 40
1.0
 40
1.0
 10
4038.14444895328
 20
1894.35368303381
 30
0.0
 41
1.0
 10
4038.144241180179
 20
1894.353401053123
 30
0.0
 41
1.0
 10
4038.143819364893
 20
1894.352828583618
 30
0.0
 41
1.0
 10
4038.14374785482
 20
1894.352118615179
 30
0.0
 41
1.0
 10
4038.143711568387
 20
1894.351758355127
 30
0.0
 41
1.0
  0
SPLINE
  5
1537
330
1F
100
AcDbEntity
  8
SANINDUSA
100
AcDbSpline
210
0.0
220
0.0
230
1.0
 70
    12
 71
     3
 72
     9
 73
     5
 74
     0
 42
0.0000000001
 43
0.0000000001
 40
0.0
 40
0.0
 40
0.0
 40
0.0
 40
0.4969105773623137
 40
1.0
 40
1.0
 40
1.0
 40
1.0
 10
4038.171616750369
 20
1894.353698449062
 30
0.0
 41
1.0
 10
4038.171828417907
 20
1894.353411626832
 30
0.0
 41
1.0
 10
4038.172254384967
 20
1894.352834415875
 30
0.0
 41
1.0
 10
4038.172327025704
 20
1894.352118521477
 30
0.0
 41
1.0
 10
4038.172363570491
 20
1894.351758362578
 30
0.0
 41
1.0
  0
ARC
  5
1538
330
1F
100
AcDbEntity
  8
SANINDUSA
100
AcDbCircle
 10
4038.170797034825
 20
1894.324277841727
 30
0.0
 40
0.0327675558434339
100
AcDbArc
 50
145.847119281818
 51
173.3267559664209
  0
ARC
  5
1539
330
1F
100
AcDbEntity
  8
SANINDUSA
100
AcDbCircle
 10
4038.145232544047
 20
1894.324256605131
 30
0.0
 40
0.0328171860269681
100
AcDbArc
 50
6.612639192306708
 51
34.13889493942146
  0
LWPOLYLINE
  5
153A
330
1F
100
AcDbEntity
  8
SANINDUSA
100
AcDbPolyline
 90
        8
 70
   128
 43
0.0
 10
4038.164494533623
 20
1894.339210009055
 10
4038.166208470771
 20
1894.339133823143
 10
4038.16769363598
 20
1894.339017735646
 10
4038.168902213285
 20
1894.33885308154
 10
4038.16980524973
 20
1894.338635844962
 10
4038.170369925508
 20
1894.338365522997
 10
4038.170589356282
 20
1894.338047319876
 10
4038.170453640232
 20
1894.337690701561
  0
LWPOLYLINE
  5
153B
330
1F
100
AcDbEntity
  8
SANINDUSA
100
AcDbPolyline
 90
        9
 70
   128
 43
0.0
 10
4038.146037572595
 20
1894.337353398876
 10
4038.145595181332
 20
1894.337722411232
 10
4038.145492532822
 20
1894.33807862349
 10
4038.145744861634
 20
1894.338395012395
 10
4038.146345389606
 20
1894.338659325467
 10
4038.1472724579
 20
1894.338870981561
 10
4038.148503467971
 20
1894.3390296454
 10
4038.149998916844
 20
1894.339141623901
 10
4038.151580744023
 20
1894.33921001278
  0
ARC
  5
153C
330
1F
100
AcDbEntity
  8
SANINDUSA
100
AcDbCircle
 10
4038.176066411639
 20
1894.341990810345
 30
0.0
 40
0.0029675706518776
100
AcDbArc
 50
0.7864082833228134
 51
26.73416491555328
  0
ARC
  5
153D
330
1F
100
AcDbEntity
  8
SANINDUSA
100
AcDbCircle
 10
4038.140008701383
 20
1894.341990814954
 30
0.0
 40
0.0029675400801546
100
AcDbArc
 50
153.1683899486755
 51
179.2136726125054
  0
ARC
  5
1542
330
1F
100
AcDbEntity
  8
SANINDUSA
100
AcDbCircle
 10
4038.170058238091
 20
1894.354000718711
 30
0.0
 40
0.0008159573002636
100
AcDbArc
 50
25.50303106150641
 51
83.66430093262044
  0
ARC
  5
1543
330
1F
100
AcDbEntity
  8
SANINDUSA
100
AcDbCircle
 10
4038.146034865416
 20
1894.353973957414
 30
0.0
 40
0.0008446685925252
100
AcDbArc
 50
97.34631651534199
 51
154.2898020611218
  0
LWPOLYLINE
  5
1546
330
1F
100
AcDbEntity
  8
SANINDUSA
100
AcDbPolyline
 90
        3
 70
   128
 43
0.0
 10
4038.36574009184
 20
1894.376758271681
 10
4038.365366080144
 20
1894.38123158537
 10
4038.36479786534
 20
1894.386449927316
  0
ARC
  5
1547
330
1F
100
AcDbEntity
  8
SANINDUSA
100
AcDbCircle
 10
4038.168920693227
 20
1894.361888619284
 30
0.0
 40
0.1973737106012643
100
AcDbArc
 50
359.9751294775376
 51
2.01384114890182
  0
LWPOLYLINE
  5
1548
330
1F
100
AcDbEntity
  8
SANINDUSA
100
AcDbPolyline
 90
       11
 70
   128
 43
0.0
 10
4038.356948378733
 20
1894.396922835343
 10
4038.351907995829
 20
1894.394274683521
 10
4038.346684456171
 20
1894.391528824197
 10
4038.341578396686
 20
1894.388849684821
 10
4038.336595525799
 20
1894.386229345427
 10
4038.332114517988
 20
1894.383183361815
 10
4038.329682303892
 20
1894.380976045357
 10
4038.327538801657
 20
1894.378576421962
 10
4038.324126362168
 20
1894.373327562438
 10
4038.32188211877
 20
1894.367670001314
 10
4038.321157503728
 20
1894.363761543129
  0
ARC
  5
1549
330
1F
100
AcDbEntity
  8
SANINDUSA
100
AcDbCircle
 10
4038.364313147918
 20
1894.38629400825
 30
0.0
 40
0.0005
100
AcDbArc
 50
6.957204828475197
 51
35.00000000607367
  0
ARC
  5
154A
330
1F
100
AcDbEntity
  8
SANINDUSA
100
AcDbCircle
 10
4038.357180675649
 20
1894.396480232527
 30
0.0
 40
0.000500001409326
100
AcDbArc
 50
34.93650068662951
 51
117.703130424218
  0
LINE
  5
154B
330
1F
100
AcDbEntity
  8
SANINDUSA
100
AcDbLine
 10
4038.363647233063
 20
1894.388116756307
 30
0.0
 11
4038.4766902147
 21
1894.467270305515
 31
0.0
  0
LINE
  5
154C
330
1F
100
AcDbEntity
  8
SANINDUSA
100
AcDbLine
 10
4038.461698202242
 20
1894.467759756677
 30
0.0
 11
4038.358485044279
 21
1894.395489128159
 31
0.0
  0
ARC
  5
154D
330
1F
100
AcDbEntity
  8
SANINDUSA
100
AcDbCircle
 10
4038.450759457719
 20
1894.504303264413
 30
0.0
 40
0.0452088951690517
100
AcDbArc
 50
304.9999999954021
 51
0.0
  0
ARC
  5
154E
330
1F
100
AcDbEntity
  8
SANINDUSA
100
AcDbCircle
 10
4038.450759457719
 20
1894.504303264413
 30
0.0
 40
0.0452088951690518
100
AcDbArc
 50
0.0
 51
5.642772928553065
  0
ARC
  5
154F
330
1F
100
AcDbEntity
  8
SANINDUSA
100
AcDbCircle
 10
4038.444490909152
 20
1894.492334318006
 30
0.0
 40
0.03
100
AcDbArc
 50
304.9999999954021
 51
14.99999999696573
  0
ARC
  5
1550
330
1F
100
AcDbEntity
  8
SANINDUSA
100
AcDbCircle
 10
4038.484626602476
 20
1894.472359366776
 30
0.0
 40
0.0399999999999999
100
AcDbArc
 50
77.29538370669001
 51
102.70461629331
  0
ARC
  5
1551
330
1F
100
AcDbEntity
  8
SANINDUSA
100
AcDbCircle
 10
4038.476929234398
 20
1894.50650245575
 30
0.0
 40
0.0049999999999999
100
AcDbArc
 50
102.70461629331
 51
194.9999999969657
  0
ARC
  5
1552
330
1F
100
AcDbEntity
  8
SANINDUSA
100
AcDbCircle
 10
4038.492763820157
 20
1894.508453489406
 30
0.0
 40
0.0030000000000003
100
AcDbArc
 50
5.642772928553065
 51
77.29538370669001
  0
LINE
  5
1553
330
1F
100
AcDbEntity
  8
SANINDUSA
100
AcDbLine
 10
4038.472099605267
 20
1894.505208360525
 30
0.0
 11
4038.47346868394
 21
1894.500098889359
 31
0.0
  0
ARC
  5
1554
330
1F
100
AcDbEntity
  8
SANINDUSA
100
AcDbCircle
 10
4038.366231937008
 20
1894.369384914298
 30
0.0
 40
0.0004069079999999
100
AcDbArc
 50
270.0
 51
327.589075438153
  0
ARC
  5
1555
330
1F
100
AcDbEntity
  8
SANINDUSA
100
AcDbCircle
 10
4038.366231937008
 20
1894.376220968698
 30
0.0
 40
0.0004069080000002
100
AcDbArc
 50
32.41092456184706
 51
90.0
  0
ARC
  5
1556
330
1F
100
AcDbEntity
  8
SANINDUSA
100
AcDbCircle
 10
4038.361790141808
 20
1894.372204951395
 30
0.0
 40
0.0056682912619206
100
AcDbArc
 50
327.589075438153
 51
0.0
  0
LINE
  5
1557
330
1F
100
AcDbEntity
  8
SANINDUSA
100
AcDbLine
 10
4038.367458433071
 20
1894.372204951395
 30
0.0
 11
4038.367458433071
 21
1894.373214372717
 31
0.0
  0
LINE
  5
1558
330
1F
100
AcDbEntity
  8
SANINDUSA
100
AcDbLine
 10
4038.366231937008
 20
1894.376627876698
 30
0.0
 11
4038.366043314405
 21
1894.376627876698
 31
0.0
  0
ARC
  5
1559
330
1F
100
AcDbEntity
  8
SANINDUSA
100
AcDbCircle
 10
4038.361790141808
 20
1894.373400931601
 30
0.0
 40
0.0056682912619206
100
AcDbArc
 50
0.0
 51
32.41092456184706
  0
LINE
  5
155A
330
1F
100
AcDbEntity
  8
SANINDUSA
100
AcDbLine
 10
4038.367458433071
 20
1894.373214372717
 30
0.0
 11
4038.367458433071
 21
1894.373400931601
 31
0.0
  0
LINE
  5
155B
330
1F
100
AcDbEntity
  8
SANINDUSA
100
AcDbLine
 10
4038.366043313706
 20
1894.375883238242
 30
0.0
 11
4038.365591525399
 21
1894.375883238242
 31
0.0
  0
LINE
  5
155C
330
1F
100
AcDbEntity
  8
SANINDUSA
100
AcDbLine
 10
4038.444034868219
 20
1894.335494553522
 30
0.0
 11
4038.444788768633
 21
1894.329422404226
 31
0.0
  0
LINE
  5
155D
330
1F
100
AcDbEntity
  8
SANINDUSA
100
AcDbLine
 10
4038.468605900069
 20
1894.332379472059
 30
0.0
 11
4038.467735686639
 21
1894.33938845046
 31
0.0
  0
LINE
  5
155E
330
1F
100
AcDbEntity
  8
SANINDUSA
100
AcDbLine
 10
4038.46817131541
 20
1894.331821676241
 30
0.0
 11
4038.468605900069
 21
1894.332379472059
 31
0.0
  0
LINE
  5
155F
330
1F
100
AcDbEntity
  8
SANINDUSA
100
AcDbLine
 10
4038.444788768633
 20
1894.329422404226
 30
0.0
 11
4038.445346564452
 21
1894.328987819568
 31
0.0
  0
ARC
  5
1560
330
1F
100
AcDbEntity
  8
SANINDUSA
100
AcDbCircle
 10
4038.342720931345
 20
1894.355265851576
 30
0.0
 40
0.0199999999999999
100
AcDbArc
 50
155.7798155229132
 51
181.3011849884148
  0
ARC
  5
1561
330
1F
100
AcDbEntity
  8
SANINDUSA
100
AcDbCircle
 10
4038.343731245748
 20
1894.355265851576
 30
0.0
 40
0.0200000000000001
100
AcDbArc
 50
358.6988150115852
 51
19.20595513360736
  0
LINE
  5
1562
330
1F
100
AcDbEntity
  8
SANINDUSA
100
AcDbLine
 10
4038.316812821963
 20
1894.290057154225
 30
0.0
 11
4038.315326088407
 21
1894.269811691569
 31
0.0
  0
LINE
  5
1563
330
1F
100
AcDbEntity
  8
SANINDUSA
100
AcDbLine
 10
4038.321468455895
 20
1894.353434921257
 30
0.0
 11
4038.317564881706
 21
1894.300298257583
 31
0.0
  0
ARC
  5
1564
330
1F
100
AcDbEntity
  8
SANINDUSA
100
AcDbCircle
 10
4038.322963341786
 20
1894.353311741402
 30
0.0
 40
0.0014999532369452
100
AcDbArc
 50
89.90239537082933
 51
175.2893950588235
  0
LWPOLYLINE
  5
1565
330
1F
100
AcDbEntity
  8
SANINDUSA
100
AcDbPolyline
 90
       20
 70
   128
 43
0.0
 10
4038.362326088662
 20
1894.269811691569
 10
4038.362935246268
 20
1894.277975436618
 10
4038.364434709141
 20
1894.28534975735
 10
4038.366595433394
 20
1894.29193360204
 10
4038.369219719732
 20
1894.297744409965
 10
4038.372137890497
 20
1894.302814248802
 10
4038.37520519022
 20
1894.307186230869
 10
4038.378911474088
 20
1894.311583414526
 10
4038.382481464484
 20
1894.315145501719
 10
4038.385774352888
 20
1894.317971901821
 10
4038.388700058052
 20
1894.32017423384
 10
4038.391936903187
 20
1894.322316931413
 10
4038.395895489791
 20
1894.32456734203
 10
4038.400643882641
 20
1894.326791269557
 10
4038.406249226371
 20
1894.328822800742
 10
4038.412773431578
 20
1894.330459339396
 10
4038.420191669205
 20
1894.331673150734
 10
4038.428301901856
 20
1894.332957686709
 10
4038.437090211847
 20
1894.334349619077
 10
4038.443607577423
 20
1894.335381867216
  0
LINE
  5
1566
330
1F
100
AcDbEntity
  8
SANINDUSA
100
AcDbLine
 10
4038.464599804321
 20
1894.355439754055
 30
0.0
 11
4038.373579711953
 21
1894.347476525085
 31
0.0
  0
LWPOLYLINE
  5
1567
330
1F
100
AcDbEntity
  8
SANINDUSA
100
AcDbPolyline
 90
       12
 70
   128
 43
0.0
 10
4038.468275645116
 20
1894.339648695515
 10
4038.469316073992
 20
1894.340018739776
 10
4038.471683600286
 20
1894.342083608584
 10
4038.473001220562
 20
1894.344529541062
 10
4038.473421045878
 20
1894.346678869651
 10
4038.473094516733
 20
1894.349531011508
 10
4038.472408884504
 20
1894.351171703862
 10
4038.471285754183
 20
1894.352743701861
 10
4038.46976903949
 20
1894.35405311905
 10
4038.467999705413
 20
1894.354953424857
 10
4038.466165774802
 20
1894.355395132528
 10
4038.464435116687
 20
1894.355425344632
  0
ARC
  5
1568
330
1F
100
AcDbEntity
  8
SANINDUSA
100
AcDbCircle
 10
4038.372940551377
 20
1894.355259187715
 30
0.0
 40
0.0079205255677859
100
AcDbArc
 50
191.6354844623972
 51
274.7294680349518
  0
ARC
  5
1569
330
1F
100
AcDbEntity
  8
SANINDUSA
100
AcDbCircle
 10
4038.363720940478
 20
1894.35331168594
 30
0.0
 40
0.0015000065250665
100
AcDbArc
 50
13.24419151241993
 51
90.00358348872376
  0
ARC
  5
156A
330
1F
100
AcDbEntity
  8
SANINDUSA
100
AcDbCircle
 10
4038.378637303555
 20
1894.374153927234
 30
0.0
 40
0.0131655980752344
100
AcDbArc
 50
168.5939311529089
 51
185.8897505466746
  0
ARC
  5
156B
330
1F
100
AcDbEntity
  8
SANINDUSA
100
AcDbCircle
 10
4038.395579011551
 20
1894.375509526697
 30
0.0
 40
0.030159500291455
100
AcDbArc
 50
185.1487801933014
 51
192.8064788223237
  0
LINE
  5
156C
330
1F
100
AcDbEntity
  8
SANINDUSA
100
AcDbLine
 10
4038.343544385463
 20
1894.361802944766
 30
0.0
 11
4038.366294385233
 21
1894.361802944766
 31
0.0
  0
LINE
  5
156D
330
1F
100
AcDbEntity
  8
SANINDUSA
100
AcDbLine
 10
4038.321157503728
 20
1894.363761543129
 30
0.0
 11
4038.343544385463
 21
1894.361802944766
 31
0.0
  0
LWPOLYLINE
  5
156E
330
1F
100
AcDbEntity
  8
SANINDUSA
100
AcDbPolyline
 90
       11
 70
   128
 43
0.0
 10
4038.357590250039
 20
1894.396767021941
 10
4038.3576904827
 20
1894.396623873936
 10
4038.358159303033
 20
1894.395954334961
 10
4038.358959988991
 20
1894.394810834752
 10
4038.360005452597
 20
1894.393317760752
 10
4038.361181694383
 20
1894.391637908147
 10
4038.3623618738
 20
1894.389952437805
 10
4038.363414540255
 20
1894.388449074553
 10
4038.364212862515
 20
1894.387308956908
 10
4038.364653078207
 20
1894.386680262016
 10
4038.364722724372
 20
1894.386580796765
  0
ELLIPSE
  5
156F
330
1F
100
AcDbEntity
  8
SANINDUSA
100
AcDbEllipse
 10
4038.656084899
 20
1894.598377301426
 30
0.0
 11
0.5206804395540635
 21
0.3645843687740984
 31
0.0
210
0.0
220
0.0
230
1.0
 40
0.0070795519079944
 41
1.948056710704119
 42
2.138268888885916
  0
LWPOLYLINE
  5
1570
330
1F
100
AcDbEntity
  8
SANINDUSA
100
AcDbPolyline
 90
       13
 70
   128
 43
0.0
 10
4038.378394411245
 20
1894.399303877579
 10
4038.377102819571
 20
1894.398594708966
 10
4038.375972123184
 20
1894.398312466071
 10
4038.375725393483
 20
1894.398302847372
 10
4038.374724910894
 20
1894.398496167586
 10
4038.373778880873
 20
1894.399074176179
 10
4038.373011083641
 20
1894.399887220786
 10
4038.372422785798
 20
1894.400844761954
 10
4038.372081839779
 20
1894.401854934023
 10
4038.372055239344
 20
1894.402829089986
 10
4038.372359694281
 20
1894.403742777036
 10
4038.373010819146
 20
1894.404634209202
 10
4038.374041335026
 20
1894.405520723985
  0
ELLIPSE
  5
1571
330
1F
100
AcDbEntity
  8
SANINDUSA
100
AcDbEllipse
 10
4038.656084899
 20
1894.598377301426
 30
0.0
 11
0.5206804395540635
 21
0.3645843687740984
 31
0.0
210
0.0
220
0.0
230
1.0
 40
0.0070795519079944
 41
4.144916418294257
 42
4.355355756213215
  0
ARC
  5
157E
330
1F
100
AcDbEntity
  8
SANINDUSA
100
AcDbCircle
 10
4038.450862071186
 20
1894.50435684288
 30
0.0
 40
0.044910292592886
100
AcDbArc
 50
304.8535590823824
 51
5.587618606650559
  0
ARC
  5
1582
330
1F
100
AcDbEntity
  8
SANINDUSA
100
AcDbCircle
 10
4038.444412889677
 20
1894.492292748837
 30
0.0
 40
0.0303272781772575
100
AcDbArc
 50
305.1657806822694
 51
15.03769990344625
  0
ARC
  5
1584
330
1F
100
AcDbEntity
  8
SANINDUSA
100
AcDbCircle
 10
4038.484698302812
 20
1894.472404892073
 30
0.0
 40
0.0397479649164046
100
AcDbArc
 50
77.38177700070014
 51
102.819878143236
  0
ARC
  5
1587
330
1F
100
AcDbEntity
  8
SANINDUSA
100
AcDbCircle
 10
4038.47693740527
 20
1894.506508327303
 30
0.0
 40
0.0047726046723101
100
AcDbArc
 50
102.8158556465262
 51
195.0426407924407
  0
ARC
  5
1589
330
1F
100
AcDbEntity
  8
SANINDUSA
100
AcDbCircle
 10
4038.492767896733
 20
1894.508456338658
 30
0.0
 40
0.002804425075129
100
AcDbArc
 50
5.59298232378387
 51
77.36385152781538
  0
ELLIPSE
  5
158A
330
1F
100
AcDbEntity
  8
SANINDUSA
100
AcDbEllipse
 10
4038.325157422455
 20
1895.07099071743
 30
0.0
 11
-0.4810409945150696
 21
1.795166618516704
 31
0.0
210
0.0
220
0.0
230
1.0
 40
0.0024212646895484
 41
1.890747065932404
 42
1.893746953972766
  0
LINE
  5
158B
330
1F
100
AcDbEntity
  8
SANINDUSA
100
AcDbLine
 10
4038.366043314405
 20
1894.369576176315
 30
0.0
 11
4038.366043314405
 21
1894.375434586644
 31
0.0
  0
LINE
  5
158C
330
1F
100
AcDbEntity
  8
SANINDUSA
100
AcDbLine
 10
4038.366231937008
 20
1894.375434586644
 30
0.0
 11
4038.366043314405
 21
1894.375434586644
 31
0.0
  0
LINE
  5
158D
330
1F
100
AcDbEntity
  8
SANINDUSA
100
AcDbLine
 10
4038.366043314405
 20
1894.375434586644
 30
0.0
 11
4038.366043314405
 21
1894.376627876698
 31
0.0
  0
LWPOLYLINE
  5
158E
330
1F
100
AcDbEntity
  8
SANINDUSA
100
AcDbPolyline
 90
        5
 70
   128
 43
0.0
 10
4038.446485073605
 20
1894.329633014129
 10
4038.445560084023
 20
1894.329518167154
 10
4038.444988654294
 20
1894.329447222726
 10
4038.44478891913
 20
1894.329422423468
 10
4038.444788770118
 20
1894.329422404842
  0
LWPOLYLINE
  5
158F
330
1F
100
AcDbEntity
  8
SANINDUSA
100
AcDbPolyline
 90
       11
 70
   128
 43
0.0
 10
4038.468605899551
 20
1894.332379473226
 10
4038.468427443245
 20
1894.332357315199
 10
4038.467876755932
 20
1894.332288944946
 10
4038.466971182564
 20
1894.33217651196
 10
4038.46573946003
 20
1894.332023581342
 10
4038.464220688978
 20
1894.331835018323
 10
4038.462463082114
 20
1894.331616798268
 10
4038.460522444287
 20
1894.331375853942
 10
4038.458460376897
 20
1894.331119833367
 10
4038.456342340746
 20
1894.330856861399
 10
4038.454235569873
 20
1894.330595293866
  0
LINE
  5
1590
330
1F
100
AcDbEntity
  8
SANINDUSA
100
AcDbLine
 10
4038.453927543034
 20
1894.333076243734
 30
0.0
 11
4038.454235570934
 21
1894.330595292543
 31
0.0
  0
LWPOLYLINE
  5
1591
330
1F
100
AcDbEntity
  8
SANINDUSA
100
AcDbPolyline
 90
        9
 70
   128
 43
0.0
 10
4038.446177044252
 20
1894.332113964335
 10
4038.44685945783
 20
1894.332198688613
 10
4038.447642461696
 20
1894.332295903788
 10
4038.448517785707
 20
1894.332404585408
 10
4038.449476206043
 20
1894.33252357863
 10
4038.450507589915
 20
1894.332651631759
 10
4038.451601059476
 20
1894.332787392513
 10
4038.452745066324
 20
1894.332929430382
 10
4038.45392754052
 20
1894.333076244073
  0
LINE
  5
1592
330
1F
100
AcDbEntity
  8
SANINDUSA
100
AcDbLine
 10
4038.446485073802
 20
1894.329633012689
 30
0.0
 11
4038.446177045903
 21
1894.332113963881
 31
0.0
  0
LWPOLYLINE
  5
1593
330
1F
100
AcDbEntity
  8
SANINDUSA
100
AcDbPolyline
 90
       12
 70
   128
 43
0.0
 10
4038.453132191041
 20
1894.329954461978
 10
4038.455151961485
 20
1894.330205229895
 10
4038.45722489182
 20
1894.330462599025
 10
4038.459282399455
 20
1894.330718053357
 10
4038.461256445684
 20
1894.330963143931
 10
4038.463081733623
 20
1894.331189768241
 10
4038.464697891214
 20
1894.331390427278
 10
4038.466051460543
 20
1894.331558482574
 10
4038.467097678521
 20
1894.331688375996
 10
4038.4678019223
 20
1894.331775812284
 10
4038.468140923717
 20
1894.331817900614
 10
4038.468171322086
 20
1894.331821678059
  0
LINE
  5
1594
330
1F
100
AcDbEntity
  8
SANINDUSA
100
AcDbLine
 10
4038.454235570934
 20
1894.330595292543
 30
0.0
 11
4038.453132193889
 21
1894.329954461349
 31
0.0
  0
LINE
  5
1595
330
1F
100
AcDbEntity
  8
SANINDUSA
100
AcDbLine
 10
4038.447711662008
 20
1894.329281463406
 30
0.0
 11
4038.446485073802
 21
1894.329633012689
 31
0.0
  0
LINE
  5
1596
330
1F
100
AcDbEntity
  8
SANINDUSA
100
AcDbLine
 10
4038.447711662008
 20
1894.329281463406
 30
0.0
 11
4038.453132193889
 21
1894.329954461349
 31
0.0
  0
LWPOLYLINE
  5
1597
330
1F
100
AcDbEntity
  8
SANINDUSA
100
AcDbPolyline
 90
        5
 70
   128
 43
0.0
 10
4038.445346565285
 20
1894.328987819926
 10
4038.445414432624
 20
1894.328996246533
 10
4038.445827135184
 20
1894.329047484176
 10
4038.446601414421
 20
1894.329143619017
 10
4038.447711662689
 20
1894.329281462209
  0
LINE
  5
1598
330
1F
100
AcDbEntity
  8
SANINDUSA
100
AcDbLine
 10
4038.325428972664
 20
1894.354811691374
 30
0.0
 11
4038.36233186164
 21
1894.354811691374
 31
0.0
  0
LINE
  5
1599
330
1F
100
AcDbEntity
  8
SANINDUSA
100
AcDbLine
 10
4038.362911379405
 20
1894.354811691374
 30
0.0
 11
4038.363726088546
 21
1894.354811691374
 31
0.0
  0
LINE
  5
159A
330
1F
100
AcDbEntity
  8
SANINDUSA
100
AcDbLine
 10
4038.322726088547
 20
1894.354811691374
 30
0.0
 11
4038.325428972664
 21
1894.354811691374
 31
0.0
  0
LWPOLYLINE
  5
159D
330
1F
100
AcDbEntity
  8
SANINDUSA
100
AcDbPolyline
 90
       17
 70
   128
 43
0.0
 10
4038.46651030455
 20
1894.339683817552
 10
4038.451989458242
 20
1894.337599461751
 10
4038.437441074589
 20
1894.335602866338
 10
4038.422950522342
 20
1894.333299452291
 10
4038.408603177706
 20
1894.330294625686
 10
4038.401717239358
 20
1894.32819166951
 10
4038.39508478094
 20
1894.325329834448
 10
4038.388828967998
 20
1894.321760700868
 10
4038.383011547217
 20
1894.31750613995
 10
4038.377683879176
 20
1894.312616346256
 10
4038.372946386525
 20
1894.307180719302
 10
4038.368836111689
 20
1894.301208999792
 10
4038.365416041875
 20
1894.294788312019
 10
4038.362760334575
 20
1894.288040224781
 10
4038.361135830471
 20
1894.282081539129
 10
4038.360104724133
 20
1894.275975395778
 10
4038.359682009855
 20
1894.269811691569
  0
LINE
  5
159E
330
1F
100
AcDbEntity
  8
SANINDUSA
100
AcDbLine
 10
4038.359682009855
 20
1894.269811691569
 30
0.0
 11
4038.356913517529
 21
1894.269811691569
 31
0.0
  0
LINE
  5
159F
330
1F
100
AcDbEntity
  8
SANINDUSA
100
AcDbLine
 10
4038.321542811879
 20
1894.353421272562
 30
0.0
 11
4038.321540878454
 21
1894.353421280013
 31
0.0
  0
LWPOLYLINE
  5
15A0
330
1F
100
AcDbEntity
  8
SANINDUSA
100
AcDbPolyline
 90
       13
 70
   128
 43
0.0
 10
4038.31756546844
 20
1894.300298214742
 10
4038.317565766463
 20
1894.300308132396
 10
4038.317563205326
 20
1894.300223426746
 10
4038.317554948219
 20
1894.299961566778
 10
4038.317532628143
 20
1894.29932115771
 10
4038.317463175693
 20
1894.297718981133
 10
4038.317242366561
 20
1894.294281757289
 10
4038.317053855696
 20
1894.29219060423
 10
4038.316937019416
 20
1894.291098422223
 10
4038.316864419097
 20
1894.290476581866
 10
4038.316828119868
 20
1894.29017965993
 10
4038.316813667605
 20
1894.290063883962
 10
4038.316812821963
 20
1894.290057154225
  0
LINE
  5
15A1
330
1F
100
AcDbEntity
  8
SANINDUSA
100
AcDbLine
 10
4038.339730351299
 20
1894.269811691569
 30
0.0
 11
4038.315394501501
 21
1894.269811691569
 31
0.0
  0
LINE
  5
15A2
330
1F
100
AcDbEntity
  8
SANINDUSA
100
AcDbLine
 10
4038.344343728072
 20
1894.353340114752
 30
0.0
 11
4038.344042213362
 21
1894.353340123738
 31
0.0
  0
LINE
  5
15A6
330
1F
100
AcDbEntity
  8
SANINDUSA
100
AcDbLine
 10
4038.339730351299
 20
1894.269811691569
 30
0.0
 11
4038.356913517529
 21
1894.269811691569
 31
0.0
  0
LWPOLYLINE
  5
15A7
330
1F
100
AcDbEntity
  8
SANINDUSA
100
AcDbPolyline
 90
       14
 70
   128
 43
0.0
 10
4038.344612833645
 20
1894.348347516583
 10
4038.344620341036
 20
1894.348297217713
 10
4038.344627900348
 20
1894.348278539107
 10
4038.344691154613
 20
1894.348198057936
 10
4038.344986805526
 20
1894.348018282877
 10
4038.345322877002
 20
1894.347872951852
 10
4038.345873084219
 20
1894.347666097657
 10
4038.346757025291
 20
1894.347364304439
 10
4038.348147215621
 20
1894.34692935072
 10
4038.350272521676
 20
1894.346335073785
 10
4038.353399980182
 20
1894.345609141366
 10
4038.357785114387
 20
1894.344914754705
 10
4038.361788637304
 20
1894.344668982403
 10
4038.365775295832
 20
1894.344904014693
  0
LINE
  5
15A9
330
1F
100
AcDbEntity
  8
SANINDUSA
100
AcDbLine
 10
4038.344612833645
 20
1894.348347516583
 30
0.0
 11
4038.344527665359
 21
1894.348345713542
 31
0.0
  0
LWPOLYLINE
  5
15AA
330
1F
100
AcDbEntity
  8
SANINDUSA
100
AcDbPolyline
 90
        3
 70
   128
 43
0.0
 10
4038.363914395982
 20
1894.353550040946
 10
4038.362683995926
 20
1894.353458644675
 10
4038.360682118052
 20
1894.353317933009
  0
LWPOLYLINE
  5
15AC
330
1F
100
AcDbEntity
  8
SANINDUSA
100
AcDbPolyline
 90
        7
 70
   128
 43
0.0
 10
4038.360682118052
 20
1894.353317933009
 10
4038.358720922211
 20
1894.35332076423
 10
4038.3564397081
 20
1894.353324064837
 10
4038.353902655953
 20
1894.353327730523
 10
4038.350566743241
 20
1894.353332543598
 10
4038.347024650613
 20
1894.353337662147
 10
4038.344384562291
 20
1894.353341469394
  0
LINE
  5
15AD
330
1F
100
AcDbEntity
  8
SANINDUSA
100
AcDbLine
 10
4038.323031704241
 20
1894.354811692463
 30
0.0
 11
4038.343984504835
 21
1894.354811691374
 31
0.0
  0
LINE
  5
15AE
330
1F
100
AcDbEntity
  8
SANINDUSA
100
AcDbLine
 10
4038.344384562323
 20
1894.353341472763
 30
0.0
 11
4038.344343728072
 21
1894.353340114752
 31
0.0
  0
LINE
  5
15AF
330
1F
100
AcDbEntity
  8
SANINDUSA
100
AcDbLine
 10
4038.343984504835
 20
1894.354811691374
 30
0.0
 11
4038.344285848086
 21
1894.354811691374
 31
0.0
  0
LINE
  5
15B0
330
1F
100
AcDbEntity
  8
SANINDUSA
100
AcDbLine
 10
4038.344306311009
 20
1894.354811691374
 30
0.0
 11
4038.344285848086
 21
1894.354811691374
 31
0.0
  0
SPLINE
  5
15B1
330
1F
100
AcDbEntity
  8
SANINDUSA
100
AcDbSpline
210
0.0
220
0.0
230
1.0
 70
    12
 71
     3
 72
     9
 73
     5
 74
     0
 42
0.0000000001
 43
0.0000000001
 40
0.0
 40
0.0
 40
0.0
 40
0.0
 40
0.4658638586383233
 40
1.0
 40
1.0
 40
1.0
 40
1.0
 10
4038.466488072017
 20
1894.339210001604
 30
0.0
 41
1.0
 10
4038.466499305074
 20
1894.3392685227
 30
0.0
 41
1.0
 10
4038.466523417391
 20
1894.339394141151
 30
0.0
 41
1.0
 10
4038.466516734921
 20
1894.339583262787
 30
0.0
 41
1.0
 10
4038.466513165572
 20
1894.339684279488
 30
0.0
 41
1.0
  0
ARC
  5
15B2
330
1F
100
AcDbEntity
  8
SANINDUSA
100
AcDbCircle
 10
4038.475265561608
 20
1894.216321839298
 30
0.0
 40
0.12320124798566
100
AcDbArc
 50
94.0855068135554
 51
104.8894317199118
  0
LINE
  5
15B3
330
1F
100
AcDbEntity
  8
SANINDUSA
100
AcDbLine
 10
4038.359682009855
 20
1894.269811691569
 30
0.0
 11
4038.362324201801
 21
1894.269811691569
 31
0.0
  0
LWPOLYLINE
  5
15B4
330
1F
100
AcDbEntity
  8
SANINDUSA
100
AcDbPolyline
 90
        3
 70
   128
 43
0.0
 10
4038.365775295832
 20
1894.344904014693
 10
4038.415105873087
 20
1894.349779302106
 10
4038.464355820158
 20
1894.354673387335
  0
LINE
  5
15B6
330
1F
100
AcDbEntity
  8
SANINDUSA
100
AcDbLine
 10
4038.3735819285
 20
1894.347451159583
 30
0.0
 11
4038.373584882656
 21
1894.347452239917
 31
0.0
  0
ARC
  5
15B7
330
1F
100
AcDbEntity
  8
SANINDUSA
100
AcDbCircle
 10
4038.46535552121
 20
1894.347012671895
 30
0.0
 40
0.0074192808711675
100
AcDbArc
 50
278.9767634549658
 51
311.2873934352687
  0
ARC
  5
15B8
330
1F
100
AcDbEntity
  8
SANINDUSA
100
AcDbCircle
 10
4038.466701197685
 20
1894.345674233113
 30
0.0
 40
0.0055271216401638
100
AcDbArc
 50
309.9603547090456
 51
318.4083689043465
  0
ARC
  5
15B9
330
1F
100
AcDbEntity
  8
SANINDUSA
100
AcDbCircle
 10
4038.465112337193
 20
1894.347069371613
 30
0.0
 40
0.007641547522978
100
AcDbArc
 50
318.4930609022317
 51
95.68156165904074
  0
LWPOLYLINE
  5
15BA
330
1F
100
AcDbEntity
  8
SANINDUSA
100
AcDbPolyline
 90
        6
 70
   128
 43
0.0
 10
4038.466488072017
 20
1894.339210001604
 10
4038.466488101819
 20
1894.339210001604
 10
4038.467426994183
 20
1894.339321425037
 10
4038.468060919384
 20
1894.339459070788
 10
4038.468339258173
 20
1894.339536288606
 10
4038.468317845205
 20
1894.339530037568
  0
LINE
  5
15BB
330
1F
100
AcDbEntity
  8
SANINDUSA
100
AcDbLine
 10
4038.359480104124
 20
1894.354811691374
 30
0.0
 11
4038.362527662517
 21
1894.354811691374
 31
0.0
  0
LINE
  5
15BC
330
1F
100
AcDbEntity
  8
SANINDUSA
100
AcDbLine
 10
4038.362527662517
 20
1894.354811691374
 30
0.0
 11
4038.36372084607
 21
1894.354811691371
 31
0.0
  0
ARC
  5
15BD
330
1F
100
AcDbEntity
  8
SANINDUSA
100
AcDbCircle
 10
4038.638713476538
 20
1894.598298054631
 30
0.0
 40
0.3463286723399388
100
AcDbArc
 50
215.5530589208299
 51
217.7322922472828
  0
LWPOLYLINE
  5
15BE
330
1F
100
AcDbEntity
  8
SANINDUSA
100
AcDbPolyline
 90
        5
 70
   128
 43
0.0
 10
4038.476690211633
 20
1894.467270308958
 10
4038.476679944732
 20
1894.467284986601
 10
4038.476649203637
 20
1894.467328885422
 10
4038.476598226765
 20
1894.467401677595
 10
4038.476527446249
 20
1894.467502767072
  0
LWPOLYLINE
  5
15BF
330
1F
100
AcDbEntity
  8
SANINDUSA
100
AcDbPolyline
 90
        5
 70
   128
 43
0.0
 10
4038.46169820551
 20
1894.467759752498
 10
4038.461709671953
 20
1894.467743376122
 10
4038.461743989327
 20
1894.467694366203
 10
4038.461800829806
 20
1894.467613184677
 10
4038.461879709103
 20
1894.467500531898
  0
LWPOLYLINE
  5
15C0
330
1F
100
AcDbEntity
  8
SANINDUSA
100
AcDbPolyline
 90
        5
 70
   128
 43
0.0
 10
4038.495749288538
 20
1894.508748466001
 10
4038.495737308005
 20
1894.50874728881
 10
4038.49570145581
 20
1894.508743742333
 10
4038.495641895869
 20
1894.508737856375
 10
4038.495558970907
 20
1894.508729660736
  0
LWPOLYLINE
  5
15C1
330
1F
100
AcDbEntity
  8
SANINDUSA
100
AcDbPolyline
 90
        5
 70
   128
 43
0.0
 10
4038.47346868489
 20
1894.500098893271
 10
4038.473483362535
 20
1894.500102827178
 10
4038.47352732096
 20
1894.500114599095
 10
4038.473600232342
 20
1894.500134134517
 10
4038.473701619842
 20
1894.500161299334
  0
LWPOLYLINE
  5
15C2
330
1F
100
AcDbEntity
  8
SANINDUSA
100
AcDbPolyline
 90
        5
 70
   128
 43
0.0
 10
4038.47582960997
 20
1894.51138004087
 10
4038.475832709411
 20
1894.511366302
 10
4038.475841977933
 20
1894.511325189696
 10
4038.475857355932
 20
1894.511256957279
 10
4038.475878753999
 20
1894.511162036882
  0
LWPOLYLINE
  5
15C3
330
1F
100
AcDbEntity
  8
SANINDUSA
100
AcDbPolyline
 90
        5
 70
   128
 43
0.0
 10
4038.493423589804
 20
1894.51138004087
 10
4038.493420937398
 20
1894.511368254052
 10
4038.493412980178
 20
1894.511332983003
 10
4038.493399777749
 20
1894.511274406539
 10
4038.493381389716
 20
1894.511192837583
  0
LWPOLYLINE
  5
15C4
330
1F
100
AcDbEntity
  8
SANINDUSA
100
AcDbPolyline
 90
        5
 70
   128
 43
0.0
 10
4038.472099610904
 20
1894.505208367334
 10
4038.472114020327
 20
1894.505212226735
 10
4038.47215717409
 20
1894.505223790036
 10
4038.472228774169
 20
1894.50524296783
 10
4038.472328343728
 20
1894.50526965581
  0
LINE
  5
15C5
330
1F
100
AcDbEntity
  8
SANINDUSA
100
AcDbLine
 10
4038.366231937008
 20
1894.368978006298
 30
0.0
 11
4038.366231937008
 21
1894.375434586644
 31
0.0
  0
LINE
  5
15C6
330
1F
100
AcDbEntity
  8
SANINDUSA
100
AcDbLine
 10
4038.366575459217
 20
1894.375304680736
 30
0.0
 11
4038.366575459217
 21
1894.376439066411
 31
0.0
  0
LINE
  5
15C7
330
1F
100
AcDbEntity
  8
SANINDUSA
100
AcDbLine
 10
4038.366575459217
 20
1894.369166816585
 30
0.0
 11
4038.366575459217
 21
1894.375304680736
 31
0.0
  0
LINE
  5
15C8
330
1F
100
AcDbEntity
  8
SANINDUSA
100
AcDbLine
 10
4038.366231937008
 20
1894.375434586644
 30
0.0
 11
4038.366231937008
 21
1894.376627876698
 31
0.0
  0
ARC
  5
15C9
330
1F
100
AcDbEntity
  8
SANINDUSA
100
AcDbCircle
 10
4038.364403604117
 20
1894.373155614146
 30
0.0
 40
0.0030553932214964
100
AcDbArc
 50
1.101938159644326
 51
44.69780385552159
  0
LINE
  5
15CA
330
1F
100
AcDbEntity
  8
SANINDUSA
100
AcDbLine
 10
4038.366043313706
 20
1894.374922254906
 30
0.0
 11
4038.365509643519
 21
1894.374922254906
 31
0.0
  0
LWPOLYLINE
  5
15CB
330
1F
100
AcDbEntity
  8
SANINDUSA
100
AcDbPolyline
 90
       12
 70
   128
 43
0.0
 10
4038.344042213467
 20
1894.353340120838
 10
4038.344042153397
 20
1894.353340120838
 10
4038.340435230181
 20
1894.353353181706
 10
4038.336900046394
 20
1894.353365899847
 10
4038.333445232195
 20
1894.353378446625
 10
4038.330361901151
 20
1894.353389503287
 10
4038.327559976207
 20
1894.353399650977
 10
4038.325278311336
 20
1894.353407846616
 10
4038.323445462921
 20
1894.353414425479
 10
4038.322217093148
 20
1894.353418858574
 10
4038.321558577307
 20
1894.353421212958
 10
4038.321542811879
 20
1894.353421272562
  0
SPLINE
  5
15CD
330
1F
100
AcDbEntity
  8
SANINDUSA
100
AcDbSpline
210
0.0
220
0.0
230
1.0
 70
    12
 71
     3
 72
    11
 73
     7
 74
     0
 42
0.0000000001
 43
0.0000000001
 40
0.0
 40
0.0
 40
0.0
 40
0.0
 40
0.3354200254386121
 40
0.6702134716587845
 40
0.9994588706937285
 40
1.0
 40
1.0
 40
1.0
 40
1.0
 10
4038.464355820158
 20
1894.354673387335
 30
0.0
 41
1.0
 10
4038.464370557345
 20
1894.354826087854
 30
0.0
 41
1.0
 10
4038.464400004191
 20
1894.355131203642
 30
0.0
 41
1.0
 10
4038.464426750752
 20
1894.355355211581
 30
0.0
 41
1.0
 10
4038.464438138638
 20
1894.355452540781
 30
0.0
 41
1.0
 10
4038.464435106761
 20
1894.355425255293
 30
0.0
 41
1.0
 10
4038.464435101785
 20
1894.355425210522
 30
0.0
 41
1.0
  0
ARC
  5
15CE
330
1F
100
AcDbEntity
  8
SANINDUSA
100
AcDbCircle
 10
4038.326179885097
 20
1894.84026170096
 30
0.0
 40
0.4881722373351358
100
AcDbArc
 50
274.4332447494323
 51
274.5760049256302
  0
ARC
  5
15CF
330
1F
100
AcDbEntity
  8
SANINDUSA
100
AcDbCircle
 10
4037.956243857773
 20
1894.29312133243
 30
0.0
 40
0.0005511544713971
100
AcDbArc
 50
349.4825431386666
 51
65.60650580600666
  0
ARC
  5
15D0
330
1F
100
AcDbEntity
  8
SANINDUSA
100
AcDbCircle
 10
4037.955006050407
 20
1894.289372966136
 30
0.0
 40
0.0045
100
AcDbArc
 50
71.22287329228393
 51
108.758330931599
  0
ARC
  5
15D1
330
1F
100
AcDbEntity
  8
SANINDUSA
100
AcDbCircle
 10
4037.953782441379
 20
1894.293109671733
 30
0.0
 40
0.0005650013731113
100
AcDbArc
 50
112.8773583198129
 51
189.766553297457
  0
ARC
  5
15D2
330
1F
100
AcDbEntity
  8
SANINDUSA
100
AcDbCircle
 10
4037.955006050407
 20
1894.274333847648
 30
0.0
 40
0.0045
100
AcDbArc
 50
252.9726112266896
 51
287.3137751463259
  0
ARC
  5
15D3
330
1F
100
AcDbEntity
  8
SANINDUSA
100
AcDbCircle
 10
4037.953825255359
 20
1894.270499721141
 30
0.0
 40
0.0004882126075497
100
AcDbArc
 50
179.1750123950976
 51
253.7110576969821
  0
ARC
  5
15D4
330
1F
100
AcDbEntity
  8
SANINDUSA
100
AcDbCircle
 10
4037.956176171606
 20
1894.270505074254
 30
0.0
 40
0.0004969810267307
100
AcDbArc
 50
289.8922108956926
 51
0.2437813846707383
  0
LINE
  5
15D5
330
1F
100
AcDbEntity
  8
SANINDUSA
100
AcDbLine
 10
4037.950506050407
 20
1894.40473606191
 30
0.0
 11
4037.950506051116
 21
1894.392911335737
 31
0.0
  0
LINE
  5
15D6
330
1F
100
AcDbEntity
  8
SANINDUSA
100
AcDbLine
 10
4037.95950605073
 20
1894.392911335737
 30
0.0
 11
4037.959506050407
 21
1894.40473606191
 31
0.0
  0
LWPOLYLINE
  5
15D7
330
1F
100
AcDbEntity
  8
SANINDUSA
100
AcDbPolyline
 90
        6
 70
   128
 43
0.0
 10
4037.950540642301
 20
1894.392680945158
 10
4037.950548962736
 20
1894.392510092169
 10
4037.950795688713
 20
1894.391739653707
 10
4037.951215769211
 20
1894.390874440134
 10
4037.951669682795
 20
1894.390001667947
 10
4037.951908093924
 20
1894.389459381163
  0
LWPOLYLINE
  5
15D8
330
1F
100
AcDbEntity
  8
SANINDUSA
100
AcDbPolyline
 90
        7
 70
   128
 43
0.0
 10
4037.957696403423
 20
1894.388029875517
 10
4037.957865352788
 20
1894.388858566344
 10
4037.95821184949
 20
1894.389730623275
 10
4037.95864356407
 20
1894.390584981352
 10
4037.959104611585
 20
1894.39148862502
 10
4037.959423628682
 20
1894.392335461736
 10
4037.959480636799
 20
1894.392863484383
  0
ARC
  5
15D9
330
1F
100
AcDbEntity
  8
SANINDUSA
100
AcDbCircle
 10
4037.953549359833
 20
1894.363114088424
 30
0.0
 40
0.0706961562920901
100
AcDbArc
 50
262.2183946032927
 51
269.6244660360114
  0
ARC
  5
15DA
330
1F
100
AcDbEntity
  8
SANINDUSA
100
AcDbCircle
 10
4037.95674537013
 20
1894.366356125297
 30
0.0
 40
0.0739511109418102
100
AcDbArc
 50
270.1399414510719
 51
277.6880525395376
  0
LWPOLYLINE
  5
15DB
330
1F
100
AcDbEntity
  8
SANINDUSA
100
AcDbPolyline
 90
       13
 70
   128
 43
0.0
 10
4037.940947921061
 20
1894.29951870656
 10
4037.940972471655
 20
1894.299238683939
 10
4037.941081939311
 20
1894.298046114206
 10
4037.941178823867
 20
1894.297058956981
 10
4037.941261464776
 20
1894.296290384889
 10
4037.941332069272
 20
1894.295734571576
 10
4037.941383744636
 20
1894.295439528585
 10
4037.941431331494
 20
1894.295242192507
 10
4037.941550283739
 20
1894.294890987039
 10
4037.94178041541
 20
1894.294438721895
 10
4037.942423633346
 20
1894.29370244062
 10
4037.943237866321
 20
1894.293223800421
 10
4037.943974571349
 20
1894.293056356072
  0
LWPOLYLINE
  5
15DC
330
1F
100
AcDbEntity
  8
SANINDUSA
100
AcDbPolyline
 90
       15
 70
   128
 43
0.0
 10
4037.966639424721
 20
1894.293073015571
 10
4037.967197398701
 20
1894.293161871195
 10
4037.967896531382
 20
1894.293491902113
 10
4037.968418440828
 20
1894.293915989161
 10
4037.968785467604
 20
1894.29437089181
 10
4037.969021975109
 20
1894.29480412817
 10
4037.969154476234
 20
1894.295160832166
 10
4037.969210385391
 20
1894.295370953441
 10
4037.969239472458
 20
1894.295509161711
 10
4037.969268093863
 20
1894.295675011635
 10
4037.969316004821
 20
1894.2960236094
 10
4037.969389154622
 20
1894.296664418936
 10
4037.969483780721
 20
1894.297593834162
 10
4037.969584307679
 20
1894.298658089995
 10
4037.969661179045
 20
1894.299519570828
  0
LWPOLYLINE
  5
15DD
330
1F
100
AcDbEntity
  8
SANINDUSA
100
AcDbPolyline
 90
        3
 70
   128
 43
0.0
 10
4037.972108586738
 20
1894.329398917317
 10
4037.972325957427
 20
1894.332092495918
 10
4037.973264592745
 20
1894.34498802042
  0
ARC
  5
15DE
330
1F
100
AcDbEntity
  8
SANINDUSA
100
AcDbCircle
 10
4040.017637533534
 20
1894.489996258878
 30
0.0
 40
2.085343498487205
100
AcDbArc
 50
183.9873983210008
 51
184.6937554293755
  0
LWPOLYLINE
  5
15E5
330
1F
100
AcDbEntity
  8
SANINDUSA
100
AcDbPolyline
 90
        5
 70
   128
 43
0.0
 10
4037.953350425744
 20
1894.272523509622
 10
4037.953332512685
 20
1894.27647131896
 10
4037.953312669927
 20
1894.280509906173
 10
4037.953287967527
 20
1894.285158830047
 10
4037.953261184552
 20
1894.289816366792
  0
LWPOLYLINE
  5
15E7
330
1F
100
AcDbEntity
  8
SANINDUSA
100
AcDbPolyline
 90
        5
 70
   128
 43
0.0
 10
4037.956750915432
 20
1894.289816366792
 10
4037.956728094303
 20
1894.285870733023
 10
4037.956706258515
 20
1894.281833024979
 10
4037.95668297545
 20
1894.277183460355
 10
4037.95666167424
 20
1894.272523509622
  0
LINE
  5
15EA
330
1F
100
AcDbEntity
  8
SANINDUSA
100
AcDbLine
 10
4037.953225550069
 20
1894.293013725453
 30
0.0
 11
4037.953214187779
 21
1894.29164091982
 31
0.0
  0
LWPOLYLINE
  5
15EB
330
1F
100
AcDbEntity
  8
SANINDUSA
100
AcDbPolyline
 90
        6
 70
   128
 43
0.0
 10
4037.953261184552
 20
1894.289816366792
 10
4037.953250854322
 20
1894.291343557
 10
4037.953241908037
 20
1894.292365508437
 10
4037.953233984345
 20
1894.292992608905
 10
4037.953227975452
 20
1894.293154122591
 10
4037.953225550288
 20
1894.29301372385
  0
ARC
  5
15EC
330
1F
100
AcDbEntity
  8
SANINDUSA
100
AcDbCircle
 10
4037.783141871382
 20
1894.27143777078
 30
0.0
 40
0.1702120172220305
100
AcDbArc
 50
359.757406742065
 51
0.365477577881315
  0
LWPOLYLINE
  5
15ED
330
1F
100
AcDbEntity
  8
SANINDUSA
100
AcDbPolyline
 90
        9
 70
   128
 43
0.0
 10
4037.953108075121
 20
1894.289540874124
 10
4037.953133353078
 20
1894.286349686146
 10
4037.95315842987
 20
1894.283392103672
 10
4037.953203913802
 20
1894.278590293884
 10
4037.953246715525
 20
1894.274813177347
 10
4037.95328557589
 20
1894.27218303299
 10
4037.953319449956
 20
1894.270758005142
 10
4037.95333709293
 20
1894.270506756663
 10
4037.953337221453
 20
1894.270508515
  0
ELLIPSE
  5
15EE
330
1F
100
AcDbEntity
  8
SANINDUSA
100
AcDbEllipse
 10
4037.954506060307
 20
1894.109714724151
 30
0.0
 11
-0.0039999611731454
 21
0.5206854943019592
 31
0.0
210
0.0
220
0.0
230
1.0
 40
0.0000338481313148
 41
1.007729836710513
 42
1.218169174627236
  0
LINE
  5
15EF
330
1F
100
AcDbEntity
  8
SANINDUSA
100
AcDbLine
 10
4037.952356050407
 20
1894.391516450335
 30
0.0
 11
4037.952356050769
 21
1894.387647046059
 31
0.0
  0
ELLIPSE
  5
15F0
330
1F
100
AcDbEntity
  8
SANINDUSA
100
AcDbEllipse
 10
4037.954506060307
 20
1894.109714724151
 30
0.0
 11
-0.0039999611731454
 21
0.5206854943019592
 31
0.0
210
0.0
220
0.0
230
1.0
 40
0.0000338481313148
 41
5.094055436347477
 42
5.284267614590873
  0
LWPOLYLINE
  5
15F1
330
1F
100
AcDbEntity
  8
SANINDUSA
100
AcDbPolyline
 90
        3
 70
   128
 43
0.0
 10
4037.953214188152
 20
1894.291640924573
 10
4037.953203943604
 20
1894.29085143125
 10
4037.953195440629
 20
1894.29068061924
  0
ARC
  5
15F2
330
1F
100
AcDbEntity
  8
SANINDUSA
100
AcDbCircle
 10
4038.636324034284
 20
1894.305390573705
 30
0.0
 40
0.6832936811853489
100
AcDbArc
 50
180.1456751029498
 51
181.2414694312431
  0
ELLIPSE
  5
15F3
330
1F
100
AcDbEntity
  8
SANINDUSA
100
AcDbEllipse
 10
4037.955506040507
 20
1894.109714724151
 30
0.0
 11
0.0039999611731457
 21
0.5206854943019587
 31
0.0
210
0.0
220
0.0
230
1.0
 40
0.0000338481313148
 41
5.065016132597976
 42
5.275455470586161
  0
ARC
  5
15F4
330
1F
100
AcDbEntity
  8
SANINDUSA
100
AcDbCircle
 10
4036.803521302753
 20
1894.293928415222
 30
0.0
 40
1.153391067321844
100
AcDbArc
 50
358.8373193978094
 51
359.7820442697999
  0
ARC
  5
15F5
330
1F
100
AcDbEntity
  8
SANINDUSA
100
AcDbCircle
 10
4038.082169098167
 20
1894.271485836273
 30
0.0
 40
0.1255117135044695
100
AcDbArc
 50
179.5262993431306
 51
180.3509344941466
  0
LWPOLYLINE
  5
15F6
330
1F
100
AcDbEntity
  8
SANINDUSA
100
AcDbPolyline
 90
        6
 70
   128
 43
0.0
 10
4037.956786551559
 20
1894.29301372385
 10
4037.956781174102
 20
1894.293127389908
 10
4037.956774034584
 20
1894.292709486842
 10
4037.956765440338
 20
1894.291857915282
 10
4037.956756358081
 20
1894.290668713212
 10
4037.956750915432
 20
1894.289816366792
  0
LINE
  5
15F7
330
1F
100
AcDbEntity
  8
SANINDUSA
100
AcDbLine
 10
4037.956797913035
 20
1894.291640919826
 30
0.0
 11
4037.956786550745
 21
1894.293013725458
 31
0.0
  0
LWPOLYLINE
  5
15F8
330
1F
100
AcDbEntity
  8
SANINDUSA
100
AcDbPolyline
 90
        8
 70
   128
 43
0.0
 10
4037.956979540223
 20
1894.303653294504
 10
4037.956954156094
 20
1894.300507622123
 10
4037.956929215276
 20
1894.297720270515
 10
4037.956898552412
 20
1894.29474984324
 10
4037.956870186189
 20
1894.292529987454
 10
4037.956844958523
 20
1894.291134851336
 10
4037.956823541828
 20
1894.290592359662
 10
4037.956822079652
 20
1894.290614711404
  0
LWPOLYLINE
  5
15F9
330
1F
100
AcDbEntity
  8
SANINDUSA
100
AcDbPolyline
 90
        3
 70
   128
 43
0.0
 10
4037.956818585331
 20
1894.290668132066
 10
4037.956809035549
 20
1894.29081420815
 10
4037.956797913694
 20
1894.291640924573
  0
ELLIPSE
  5
15FA
330
1F
100
AcDbEntity
  8
SANINDUSA
100
AcDbEllipse
 10
4037.955506040507
 20
1894.109714724151
 30
0.0
 11
0.0039999611731457
 21
0.5206854943019587
 31
0.0
210
0.0
220
0.0
230
1.0
 40
0.0000338481313148
 41
0.9989176927067248
 42
1.189129870885568
  0
LINE
  5
15FB
330
1F
100
AcDbEntity
  8
SANINDUSA
100
AcDbLine
 10
4037.957656050408
 20
1894.391516450335
 30
0.0
 11
4037.957656051078
 21
1894.387647046059
 31
0.0
  0
LWPOLYLINE
  5
1604
330
1F
100
AcDbEntity
  8
SANINDUSA
100
AcDbPolyline
 90
       13
 70
   128
 43
0.0
 10
4037.95950605073
 20
1894.404736062795
 10
4037.959460246423
 20
1894.405103389457
 10
4037.959099394316
 20
1894.405808287024
 10
4037.958406924317
 20
1894.406426318273
 10
4037.957438933709
 20
1894.406907417163
 10
4037.956273847306
 20
1894.40721260412
 10
4037.955006050924
 20
1894.407317156255
 10
4037.953738254541
 20
1894.40721260412
 10
4037.952573166275
 20
1894.406907417163
 10
4037.951605177531
 20
1894.406426318273
 10
4037.950912705669
 20
1894.405808287024
 10
4037.950551853561
 20
1894.405103389457
 10
4037.950506051116
 20
1894.404736062795
  0
LWPOLYLINE
  5
1609
330
1F
100
AcDbEntity
  8
SANINDUSA
100
AcDbPolyline
 90
        3
 70
   128
 43
0.0
 10
4037.95189626799
 20
1894.38948744005
 10
4037.952166765044
 20
1894.388819368839
 10
4037.952356050769
 20
1894.387647046059
  0
LINE
  5
160A
330
1F
100
AcDbEntity
  8
SANINDUSA
100
AcDbLine
 10
4037.957656051078
 20
1894.387647046059
 30
0.0
 11
4037.95771667459
 21
1894.388050874978
 31
0.0
  0
LWPOLYLINE
  5
160B
330
1F
100
AcDbEntity
  8
SANINDUSA
100
AcDbPolyline
 90
        5
 70
   128
 43
0.0
 10
4037.961213943595
 20
1894.406157184675
 10
4037.961591842631
 20
1894.405380621836
 10
4037.961445019627
 20
1894.404035935462
 10
4037.960547455632
 20
1894.40279564476
 10
4037.95950605073
 20
1894.402118142977
  0
LWPOLYLINE
  5
160C
330
1F
100
AcDbEntity
  8
SANINDUSA
100
AcDbPolyline
 90
        6
 70
   128
 43
0.0
 10
4037.950506051116
 20
1894.402122071296
 10
4037.94996407167
 20
1894.402394233555
 10
4037.948813156271
 20
1894.403560767234
 10
4037.948383233556
 20
1894.404873257786
 10
4037.94871247285
 20
1894.406179739446
 10
4037.948764684656
 20
1894.406237772018
  0
ARC
  5
160D
330
1F
100
AcDbEntity
  8
SANINDUSA
100
AcDbCircle
 10
4037.954983312282
 20
1894.422245556215
 30
0.0
 40
0.0227272651341895
100
AcDbArc
 50
179.9690952320022
 51
258.6384441269378
  0
ARC
  5
160E
330
1F
100
AcDbEntity
  8
SANINDUSA
100
AcDbCircle
 10
4037.955004397274
 20
1894.422262148831
 30
0.0
 40
0.0227483472326776
100
AcDbArc
 50
281.4135554054975
 51
180.0109153429275
  0
ARC
  5
160F
330
1F
100
AcDbEntity
  8
SANINDUSA
100
AcDbCircle
 10
4037.95590545832
 20
1894.430478632342
 30
0.0
 40
0.0245000000000001
100
AcDbArc
 50
338.6413964617117
 51
191.8191491539327
  0
LWPOLYLINE
  5
1614
330
1F
100
AcDbEntity
  8
SANINDUSA
100
AcDbPolyline
 90
       11
 70
   128
 43
0.0
 10
4037.940947530837
 20
1894.299525337577
 10
4037.940947783225
 20
1894.299522476554
 10
4037.941086843656
 20
1894.298000114322
 10
4037.941202030563
 20
1894.29684348619
 10
4037.941291284794
 20
1894.296060921908
 10
4037.941342566209
 20
1894.295759232998
 10
4037.94134837673
 20
1894.295989128113
 10
4037.941307326825
 20
1894.296732800365
 10
4037.941224478231
 20
1894.29790371871
 10
4037.941110708797
 20
1894.2993562392
 10
4037.940978610935
 20
1894.300934123158
  0
LWPOLYLINE
  5
1617
330
1F
100
AcDbEntity
  8
SANINDUSA
100
AcDbPolyline
 90
       11
 70
   128
 43
0.0
 10
4037.969630613038
 20
1894.300934033752
 10
4037.9696044615
 20
1894.300629088938
 10
4037.969474113593
 20
1894.299053477407
 10
4037.969365502754
 20
1894.297644602418
 10
4037.969291052827
 20
1894.296561735034
 10
4037.969258616725
 20
1894.295917557836
 10
4037.969270668038
 20
1894.295768218398
 10
4037.969324274967
 20
1894.296110527873
 10
4037.96941248984
 20
1894.296893837213
 10
4037.969530652324
 20
1894.298087137103
 10
4037.969661700585
 20
1894.299525352478
  0
LWPOLYLINE
  5
1619
330
1F
100
AcDbEntity
  8
SANINDUSA
100
AcDbPolyline
 90
        3
 70
   128
 43
0.0
 10
4037.976300745317
 20
1894.399629494458
 10
4037.973424143205
 20
1894.350258285463
 10
4037.969630613038
 20
1894.300934033752
  0
LWPOLYLINE
  5
161A
330
1F
100
AcDbEntity
  8
SANINDUSA
100
AcDbPolyline
 90
        3
 70
   128
 43
0.0
 10
4037.940978610935
 20
1894.300934123158
 10
4037.9371862235
 20
1894.350241476953
 10
4037.934308483311
 20
1894.399629494458
  0
ARC
  5
161C
330
1F
100
AcDbEntity
  8
SANINDUSA
100
AcDbCircle
 10
4037.955304613965
 20
1894.426972813975
 30
0.0
 40
0.0234998724431697
100
AcDbArc
 50
357.8027909775855
 51
182.1972090224144
  0
LWPOLYLINE
  5
161D
330
1F
100
AcDbEntity
  8
SANINDUSA
100
AcDbPolyline
 90
       22
 70
   128
 43
0.0
 10
4037.955304614314
 20
1894.448989378572
 10
4037.95572123588
 20
1894.448980167791
 10
4037.956169963861
 20
1894.448948927507
 10
4037.956696541095
 20
1894.448880024538
 10
4037.957291941205
 20
1894.44873995921
 10
4037.957654061773
 20
1894.448501210943
 10
4037.957187878945
 20
1894.448320964635
 10
4037.95643459917
 20
1894.448258657291
 10
4037.955972141633
 20
1894.448243430167
 10
4037.955618119845
 20
1894.448237834781
 10
4037.955219698185
 20
1894.448236434072
 10
4037.954889300325
 20
1894.448238995209
 10
4037.954486762219
 20
1894.448247252315
 10
4037.953967214608
 20
1894.448269572392
 10
4037.953309866646
 20
1894.448339024842
 10
4037.952974350238
 20
1894.448559833974
 10
4037.953343312302
 20
1894.448748344839
 10
4037.953828836838
 20
1894.448865181118
 10
4037.954330553347
 20
1894.448937781438
 10
4037.954768595332
 20
1894.448974080667
 10
4037.955178105319
 20
1894.44898853293
 10
4037.955304614314
 20
1894.448989378572
  0
LINE
  5
161E
330
1F
100
AcDbEntity
  8
SANINDUSA
100
AcDbLine
 10
4037.978069453546
 20
1894.408888725847
 30
0.0
 11
4037.978787208953
 21
1894.426071849236
 31
0.0
  0
LWPOLYLINE
  5
161F
330
1F
100
AcDbEntity
  8
SANINDUSA
100
AcDbPolyline
 90
        3
 70
   128
 43
0.0
 10
4037.969661700585
 20
1894.299525352478
 10
4037.970900698611
 20
1894.314121889234
 10
4037.971297199884
 20
1894.319123143613
  0
LWPOLYLINE
  5
1620
330
1F
100
AcDbEntity
  8
SANINDUSA
100
AcDbPolyline
 90
       13
 70
   128
 43
0.0
 10
4037.973263572016
 20
1894.345059918523
 10
4037.974147695162
 20
1894.357740113795
 10
4037.974633126565
 20
1894.364951076269
 10
4037.975098452577
 20
1894.371896067917
 10
4037.975537880369
 20
1894.378445575297
 10
4037.975949960807
 20
1894.384530438393
 10
4037.976334936032
 20
1894.390101382792
 10
4037.976689166436
 20
1894.395053051695
 10
4037.97701396332
 20
1894.399346353769
 10
4037.977307665208
 20
1894.402916247308
 10
4037.977567094425
 20
1894.405685883299
 10
4037.977761256555
 20
1894.407384779588
 10
4037.977889600256
 20
1894.408203818187
  0
ARC
  5
1621
330
1F
100
AcDbEntity
  8
SANINDUSA
100
AcDbCircle
 10
4037.023753681235
 20
1894.446185643033
 30
0.0
 40
0.9536841113603532
100
AcDbArc
 50
357.2018707166164
 51
358.2288318486382
  0
ARC
  5
1622
330
1F
100
AcDbEntity
  8
SANINDUSA
100
AcDbCircle
 10
4038.888729065757
 20
1894.446253092942
 30
0.0
 40
0.9555586890034073
100
AcDbArc
 50
181.9038267807829
 51
182.7966848123976
  0
LWPOLYLINE
  5
1624
330
1F
100
AcDbEntity
  8
SANINDUSA
100
AcDbPolyline
 90
        3
 70
   128
 43
0.0
 10
4037.939290040219
 20
1894.319400498927
 10
4037.939708532812
 20
1894.314121874333
 10
4037.940947530837
 20
1894.299525337577
  0
LWPOLYLINE
  5
1626
330
1F
100
AcDbEntity
  8
SANINDUSA
100
AcDbPolyline
 90
        3
 70
   128
 43
0.0
 10
4037.978069453546
 20
1894.408888725847
 10
4037.977855733642
 20
1894.407903962121
 10
4037.977854347834
 20
1894.40790170832
  0
LINE
  5
1628
330
1F
100
AcDbEntity
  8
SANINDUSA
100
AcDbLine
 10
4037.953337221453
 20
1894.270508515
 30
0.0
 11
4037.953352362782
 21
1894.270717082879
 31
0.0
  0
LINE
  5
1629
330
1F
100
AcDbEntity
  8
SANINDUSA
100
AcDbLine
 10
4037.953195440629
 20
1894.29068061924
 30
0.0
 11
4037.953190746764
 21
1894.290586309791
 31
0.0
  0
LWPOLYLINE
  5
162A
330
1F
100
AcDbEntity
  8
SANINDUSA
100
AcDbPolyline
 90
        3
 70
   128
 43
0.0
 10
4037.956659738951
 20
1894.270717086554
 10
4037.956673148134
 20
1894.270507188797
 10
4037.956674900883
 20
1894.270524712563
  0
LINE
  5
162B
330
1F
100
AcDbEntity
  8
SANINDUSA
100
AcDbLine
 10
4037.956822079652
 20
1894.290614711404
 30
0.0
 11
4037.956818585331
 21
1894.290668132066
 31
0.0
  0
LWPOLYLINE
  5
1634
330
1F
100
AcDbEntity
  8
SANINDUSA
100
AcDbPolyline
 90
       11
 70
   128
 43
0.0
 10
4037.952356050769
 20
1894.391516449213
 10
4037.952194492379
 20
1894.392454846114
 10
4037.951840813318
 20
1894.393050914914
 10
4037.951419240841
 20
1894.39333434245
 10
4037.951020232448
 20
1894.39331958285
 10
4037.950746514881
 20
1894.39302148512
 10
4037.950678956741
 20
1894.392499668807
 10
4037.950838067614
 20
1894.391814487338
 10
4037.951210261368
 20
1894.390966238737
 10
4037.951662338385
 20
1894.390065191597
 10
4037.95189626799
 20
1894.38948744005
  0
LWPOLYLINE
  5
1635
330
1F
100
AcDbEntity
  8
SANINDUSA
100
AcDbPolyline
 90
       13
 70
   128
 43
0.0
 10
4037.95771667459
 20
1894.388050874978
 10
4037.957817609468
 20
1894.388723211646
 10
4037.958171286667
 20
1894.389683055043
 10
4037.958592861006
 20
1894.390551599026
 10
4037.958991869399
 20
1894.391366092771
 10
4037.959265585103
 20
1894.392111188084
 10
4037.959333145106
 20
1894.392733263135
 10
4037.959174034232
 20
1894.393176267207
 10
4037.958801840478
 20
1894.393364122421
 10
4037.958349761599
 20
1894.393209705413
 10
4037.957845336804
 20
1894.392525716037
 10
4037.957656051078
 20
1894.391516449213
 10
4037.957656051078
 20
1894.391516449213
  0
LWPOLYLINE
  5
1636
330
1F
100
AcDbEntity
  8
SANINDUSA
100
AcDbPolyline
 90
        7
 70
   128
 43
0.0
 10
4037.955006052786
 20
1894.408853907421
 10
4037.955659625167
 20
1894.408834884226
 10
4037.957811969379
 20
1894.408489089742
 10
4037.957816532859
 20
1894.408487838045
 10
4037.959657107526
 20
1894.407736989021
 10
4037.960967841605
 20
1894.406662913323
 10
4037.961213943595
 20
1894.406157184675
  0
ARC
  5
1637
330
1F
100
AcDbEntity
  8
SANINDUSA
100
AcDbCircle
 10
4037.954402333034
 20
1894.401541066103
 30
0.0
 40
0.0073377193793186
100
AcDbArc
 50
85.28058550936901
 51
140.2024333969847
  0
LWPOLYLINE
  5
1638
330
1F
100
AcDbEntity
  8
SANINDUSA
100
AcDbPolyline
 90
        9
 70
   128
 43
0.0
 10
4037.955006052786
 20
1894.408211950496
 10
4037.953552247071
 20
1894.408111717835
 10
4037.951658542314
 20
1894.407642897502
 10
4037.950142168486
 20
1894.406842211544
 10
4037.949167986447
 20
1894.405796747938
 10
4037.948846724861
 20
1894.404620506153
 10
4037.94922044226
 20
1894.403440326735
 10
4037.950259800115
 20
1894.40238766028
 10
4037.950506051116
 20
1894.4022644016
  0
LWPOLYLINE
  5
1639
330
1F
100
AcDbEntity
  8
SANINDUSA
100
AcDbPolyline
 90
        9
 70
   128
 43
0.0
 10
4037.95950605073
 20
1894.402297703832
 10
4037.960205857689
 20
1894.402751144305
 10
4037.96100971573
 20
1894.403867556065
 10
4037.961123858624
 20
1894.405076764807
 10
4037.960532845044
 20
1894.406232087225
 10
4037.959312937268
 20
1894.407201821268
 10
4037.957606959203
 20
1894.407880703271
 10
4037.955610613385
 20
1894.408194726616
 10
4037.955006052786
 20
1894.408211950496
  0
SPLINE
  5
163A
330
1F
100
AcDbEntity
  8
SANINDUSA
100
AcDbSpline
210
0.0
220
0.0
230
1.0
 70
    12
 71
     3
 72
    33
 73
    29
 74
     0
 42
0.0000000001
 43
0.0000000001
 40
0.0
 40
0.0
 40
0.0
 40
0.0
 40
0.0203561208004652
 40
0.0618192377856172
 40
0.1030029296288302
 40
0.1435042257986014
 40
0.182959421979215
 40
0.2210612440915987
 40
0.2577601888829787
 40
0.2953539567755911
 40
0.3343890204148205
 40
0.3745795325958802
 40
0.415579024094002
 40
0.4569953015323299
 40
0.4984115798054935
 40
0.5394110726804094
 40
0.5796015880775057
 40
0.618636653063951
 40
0.6562304023436023
 40
0.6929293578737532
 40
0.7310311941672815
 40
0.7704863742344306
 40
0.8109876694794603
 40
0.8521713784799882
 40
0.8936344924055038
 40
0.9349574283494913
 40
0.9757289611779935
 40
1.0
 40
1.0
 40
1.0
 40
1.0
 10
4037.932066051103
 20
1894.430423564095
 30
0.0
 41
1.0
 10
4037.93205281373
 20
1894.430982307506
 30
0.0
 41
1.0
 10
4037.932012613327
 20
1894.432679148085
 30
0.0
 41
1.0
 10
4037.932469298769
 20
1894.435486637519
 30
0.0
 41
1.0
 10
4037.933391057018
 20
1894.438742049971
 30
0.0
 41
1.0
 10
4037.934762818709
 20
1894.441782491782
 30
0.0
 41
1.0
 10
4037.936487124762
 20
1894.444534178274
 30
0.0
 41
1.0
 10
4037.938497018315
 20
1894.446950546828
 30
0.0
 41
1.0
 10
4037.940762236293
 20
1894.44905334976
 30
0.0
 41
1.0
 10
4037.943298670776
 20
1894.450865063944
 30
0.0
 41
1.0
 10
4037.946136908771
 20
1894.452372550395
 30
0.0
 41
1.0
 10
4037.949242392283
 20
1894.45351232565
 30
0.0
 41
1.0
 10
4037.952540935488
 20
1894.454221878188
 30
0.0
 41
1.0
 10
4037.95594057714
 20
1894.454459869524
 30
0.0
 41
1.0
 10
4037.959339506755
 20
1894.454211921466
 30
0.0
 41
1.0
 10
4037.962635959049
 20
1894.453492713353
 30
0.0
 41
1.0
 10
4037.965738087537
 20
1894.452343842853
 30
0.0
 41
1.0
 10
4037.968571906456
 20
1894.450828054651
 30
0.0
 41
1.0
 10
4037.971102999349
 20
1894.449008916836
 30
0.0
 41
1.0
 10
4037.973362131419
 20
1894.446899487822
 30
0.0
 41
1.0
 10
4037.975364614678
 20
1894.444477242264
 30
0.0
 41
1.0
 10
4037.977082144127
 20
1894.441720532247
 30
0.0
 41
1.0
 10
4037.978439994148
 20
1894.438676027109
 30
0.0
 41
1.0
 10
4037.979371309663
 20
1894.435418148103
 30
0.0
 41
1.0
 10
4037.979839186743
 20
1894.432036760503
 30
0.0
 41
1.0
 10
4037.979802320649
 20
1894.428641175671
 30
0.0
 41
1.0
 10
4037.97942075566
 20
1894.425731109184
 30
0.0
 41
1.0
 10
4037.978877938702
 20
1894.424029628856
 30
0.0
 41
1.0
 10
4037.978675383189
 20
1894.423394710923
 30
0.0
 41
1.0
  0
LINE
  5
1643
330
1F
100
AcDbEntity
  8
SANINDUSA
100
AcDbLine
 10
4037.977655029902
 20
1894.423283478878
 30
0.0
 11
4037.978787208953
 21
1894.426071849236
 31
0.0
  0
LINE
  5
1644
330
1F
100
AcDbEntity
  8
SANINDUSA
100
AcDbLine
 10
4037.932473638025
 20
1894.424467019554
 30
0.0
 11
4037.931822018977
 21
1894.426071849236
 31
0.0
  0
ARC
  5
1647
330
1F
100
AcDbEntity
  8
SANINDUSA
100
AcDbCircle
 10
4035.790637305441
 20
1894.497490744005
 30
0.0
 40
2.187942544058703
100
AcDbArc
 50
355.3238878469358
 51
356.0050488647215
  0
LWPOLYLINE
  5
1648
330
1F
100
AcDbEntity
  8
SANINDUSA
100
AcDbPolyline
 90
        3
 70
   128
 43
0.0
 10
4037.977889600256
 20
1894.408203818187
 10
4037.977929352829
 20
1894.408457512319
 10
4037.978069453546
 20
1894.408888725847
  0
ARC
  5
164A
330
1F
100
AcDbEntity
  8
SANINDUSA
100
AcDbCircle
 10
4040.102153213999
 20
1894.496198258258
 30
0.0
 40
2.17007708531353
100
AcDbArc
 50
183.9936920647679
 51
184.6731082206726
  0
LINE
  5
17CE
330
1F
100
AcDbEntity
  8
SANINDUSA
100
AcDbLine
 10
4037.932539774383
 20
1894.408888725847
 30
0.0
 11
4037.931822018977
 21
1894.426071849236
 31
0.0
  0
LWPOLYLINE
  5
17CF
330
1F
100
AcDbEntity
  8
SANINDUSA
100
AcDbPolyline
 90
       13
 70
   128
 43
0.0
 10
4037.937345655914
 20
1894.345059918523
 10
4037.936461532768
 20
1894.357740113795
 10
4037.935976101365
 20
1894.364951076269
 10
4037.935510775354
 20
1894.371896067917
 10
4037.93507134756
 20
1894.378445575297
 10
4037.934659267124
 20
1894.384530438393
 10
4037.934274291898
 20
1894.390101382792
 10
4037.933920061495
 20
1894.395053051695
 10
4037.933595264609
 20
1894.399346353769
 10
4037.933301562723
 20
1894.402916247308
 10
4037.933042133506
 20
1894.405685883299
 10
4037.932847971375
 20
1894.407384779588
 10
4037.932719627675
 20
1894.408203818187
  0
LWPOLYLINE
  5
17D0
330
1F
100
AcDbEntity
  8
SANINDUSA
100
AcDbPolyline
 90
        3
 70
   128
 43
0.0
 10
4037.932539774383
 20
1894.408888725847
 10
4037.932753494288
 20
1894.407903962121
 10
4037.932754880096
 20
1894.40790170832
  0
LWPOLYLINE
  5
17D1
330
1F
100
AcDbEntity
  8
SANINDUSA
100
AcDbPolyline
 90
        3
 70
   128
 43
0.0
 10
4037.932719627675
 20
1894.408203818187
 10
4037.932679875101
 20
1894.408457512319
 10
4037.932539774383
 20
1894.408888725847
  0
ENDSEC
  0
SECTION
  2
OBJECTS
  0
DICTIONARY
  5
C
330
0
100
AcDbDictionary
281
     1
  3
ACAD_COLOR
350
EE6
  3
ACAD_GROUP
350
D
  3
ACAD_LAYOUT
350
1A
  3
ACAD_MATERIAL
350
EE5
  3
ACAD_MLINESTYLE
350
17
  3
ACAD_PLOTSETTINGS
350
19
  3
ACAD_PLOTSTYLENAME
350
E
  3
ACAD_TABLESTYLE
350
EE7
  3
ACDBHEADERROUNDTRIPXREC
350
17DE
  3
AcDbVariableDictionary
350
3D
  3
ASE_INDEX_DICTIONARY
350
1066
  0
DICTIONARY
  5
1051
330
2
100
AcDbDictionary
280
     1
281
     1
  3
ACAD_LAYERFILTERS
360
1065
  3
ACAD_LAYERSTATES
360
10D8
  3
ACLYDICTIONARY
360
1064
  0
DICTIONARY
  5
EE6
102
{ACAD_REACTORS
330
C
102
}
330
C
100
AcDbDictionary
281
     1
  0
DICTIONARY
  5
D
102
{ACAD_REACTORS
330
C
102
}
330
C
100
AcDbDictionary
281
     1
  0
DICTIONARY
  5
1A
102
{ACAD_REACTORS
330
C
102
}
330
C
100
AcDbDictionary
281
     1
  3
Layout1
350
1E
  3
Layout2
350
26
  3
Model
350
22
  0
DICTIONARY
  5
EE5
102
{ACAD_REACTORS
330
C
102
}
330
C
100
AcDbDictionary
281
     1
  0
DICTIONARY
  5
17
102
{ACAD_REACTORS
330
C
102
}
330
C
100
AcDbDictionary
281
     1
  3
Standard
350
18
  0
DICTIONARY
  5
19
102
{ACAD_REACTORS
330
C
102
}
330
C
100
AcDbDictionary
281
     1
  0
ACDBDICTIONARYWDFLT
  5
E
102
{ACAD_REACTORS
330
C
102
}
330
C
100
AcDbDictionary
281
     1
  3
Normal
350
F
100
AcDbDictionaryWithDefault
340
F
  0
DICTIONARY
  5
EE7
102
{ACAD_REACTORS
330
C
102
}
330
C
100
AcDbDictionary
281
     1
  3
Standard
350
EE8
  0
DICTIONARY
  5
17DE
102
{ACAD_REACTORS
330
C
102
}
330
C
100
AcDbDictionary
281
     1
  0
DICTIONARY
  5
3D
102
{ACAD_REACTORS
330
C
102
}
330
C
100
AcDbDictionary
281
     1
  3
CTABLESTYLE
350
1049
  3
DIMASSOC
350
3F
  3
HIDETEXT
350
3E
  3
PROJECTNAME
350
17B4
  0
DICTIONARY
  5
1066
102
{ACAD_REACTORS
330
C
102
}
330
C
100
AcDbDictionary
281
     1
  3
ASEBlockHierarchyIndexRecord
350
1067
1001
DCO15
1040
1602247867.484
  0
DICTIONARY
  5
1065
102
{ACAD_REACTORS
330
1051
102
}
330
1051
100
AcDbDictionary
281
     1
  0
DICTIONARY
  5
10D8
102
{ACAD_REACTORS
330
1051
102
}
330
1051
100
AcDbDictionary
281
     1
  0
DICTIONARY
  5
1064
102
{ACAD_REACTORS
330
1051
102
}
330
1051
100
AcDbDictionary
281
     1
1001
ACAD
1000
<All
  0
LAYOUT
  5
1E
102
{ACAD_XDICTIONARY
360
17DF
102
}
102
{ACAD_REACTORS
330
1A
102
}
330
1A
100
AcDbPlotSettings
  1

  2
Ploter HP500
  4

  6

 40
0.0
 41
0.0
 42
0.0
 43
0.0
 44
0.0
 45
0.0
 46
0.0
 47
0.0
 48
0.0
 49
0.0
140
0.0
141
0.0
142
1.0
143
1.0
 70
   688
 72
     0
 73
     0
 74
     5
  7
sanindusa.ctb
 75
    16
147
1.0
148
0.0
149
0.0
100
AcDbLayout
  1
Layout1
 70
     1
 71
     1
 10
0.0
 20
0.0
 11
420.0
 21
297.0
 12
0.0
 22
0.0
 32
0.0
 14
1.000000000000000E+20
 24
1.000000000000000E+20
 34
1.000000000000000E+20
 15
-1.000000000000000E+20
 25
-1.000000000000000E+20
 35
-1.000000000000000E+20
146
0.0
 13
0.0
 23
0.0
 33
0.0
 16
1.0
 26
0.0
 36
0.0
 17
0.0
 27
1.0
 37
0.0
 76
     0
330
1B
  0
LAYOUT
  5
26
102
{ACAD_XDICTIONARY
360
17E3
102
}
102
{ACAD_REACTORS
330
1A
102
}
330
1A
100
AcDbPlotSettings
  1

  2
Ploter HP500
  4

  6

 40
0.0
 41
0.0
 42
0.0
 43
0.0
 44
0.0
 45
0.0
 46
0.0
 47
0.0
 48
0.0
 49
0.0
140
0.0
141
0.0
142
1.0
143
1.0
 70
   688
 72
     0
 73
     0
 74
     5
  7
sanindusa.ctb
 75
    16
147
1.0
148
0.0
149
0.0
100
AcDbLayout
  1
Layout2
 70
     1
 71
     2
 10
0.0
 20
0.0
 11
12.0
 21
9.0
 12
0.0
 22
0.0
 32
0.0
 14
0.0
 24
0.0
 34
0.0
 15
0.0
 25
0.0
 35
0.0
146
0.0
 13
0.0
 23
0.0
 33
0.0
 16
1.0
 26
0.0
 36
0.0
 17
0.0
 27
1.0
 37
0.0
 76
     0
330
23
  0
LAYOUT
  5
22
102
{ACAD_XDICTIONARY
360
17E1
102
}
102
{ACAD_REACTORS
330
1A
102
}
330
1A
100
AcDbPlotSettings
  1

  2
Ploter HP500
  4
User268
  6

 40
4.995333194732666
 41
16.97565841674804
 42
4.995330810546875
 43
16.97567749023437
 44
209.9733276367187
 45
296.9259948730469
 46
0.0
 47
0.0
 48
0.0
 49
0.0
140
0.0
141
0.0
142
1.0
143
1.0
 70
 11952
 72
     1
 73
     1
 74
     0
  7
sanindusa.ctb
 75
     0
147
1.0
148
-427.5957866592534
149
7.362384574453926
100
AcDbLayout
  1
Model
 70
     1
 71
     0
 10
0.0
 20
0.0
 11
12.0
 21
9.0
 12
0.0
 22
0.0
 32
0.0
 14
0.0
 24
0.0
 34
0.0
 15
0.0
 25
0.0
 35
0.0
146
0.0
 13
0.0
 23
0.0
 33
0.0
 16
1.0
 26
0.0
 36
0.0
 17
0.0
 27
1.0
 37
0.0
 76
     0
330
1F
  0
MLINESTYLE
  5
18
102
{ACAD_REACTORS
330
17
102
}
330
17
100
AcDbMlineStyle
  2
STANDARD
 70
     0
  3

 62
   256
 51
90.0
 52
90.0
 71
     2
 49
0.5
 62
   256
  6
BYLAYER
 49
-0.5
 62
   256
  6
BYLAYER
  0
ACDBPLACEHOLDER
  5
F
102
{ACAD_REACTORS
330
E
102
}
330
E
  0
TABLESTYLE
  5
EE8
102
{ACAD_REACTORS
330
EE7
102
}
330
EE7
100
AcDbTableStyle
  3
Standard
 70
     0
 71
     0
 40
1.5
 41
1.5
280
     0
281
     0
  7
Standard
140
4.5
170
     2
 62
     0
 63
     7
283
     0
274
    -2
284
     1
 64
     0
275
    -2
285
     1
 65
     0
276
    -2
286
     1
 66
     0
277
    -2
287
     1
 67
     0
278
    -2
288
     1
 68
     0
279
    -2
289
     1
 69
     0
  7
Standard
140
6.0
170
     5
 62
     0
 63
     7
283
     0
274
    -2
284
     1
 64
     0
275
    -2
285
     1
 65
     0
276
    -2
286
     1
 66
     0
277
    -2
287
     1
 67
     0
278
    -2
288
     1
 68
     0
279
    -2
289
     1
 69
     0
  7
Standard
140
4.5
170
     5
 62
     0
 63
     7
283
     0
274
    -2
284
     1
 64
     0
275
    -2
285
     1
 65
     0
276
    -2
286
     1
 66
     0
277
    -2
287
     1
 67
     0
278
    -2
288
     1
 68
     0
279
    -2
289
     1
 69
     0
  0
DICTIONARYVAR
  5
1049
102
{ACAD_REACTORS
330
3D
102
}
330
3D
100
DictionaryVariables
280
     0
  1
STANDARD
  0
DICTIONARYVAR
  5
3F
102
{ACAD_REACTORS
330
3D
102
}
330
3D
100
DictionaryVariables
280
     0
  1
2
  0
DICTIONARYVAR
  5
3E
102
{ACAD_REACTORS
330
3D
102
}
330
3D
100
DictionaryVariables
280
     0
  1
1
  0
DICTIONARYVAR
  5
17B4
102
{ACAD_REACTORS
330
3D
102
}
330
3D
100
DictionaryVariables
280
     0
  1

  0
XRECORD
  5
1067
102
{ACAD_REACTORS
330
1066
102
}
330
1066
100
AcDbXrecord
280
     1
  0
DICTIONARY
  5
17DF
330
1E
100
AcDbDictionary
280
     1
281
     1
  3
ACAD_XREC_ROUNDTRIP
360
17E0
  0
DICTIONARY
  5
17E3
330
26
100
AcDbDictionary
280
     1
281
     1
  3
ACAD_XREC_ROUNDTRIP
360
17E4
  0
DICTIONARY
  5
17E1
330
22
100
AcDbDictionary
280
     1
281
     1
  3
ACAD_XREC_ROUNDTRIP
360
17E2
  0
XRECORD
  5
17E0
102
{ACAD_REACTORS
330
17DF
102
}
330
17DF
100
AcDbXrecord
280
     1
102
SHADEPLOT
 70
     0
102
SHADEPLOTRESLEVEL
 70
     2
102
SHADEPLOTCUSTOMDPI
 70
   300
  0
XRECORD
  5
17E4
102
{ACAD_REACTORS
330
17E3
102
}
330
17E3
100
AcDbXrecord
280
     1
102
SHADEPLOT
 70
     0
102
SHADEPLOTRESLEVEL
 70
     2
102
SHADEPLOTCUSTOMDPI
 70
   300
  0
XRECORD
  5
17E2
102
{ACAD_REACTORS
330
17E1
102
}
330
17E1
100
AcDbXrecord
280
     1
102
SHADEPLOT
 70
     0
102
SHADEPLOTRESLEVEL
 70
     2
102
SHADEPLOTCUSTOMDPI
 70
   300
  0
ENDSEC
  0
EOF
