  0
SECTION
  2
HEADER
  9
$ACADVER
  1
AC1015
  9
$ACADMAINTVER
 70
    20
  9
$DWGCODEPAGE
  3
ANSI_1252
  9
$INSBASE
 10
0.0
 20
0.0
 30
0.0
  9
$EXTMIN
 10
97.82661321342352
 20
1057.042574418056
 30
0.0
  9
$EXTMAX
 10
100.0093931309341
 20
1057.422488165951
 30
0.0
  9
$LIMMIN
 10
0.0
 20
0.0
  9
$LIMMAX
 10
420.0
 20
297.0
  9
$ORTHOMODE
 70
     1
  9
$REGENMODE
 70
     1
  9
$FILLMODE
 70
     1
  9
$QTEXTMODE
 70
     0
  9
$MIRRTEXT
 70
     1
  9
$LTSCALE
 40
1.0
  9
$ATTMODE
 70
     1
  9
$TEXTSIZE
 40
2.5
  9
$TRACEWID
 40
1.0
  9
$TEXTSTYLE
  7
SANINDUSA
  9
$CLAYER
  8
0
  9
$CELTYPE
  6
ByLayer
  9
$CECOLOR
 62
   256
  9
$CELTSCALE
 40
1.0
  9
$DISPSILH
 70
     0
  9
$DIMSCALE
 40
1.0
  9
$DIMASZ
 40
2.0
  9
$DIMEXO
 40
1.0
  9
$DIMDLI
 40
1.0
  9
$DIMRND
 40
0.0
  9
$DIMDLE
 40
0.0
  9
$DIMEXE
 40
1.0
  9
$DIMTP
 40
0.0
  9
$DIMTM
 40
0.0
  9
$DIMTXT
 40
2.0
  9
$DIMCEN
 40
0.0
  9
$DIMTSZ
 40
0.0
  9
$DIMTOL
 70
     0
  9
$DIMLIM
 70
     0
  9
$DIMTIH
 70
     0
  9
$DIMTOH
 70
     0
  9
$DIMSE1
 70
     0
  9
$DIMSE2
 70
     0
  9
$DIMTAD
 70
     1
  9
$DIMZIN
 70
     8
  9
$DIMBLK
  1

  9
$DIMASO
 70
     1
  9
$DIMSHO
 70
     1
  9
$DIMPOST
  1

  9
$DIMAPOST
  1

  9
$DIMALT
 70
     0
  9
$DIMALTD
 70
     3
  9
$DIMALTF
 40
0.03937007874016
  9
$DIMLFAC
 40
1.0
  9
$DIMTOFL
 70
     1
  9
$DIMTVP
 40
0.0
  9
$DIMTIX
 70
     0
  9
$DIMSOXD
 70
     0
  9
$DIMSAH
 70
     0
  9
$DIMBLK1
  1

  9
$DIMBLK2
  1

  9
$DIMSTYLE
  2
SANINDUSA
  9
$DIMCLRD
 70
   256
  9
$DIMCLRE
 70
   256
  9
$DIMCLRT
 70
   256
  9
$DIMTFAC
 40
1.0
  9
$DIMGAP
 40
1.0
  9
$DIMJUST
 70
     0
  9
$DIMSD1
 70
     0
  9
$DIMSD2
 70
     0
  9
$DIMTOLJ
 70
     0
  9
$DIMTZIN
 70
     8
  9
$DIMALTZ
 70
     0
  9
$DIMALTTZ
 70
     0
  9
$DIMUPT
 70
     0
  9
$DIMDEC
 70
     1
  9
$DIMTDEC
 70
     1
  9
$DIMALTU
 70
     2
  9
$DIMALTTD
 70
     3
  9
$DIMTXSTY
  7
SANINDUSA
  9
$DIMAUNIT
 70
     0
  9
$DIMADEC
 70
     1
  9
$DIMALTRND
 40
0.0
  9
$DIMAZIN
 70
     0
  9
$DIMDSEP
 70
    44
  9
$DIMATFIT
 70
     3
  9
$DIMFRAC
 70
     0
  9
$DIMLDRBLK
  1

  9
$DIMLUNIT
 70
     2
  9
$DIMLWD
 70
    -1
  9
$DIMLWE
 70
    -1
  9
$DIMTMOVE
 70
     0
  9
$LUNITS
 70
     2
  9
$LUPREC
 70
     4
  9
$SKETCHINC
 40
1.0
  9
$FILLETRAD
 40
0.0
  9
$AUNITS
 70
     0
  9
$AUPREC
 70
     0
  9
$MENU
  1
.
  9
$ELEVATION
 40
0.0
  9
$PELEVATION
 40
0.0
  9
$THICKNESS
 40
0.0
  9
$LIMCHECK
 70
     0
  9
$CHAMFERA
 40
10.0
  9
$CHAMFERB
 40
10.0
  9
$CHAMFERC
 40
20.0
  9
$CHAMFERD
 40
0.0
  9
$SKPOLY
 70
     0
  9
$TDCREATE
 40
2453500.475089329
  9
$TDUCREATE
 40
2453500.433422662
  9
$TDUPDATE
 40
2456146.618909503
  9
$TDUUPDATE
 40
2456146.577242836
  9
$TDINDWG
 40
0.0059380440
  9
$TDUSRTIMER
 40
0.0059380440
  9
$USRTIMER
 70
     1
  9
$ANGBASE
 50
0.0
  9
$ANGDIR
 70
     0
  9
$PDMODE
 70
     0
  9
$PDSIZE
 40
0.0
  9
$PLINEWID
 40
0.0
  9
$SPLFRAME
 70
     0
  9
$SPLINETYPE
 70
     6
  9
$SPLINESEGS
 70
     8
  9
$HANDSEED
  5
1595
  9
$SURFTAB1
 70
     6
  9
$SURFTAB2
 70
     6
  9
$SURFTYPE
 70
     6
  9
$SURFU
 70
     6
  9
$SURFV
 70
     6
  9
$UCSBASE
  2

  9
$UCSNAME
  2

  9
$UCSORG
 10
0.0
 20
0.0
 30
0.0
  9
$UCSXDIR
 10
1.0
 20
0.0
 30
0.0
  9
$UCSYDIR
 10
0.0
 20
1.0
 30
0.0
  9
$UCSORTHOREF
  2

  9
$UCSORTHOVIEW
 70
     0
  9
$UCSORGTOP
 10
0.0
 20
0.0
 30
0.0
  9
$UCSORGBOTTOM
 10
0.0
 20
0.0
 30
0.0
  9
$UCSORGLEFT
 10
0.0
 20
0.0
 30
0.0
  9
$UCSORGRIGHT
 10
0.0
 20
0.0
 30
0.0
  9
$UCSORGFRONT
 10
0.0
 20
0.0
 30
0.0
  9
$UCSORGBACK
 10
0.0
 20
0.0
 30
0.0
  9
$PUCSBASE
  2

  9
$PUCSNAME
  2

  9
$PUCSORG
 10
0.0
 20
0.0
 30
0.0
  9
$PUCSXDIR
 10
1.0
 20
0.0
 30
0.0
  9
$PUCSYDIR
 10
0.0
 20
1.0
 30
0.0
  9
$PUCSORTHOREF
  2

  9
$PUCSORTHOVIEW
 70
     0
  9
$PUCSORGTOP
 10
0.0
 20
0.0
 30
0.0
  9
$PUCSORGBOTTOM
 10
0.0
 20
0.0
 30
0.0
  9
$PUCSORGLEFT
 10
0.0
 20
0.0
 30
0.0
  9
$PUCSORGRIGHT
 10
0.0
 20
0.0
 30
0.0
  9
$PUCSORGFRONT
 10
0.0
 20
0.0
 30
0.0
  9
$PUCSORGBACK
 10
0.0
 20
0.0
 30
0.0
  9
$USERI1
 70
     0
  9
$USERI2
 70
     0
  9
$USERI3
 70
     0
  9
$USERI4
 70
     0
  9
$USERI5
 70
     0
  9
$USERR1
 40
0.0
  9
$USERR2
 40
0.0
  9
$USERR3
 40
0.0
  9
$USERR4
 40
0.0
  9
$USERR5
 40
0.0
  9
$WORLDVIEW
 70
     1
  9
$SHADEDGE
 70
     3
  9
$SHADEDIF
 70
    70
  9
$TILEMODE
 70
     1
  9
$MAXACTVP
 70
    64
  9
$PINSBASE
 10
0.0
 20
0.0
 30
0.0
  9
$PLIMCHECK
 70
     0
  9
$PEXTMIN
 10
1.000000000000000E+20
 20
1.000000000000000E+20
 30
1.000000000000000E+20
  9
$PEXTMAX
 10
-1.000000000000000E+20
 20
-1.000000000000000E+20
 30
-1.000000000000000E+20
  9
$PLIMMIN
 10
0.0
 20
0.0
  9
$PLIMMAX
 10
420.0
 20
297.0
  9
$UNITMODE
 70
     0
  9
$VISRETAIN
 70
     1
  9
$PLINEGEN
 70
     0
  9
$PSLTSCALE
 70
     1
  9
$TREEDEPTH
 70
  3020
  9
$CMLSTYLE
  2
Standard
  9
$CMLJUST
 70
     0
  9
$CMLSCALE
 40
20.0
  9
$PROXYGRAPHICS
 70
     1
  9
$MEASUREMENT
 70
     1
  9
$CELWEIGHT
370
    -1
  9
$ENDCAPS
280
     0
  9
$JOINSTYLE
280
     0
  9
$LWDISPLAY
290
     0
  9
$INSUNITS
 70
     4
  9
$HYPERLINKBASE
  1

  9
$STYLESHEET
  1
monochrome.ctb
  9
$XEDIT
290
     1
  9
$CEPSNTYPE
380
     0
  9
$PSTYLEMODE
290
     1
  9
$FINGERPRINTGUID
  2
{B98A73AA-52AA-4C10-B469-C0E7150AC31F}
  9
$VERSIONGUID
  2
{DD7DBAD3-2FF5-4314-8A50-D69F9C93152C}
  9
$EXTNAMES
290
     1
  9
$PSVPSCALE
 40
0.0
  9
$OLESTARTUP
290
     0
  0
ENDSEC
  0
SECTION
  2
CLASSES
  0
CLASS
  1
ACDBDICTIONARYWDFLT
  2
AcDbDictionaryWithDefault
  3
ObjectDBX Classes
 90
        0
280
     0
281
     0
  0
CLASS
  1
ACDBPLACEHOLDER
  2
AcDbPlaceHolder
  3
ObjectDBX Classes
 90
        0
280
     0
281
     0
  0
CLASS
  1
LAYOUT
  2
AcDbLayout
  3
ObjectDBX Classes
 90
        0
280
     0
281
     0
  0
CLASS
  1
DICTIONARYVAR
  2
AcDbDictionaryVar
  3
ObjectDBX Classes
 90
        0
280
     0
281
     0
  0
CLASS
  1
DIMASSOC
  2
AcDbDimAssoc
  3
"AcDbDimAssoc|Product Desc:     AcDim ARX App For Dimension|Company:          Autodesk, Inc.|WEB Address:      www.autodesk.com"
 90
    32768
280
     0
281
     0
  0
CLASS
  1
MATERIAL
  2
AcDbMaterial
  3
ObjectDBX Classes
 90
     1153
280
     0
281
     0
  0
CLASS
  1
VISUALSTYLE
  2
AcDbVisualStyle
  3
ObjectDBX Classes
 90
     4095
280
     0
281
     0
  0
CLASS
  1
TABLESTYLE
  2
AcDbTableStyle
  3
ObjectDBX Classes
 90
     4095
280
     0
281
     0
  0
CLASS
  1
SCALE
  2
AcDbScale
  3
ObjectDBX Classes
 90
     1153
280
     0
281
     0
  0
CLASS
  1
MLEADERSTYLE
  2
AcDbMLeaderStyle
  3
ACDB_MLEADERSTYLE_CLASS
 90
     4095
280
     0
281
     0
  0
CLASS
  1
CELLSTYLEMAP
  2
AcDbCellStyleMap
  3
ObjectDBX Classes
 90
     1152
280
     0
281
     0
  0
ENDSEC
  0
SECTION
  2
TABLES
  0
TABLE
  2
VPORT
  5
8
330
0
100
AcDbSymbolTable
 70
     1
  0
VPORT
  5
14E7
330
8
100
AcDbSymbolTableRecord
100
AcDbViewportTableRecord
  2
*Active
 70
     0
 10
0.0
 20
0.0
 11
1.0
 21
1.0
 12
98.97130590541003
 22
1057.21559619887
 13
0.0
 23
0.0
 14
10.0
 24
10.0
 15
10.0
 25
10.0
 16
0.0
 26
0.0
 36
1.0
 17
0.0
 27
0.0
 37
0.0
 40
1.556224578222099
 41
1.645464025026068
 42
50.0
 43
0.0
 44
0.0
 50
0.0
 51
0.0
 71
     0
 72
   100
 73
     1
 74
     2
 75
     0
 76
     0
 77
     0
 78
     0
281
     0
 65
     1
110
0.0
120
0.0
130
0.0
111
1.0
121
0.0
131
0.0
112
0.0
122
1.0
132
0.0
 79
     0
146
0.0
  0
ENDTAB
  0
TABLE
  2
LTYPE
  5
5
330
0
100
AcDbSymbolTable
 70
     3
  0
LTYPE
  5
14
330
5
100
AcDbSymbolTableRecord
100
AcDbLinetypeTableRecord
  2
ByBlock
 70
     0
  3

 72
    65
 73
     0
 40
0.0
  0
LTYPE
  5
15
330
5
100
AcDbSymbolTableRecord
100
AcDbLinetypeTableRecord
  2
ByLayer
 70
     0
  3

 72
    65
 73
     0
 40
0.0
  0
LTYPE
  5
16
330
5
100
AcDbSymbolTableRecord
100
AcDbLinetypeTableRecord
  2
Continuous
 70
     0
  3
Solid line
 72
    65
 73
     0
 40
0.0
  0
LTYPE
  5
2D
330
5
100
AcDbSymbolTableRecord
100
AcDbLinetypeTableRecord
  2
DASHDOT
 70
     0
  3
Dash dot __ . __ . __ . __ . __ . __ . __ . __
 72
    65
 73
     4
 40
25.4
 49
12.7
 74
     0
 49
-6.349999999999999
 74
     0
 49
0.0
 74
     0
 49
-6.349999999999999
 74
     0
  0
LTYPE
  5
2E
330
5
100
AcDbSymbolTableRecord
100
AcDbLinetypeTableRecord
  2
HIDDEN
 70
     0
  3
Hidden __ __ __ __ __ __ __ __ __ __ __ __ __ _
 72
    65
 73
     2
 40
9.524999999999998
 49
6.349999999999999
 74
     0
 49
-3.174999999999999
 74
     0
  0
ENDTAB
  0
TABLE
  2
LAYER
  5
2
330
0
100
AcDbSymbolTable
 70
    17
  0
LAYER
  5
10
102
{ACAD_XDICTIONARY
360
1532
102
}
330
2
100
AcDbSymbolTableRecord
100
AcDbLayerTableRecord
  2
0
 70
     0
 62
     7
  6
Continuous
370
    -3
390
F
  0
LAYER
  5
2F
102
{ACAD_XDICTIONARY
360
1534
102
}
330
2
100
AcDbSymbolTableRecord
100
AcDbLayerTableRecord
  2
1
 70
     0
 62
     1
  6
Continuous
370
    -3
390
F
  0
LAYER
  5
30
102
{ACAD_XDICTIONARY
360
1536
102
}
330
2
100
AcDbSymbolTableRecord
100
AcDbLayerTableRecord
  2
2
 70
     0
 62
     2
  6
Continuous
370
    -3
390
F
  0
LAYER
  5
31
102
{ACAD_XDICTIONARY
360
1538
102
}
330
2
100
AcDbSymbolTableRecord
100
AcDbLayerTableRecord
  2
3
 70
     0
 62
     3
  6
Continuous
370
    -3
390
F
  0
LAYER
  5
32
102
{ACAD_XDICTIONARY
360
153A
102
}
330
2
100
AcDbSymbolTableRecord
100
AcDbLayerTableRecord
  2
4
 70
     0
 62
     4
  6
Continuous
370
    -3
390
F
  0
LAYER
  5
33
102
{ACAD_XDICTIONARY
360
153C
102
}
330
2
100
AcDbSymbolTableRecord
100
AcDbLayerTableRecord
  2
5
 70
     0
 62
     5
  6
Continuous
370
    -3
390
F
  0
LAYER
  5
34
102
{ACAD_XDICTIONARY
360
153E
102
}
330
2
100
AcDbSymbolTableRecord
100
AcDbLayerTableRecord
  2
6
 70
     0
 62
     6
  6
Continuous
370
    -3
390
F
  0
LAYER
  5
35
102
{ACAD_XDICTIONARY
360
1540
102
}
330
2
100
AcDbSymbolTableRecord
100
AcDbLayerTableRecord
  2
7
 70
     0
 62
     7
  6
Continuous
370
    -3
390
F
  0
LAYER
  5
36
102
{ACAD_XDICTIONARY
360
1542
102
}
330
2
100
AcDbSymbolTableRecord
100
AcDbLayerTableRecord
  2
cen
 70
     0
 62
     7
  6
DASHDOT
370
    -3
390
F
  0
LAYER
  5
37
102
{ACAD_XDICTIONARY
360
1544
102
}
330
2
100
AcDbSymbolTableRecord
100
AcDbLayerTableRecord
  2
hid
 70
     0
 62
     7
  6
HIDDEN
370
    -3
390
F
  0
LAYER
  5
5D6
102
{ACAD_XDICTIONARY
360
1546
102
}
330
2
100
AcDbSymbolTableRecord
100
AcDbLayerTableRecord
  2
hatch
 70
     0
 62
     9
  6
Continuous
370
    -3
390
F
  0
LAYER
  5
8AF
102
{ACAD_XDICTIONARY
360
1548
102
}
330
2
100
AcDbSymbolTableRecord
100
AcDbLayerTableRecord
  2
9
 70
     0
 62
     9
  6
Continuous
370
    -3
390
F
  0
LAYER
  5
8F8
102
{ACAD_XDICTIONARY
360
154A
102
}
330
2
100
AcDbSymbolTableRecord
100
AcDbLayerTableRecord
  2
leg fin
 70
     0
 62
     9
  6
Continuous
370
    -3
390
F
  0
LAYER
  5
91D
102
{ACAD_XDICTIONARY
360
154C
102
}
330
2
100
AcDbSymbolTableRecord
100
AcDbLayerTableRecord
  2
cotas
 70
     0
 62
     1
  6
Continuous
370
    -3
390
F
  0
LAYER
  5
92F
330
2
100
AcDbSymbolTableRecord
100
AcDbLayerTableRecord
  2
Defpoints
 70
     0
 62
     7
  6
Continuous
290
     0
370
    -3
390
F
  0
LAYER
  5
BA5
102
{ACAD_XDICTIONARY
360
154E
102
}
330
2
100
AcDbSymbolTableRecord
100
AcDbLayerTableRecord
  2
SANINDUSA
 70
     0
 62
     3
  6
Continuous
370
    -3
390
F
  0
LAYER
  5
14D1
102
{ACAD_XDICTIONARY
360
1550
102
}
330
2
100
AcDbSymbolTableRecord
100
AcDbLayerTableRecord
  2
BLOCKS
 70
     0
 62
     3
  6
Continuous
370
    -3
390
F
  0
ENDTAB
  0
TABLE
  2
STYLE
  5
3
330
0
100
AcDbSymbolTable
 70
     4
  0
STYLE
  5
11
330
3
100
AcDbSymbolTableRecord
100
AcDbTextStyleTableRecord
  2
Standard
 70
     0
 40
0.0
 41
1.0
 50
0.0
 71
     0
 42
2.5
  3
Avgardn.ttf
  4

1001
ACAD
1000
AvantGarde Bk BT
1071
       34
  0
STYLE
  5
2C
330
3
100
AcDbSymbolTableRecord
100
AcDbTextStyleTableRecord
  2

 70
     1
 40
0.0
 41
1.0
 50
0.0
 71
     0
 42
2.5
  3
ltypeshp.shx
  4

  0
STYLE
  5
91F
330
3
100
AcDbSymbolTableRecord
100
AcDbTextStyleTableRecord
  2
SANINDUSA
 70
     0
 40
0.0
 41
1.0
 50
0.0
 71
     0
 42
2.5
  3
verdana.TTF
  4

1001
ACAD
1000
Verdana
1071
       34
  0
STYLE
  5
14D2
330
3
100
AcDbSymbolTableRecord
100
AcDbTextStyleTableRecord
  2
cotas
 70
     0
 40
2.0
 41
0.8
 50
0.0
 71
     0
 42
4.0
  3
ISOCP.shx
  4

  0
ENDTAB
  0
TABLE
  2
VIEW
  5
6
330
0
100
AcDbSymbolTable
 70
     0
  0
ENDTAB
  0
TABLE
  2
UCS
  5
7
330
0
100
AcDbSymbolTable
 70
     0
  0
ENDTAB
  0
TABLE
  2
APPID
  5
9
330
0
100
AcDbSymbolTable
 70
     3
  0
APPID
  5
12
330
9
100
AcDbSymbolTableRecord
100
AcDbRegAppTableRecord
  2
ACAD
 70
     0
  0
APPID
  5
3A
330
9
100
AcDbSymbolTableRecord
100
AcDbRegAppTableRecord
  2
DCO15
 70
     0
  0
APPID
  5
1594
330
9
100
AcDbSymbolTableRecord
100
AcDbRegAppTableRecord
  2
ACAD_MLEADERVER
 70
     0
  0
ENDTAB
  0
TABLE
  2
DIMSTYLE
  5
A
330
0
100
AcDbSymbolTable
 70
     3
100
AcDbDimStyleTable
 71
     1
340
921
  0
DIMSTYLE
105
45
330
A
100
AcDbSymbolTableRecord
100
AcDbDimStyleTableRecord
  2
STANDARD
 70
     0
289
     0
340
11
  0
DIMSTYLE
105
921
330
A
100
AcDbSymbolTableRecord
100
AcDbDimStyleTableRecord
  2
SANINDUSA
 70
     0
 41
2.0
 42
1.0
 43
1.0
 44
1.0
 73
     0
 74
     0
 77
     1
 78
     8
140
2.0
141
0.0
143
0.03937007874016
147
1.0
171
     3
172
     1
176
   256
177
   256
178
   256
179
     1
271
     1
272
     1
274
     3
278
    44
283
     0
284
     8
340
91F
371
    -1
372
    -1
  0
DIMSTYLE
105
14D3
330
A
100
AcDbSymbolTableRecord
100
AcDbDimStyleTableRecord
  2
ISO-25
 70
     0
 41
2.5
 42
0.625
 43
3.75
 44
1.25
 73
     0
 74
     0
 77
     1
 78
     8
140
2.5
141
2.5
143
0.03937007874016
147
0.625
171
     3
172
     1
271
     2
272
     2
274
     3
278
    44
283
     0
284
     8
340
11
  0
ENDTAB
  0
TABLE
  2
BLOCK_RECORD
  5
1
330
0
100
AcDbSymbolTable
 70
    57
  0
BLOCK_RECORD
  5
1F
330
1
100
AcDbSymbolTableRecord
100
AcDbBlockTableRecord
  2
*Model_Space
340
22
  0
BLOCK_RECORD
  5
1B
330
1
100
AcDbSymbolTableRecord
100
AcDbBlockTableRecord
  2
*Paper_Space
340
1E
  0
BLOCK_RECORD
  5
23
330
1
100
AcDbSymbolTableRecord
100
AcDbBlockTableRecord
  2
*Paper_Space0
340
26
  0
BLOCK_RECORD
  5
919
330
1
100
AcDbSymbolTableRecord
100
AcDbBlockTableRecord
  2
_DotSmall
340
0
  0
BLOCK_RECORD
  5
922
330
1
100
AcDbSymbolTableRecord
100
AcDbBlockTableRecord
  2
base para cotas
340
0
310
2800000020000000200000000100080000000000000400000000000000000000000000000000000000000000000080000080000000808000800000008000800080800000C0C0C000C0DCC000F0CAA6000020400000206000002080000020A0000020C0000020E00000400000004020000040400000406000004080000040A0
310
000040C0000040E00000600000006020000060400000606000006080000060A0000060C0000060E00000800000008020000080400000806000008080000080A0000080C0000080E00000A0000000A0200000A0400000A0600000A0800000A0A00000A0C00000A0E00000C0000000C0200000C0400000C0600000C0800000C0
310
A00000C0C00000C0E00000E0000000E0200000E0400000E0600000E0800000E0A00000E0C00000E0E00040000000400020004000400040006000400080004000A0004000C0004000E00040200000402020004020400040206000402080004020A0004020C0004020E000404000004040200040404000404060004040800040
310
40A0004040C0004040E00040600000406020004060400040606000406080004060A0004060C0004060E00040800000408020004080400040806000408080004080A0004080C0004080E00040A0000040A0200040A0400040A0600040A0800040A0A00040A0C00040A0E00040C0000040C0200040C0400040C0600040C08000
310
40C0A00040C0C00040C0E00040E0000040E0200040E0400040E0600040E0800040E0A00040E0C00040E0E00080000000800020008000400080006000800080008000A0008000C0008000E00080200000802020008020400080206000802080008020A0008020C0008020E00080400000804020008040400080406000804080
310
008040A0008040C0008040E00080600000806020008060400080606000806080008060A0008060C0008060E00080800000808020008080400080806000808080008080A0008080C0008080E00080A0000080A0200080A0400080A0600080A0800080A0A00080A0C00080A0E00080C0000080C0200080C0400080C0600080C0
310
800080C0A00080C0C00080C0E00080E0000080E0200080E0400080E0600080E0800080E0A00080E0C00080E0E000C0000000C0002000C0004000C0006000C0008000C000A000C000C000C000E000C0200000C0202000C0204000C0206000C0208000C020A000C020C000C020E000C0400000C0402000C0404000C0406000C0
310
408000C040A000C040C000C040E000C0600000C0602000C0604000C0606000C0608000C060A000C060C000C060E000C0800000C0802000C0804000C0806000C0808000C080A000C080C000C080E000C0A00000C0A02000C0A04000C0A06000C0A08000C0A0A000C0A0C000C0A0E000C0C00000C0C02000C0C04000C0C06000
310
C0C08000C0C0A000F0FBFF00A4A0A000808080000000FF0000FF000000FFFF00FF000000FF00FF00FFFF0000FFFFFF00A4A4A4A4A4A4A4A4A4A4A4A4A4A4A4A4A4A4A4A4A4A4A4A4A4A4A4A4A4A4A4A4A4A4A4A4A4A4A4A4A4A4A4A4A4A4A4A4A4A4A4A4A4A4A4A4A4A4A4A4A4A4A4A4A4A4A4A4A4A4A4A4A4A4A4A4A4A4A4
310
A4A4A4A4A4A4A4A4A4A4A4A4A4A4A4A4A4A4A4A4A4A4A4A4A4A4A4A4A4A4A4A4A4A4A4A4A4A4A4A4A4A4A4A4A4A4A4A4A4A4A4A4A4A4A4A4A4A4A4A4A4A4A4A4A4A4A4A4A4A4A4A4A4A4A4A4A4A4A4A4A4A4A4A4A4A4A4A4A4A4A4A4A4A4A4A4A4A4A4A4A4A4A4A4A4A4A4A4A4A4A4A4A4A4A4A4A4A4A4A4A4A4A4A4A4A4A4
310
A4A4A4A4A4A4A4A4A4A4A4A4A4A4A4A4A4A4A4A4A4A4A4A4A4A4A4A4A4A4A4A4A4A4A4A4A4A4A4A4A4A4A4A4A4A4A4A4A4A4A4A4A4A4A4A4A4A4A4A4A4A4A4A4A4A4A4A4A4A4A4A4A4A4A4A4A4A4A4A4A4A4A4A4A4A4A4A4A4A4A4A4A4A4A4A4A4A4A4A4A4A4A4A4A4A4A4A4A4A4A4A4A4A4A4A4A4A4A4A4A4A4A4A4A4A4A4
310
A4A4A4A4A4A4A4A4A4A4A4A4A4A4A4A4A4A4A4A4A4A4A4A4A4A4A4A4A4A4A4A4A4A4A4A4A4A4A4A4A4A4A4A4A4A4A4A4A4A4A4A4A4A4A4A4A4A4A4A4A4A4A4A4A4A4A4A4A4A4A4A4A4A4A4A4A4A4A4A4A4A4A4A4A4A4A4A4A4A4A4A4A4A4A4A4A4A4A4A4A4A4A4A4A4A4A4A4A4A4A4A4A4A4A4A4F9F9F9F9F9F9F9F9F9F9F9
310
F9F9F9F9F9F9F9F9F9F9F9F9F9F9F9F9F9F9F9A4A4F9F9F9F9F9F9F9F9F9F9F9F9F9F9F9F9F9F9F9F9F9F9F9F9F9F9F9F9F9F9A4A4F9F9F9F9F9F9F9F9F9F9F9F9F9F9F9F9F9F9F9F9F9F9F9F9F9F9F9F9F9F9A4A4F9A4A4A4A4A4A4A4A4A4A4A4A4A4A4A4A4A4A4A4A4A4A4A4A4A4A4A4A4F9A4A4A4A4A4A4A4A4A4A4A4A4
310
A4A4A4A4A4A4A4A4A4A4A4A4A4A4A4A4A4A4A4A4A4A4A4A4A4A4A4A4A4A4A4A4A4A4A4A4A4A4A4A4A4A4A4A4A4A4A4A4A4A4A4A4A4A4A4A4A4A4A4A4A4A4A4A4A4A4A4A4A4A4A4A4A4A4A4A4A4A4A4A4A4A4A4A4A4A4A4A4A4A4A4A4A4A4A4A4A4A4A4A4A4A4A4A4A4A4A4A4A4A4A4A4A4A4A4A4A4A4A4A4A4A4A4A4A4A4A4
310
A4A4A4A4A4A4A4A4A4A4A4A4A4A4A4A4A4A4A4A4A4A4A4A4A4A4A4A4A4A4A4A4A4A4A4A4A4A4A4A4A4A4A4A4A4A4A4A4A4A4A4A4A4A4A4A4A4A4A4A4A4A4A4A4A4A4A4A4A4A4A4A4A4A4A4A4A4A4A4A4A4A4A4A4A4A4A4A4A4A4A4A4A4A4A4A4A4A4A4A4A4A4A4A4A4A4A4A4A4A4A4A4A4A4A4A4A4A4A4A4A4A4A4A4A4A4A4
310
A4A4A4A4A4A4A4A4A4A4A4A4A4A4A4A4A4A4A4A4A4A4A4A4A4A4A4A4A4A4A4A4A4A4A4A4A4A4A4A4A4A4A4A4A4A4A4A4A4A4A4A4A4A4A4A4A4A4A4A4A4A4A4A4A4A4A4A4A4A4A4A4A4A4A4A4A4A4A4A4A4A4A4A4A4A4A4A4A4A4A4A4A4A4A4A4A4A4A4A4A4A4A4A4A4A4A4A4A4A4A4A4A4A4A4A4A4A4A4A4A4A4A4A4A4A4A4
310
A4A4A4A4A4A4A4A4A4A4A4A4A4A4A4A4A4A4A4A4A4A4A4A4A4A4A4A4A4A4A4A4A4A4A4A4A4A4A4A4A4A4A4A4A4A4A4A4A4A4A4A4A4A4A4A4
1001
ACAD
1000
DesignCenter Data
1002
{
1070
     1
1070
     4
1002
}
  0
BLOCK_RECORD
  5
AA8
330
1
100
AcDbSymbolTableRecord
100
AcDbBlockTableRecord
  2
_CLOSED
340
0
  0
BLOCK_RECORD
  5
14D4
330
1
100
AcDbSymbolTableRecord
100
AcDbBlockTableRecord
  2
108340PL
340
0
  0
ENDTAB
  0
ENDSEC
  0
SECTION
  2
BLOCKS
  0
BLOCK
  5
20
330
1F
100
AcDbEntity
  8
0
100
AcDbBlockBegin
  2
*Model_Space
 70
     0
 10
0.0
 20
0.0
 30
0.0
  3
*Model_Space
  1

  0
ENDBLK
  5
21
330
1F
100
AcDbEntity
  8
0
100
AcDbBlockEnd
  0
BLOCK
  5
1C
330
1B
100
AcDbEntity
 67
     1
  8
0
100
AcDbBlockBegin
  2
*Paper_Space
 70
     0
 10
0.0
 20
0.0
 30
0.0
  3
*Paper_Space
  1

  0
ENDBLK
  5
1D
330
1B
100
AcDbEntity
 67
     1
  8
0
100
AcDbBlockEnd
  0
BLOCK
  5
24
330
23
100
AcDbEntity
 67
     1
  8
0
100
AcDbBlockBegin
  2
*Paper_Space0
 70
     0
 10
0.0
 20
0.0
 30
0.0
  3
*Paper_Space0
  1

  0
ENDBLK
  5
25
330
23
100
AcDbEntity
 67
     1
  8
0
100
AcDbBlockEnd
  0
BLOCK
  5
91B
330
919
100
AcDbEntity
  8
0
100
AcDbBlockBegin
  2
_DotSmall
 70
     0
 10
0.0
 20
0.0
 30
0.0
  3
_DotSmall
  1

  0
LWPOLYLINE
  5
91A
330
919
100
AcDbEntity
  8
0
  6
ByBlock
 62
     0
100
AcDbPolyline
 90
        2
 70
     1
 43
0.5
 10
-0.0625
 20
0.0
 42
1.0
 10
0.0625
 20
0.0
 42
1.0
  0
ENDBLK
  5
91C
330
919
100
AcDbEntity
  8
0
100
AcDbBlockEnd
  0
BLOCK
  5
92A
330
922
100
AcDbEntity
  8
0
100
AcDbBlockBegin
  2
base para cotas
 70
     0
 10
0.0
 20
0.0
 30
0.0
  3
base para cotas
  1

  0
LINE
  5
B36
330
922
100
AcDbEntity
  8
cotas
100
AcDbLine
 10
0.0
 20
-30.0
 30
0.0
 11
327.1260136525398
 21
-30.0
 31
0.0
  0
LINE
  5
B37
330
922
100
AcDbEntity
  8
cotas
100
AcDbLine
 10
0.0
 20
-25.0
 30
0.0
 11
327.1260136525398
 21
-25.0
 31
0.0
  0
LINE
  5
B38
330
922
100
AcDbEntity
  8
cotas
100
AcDbLine
 10
0.0
 20
-20.0
 30
0.0
 11
327.1260136525398
 21
-20.0
 31
0.0
  0
LINE
  5
B39
330
922
100
AcDbEntity
  8
cotas
100
AcDbLine
 10
0.0
 20
-15.0
 30
0.0
 11
327.1260136525398
 21
-15.0
 31
0.0
  0
LINE
  5
B3A
330
922
100
AcDbEntity
  8
cotas
100
AcDbLine
 10
0.0
 20
-10.0
 30
0.0
 11
327.1260136525398
 21
-10.0
 31
0.0
  0
LINE
  5
B3B
330
922
100
AcDbEntity
  8
cotas
100
AcDbLine
 10
0.0
 20
0.0
 30
0.0
 11
0.0
 21
-30.0
 31
0.0
  0
LINE
  5
B3C
330
922
100
AcDbEntity
  8
cotas
100
AcDbLine
 10
327.1260136525398
 20
-30.0
 30
0.0
 11
327.1260136525398
 21
0.0
 31
0.0
  0
ENDBLK
  5
92B
330
922
100
AcDbEntity
  8
0
100
AcDbBlockEnd
  0
BLOCK
  5
AAD
330
AA8
100
AcDbEntity
  8
0
100
AcDbBlockBegin
  2
_CLOSED
 70
     0
 10
0.0
 20
0.0
 30
0.0
  3
_CLOSED
  1

  0
LINE
  5
AA9
330
AA8
100
AcDbEntity
  8
0
100
AcDbLine
 10
-1.0
 20
0.166667
 30
0.0
 11
0.0
 21
0.0
 31
0.0
  0
LINE
  5
AAA
330
AA8
100
AcDbEntity
  8
0
100
AcDbLine
 10
0.0
 20
0.0
 30
0.0
 11
-1.0
 21
-0.166667
 31
0.0
  0
LINE
  5
AAB
330
AA8
100
AcDbEntity
  8
0
100
AcDbLine
 10
-1.0
 20
0.166667
 30
0.0
 11
-1.0
 21
-0.166667
 31
0.0
  0
LINE
  5
AAC
330
AA8
100
AcDbEntity
  8
0
100
AcDbLine
 10
0.0
 20
0.0
 30
0.0
 11
-1.0
 21
0.0
 31
0.0
  0
ENDBLK
  5
AAE
330
AA8
100
AcDbEntity
  8
0
100
AcDbBlockEnd
  0
BLOCK
  5
14E0
330
14D4
100
AcDbEntity
  8
0
100
AcDbBlockBegin
  2
108340PL
 70
     0
 10
0.0
 20
0.0
 30
0.0
  3
108340PL
  1

  0
LWPOLYLINE
  5
14D5
330
14D4
100
AcDbEntity
  8
BLOCKS
100
AcDbPolyline
 90
        2
 70
     0
 43
0.0
 10
0.1041420000000244
 20
-0.1380020000000292
 42
-0.070606
 10
0.1190560000000005
 20
-0.0863480000000436
 42
-0.070606
  0
LWPOLYLINE
  5
14D6
330
14D4
100
AcDbEntity
  8
BLOCKS
100
AcDbPolyline
 90
        2
 70
     0
 43
0.0
 10
0.0943750000000137
 20
-0.1330719999999707
 42
-0.099561
 10
0.1344890000000305
 20
-0.0418580000000475
 42
-0.099561
  0
LWPOLYLINE
  5
14D7
330
14D4
100
AcDbEntity
  8
BLOCKS
100
AcDbPolyline
 90
        2
 70
     0
 43
0.0
 10
-0.1190560000000005
 20
-0.0863480000000436
 42
-0.070606
 10
-0.1041420000000244
 20
-0.1380020000000292
 42
-0.070606
  0
LWPOLYLINE
  5
14D8
330
14D4
100
AcDbEntity
  8
BLOCKS
100
AcDbPolyline
 90
        2
 70
     0
 43
0.0
 10
-0.1344890000000305
 20
-0.0418580000000475
 42
-0.099561
 10
-0.0943750000000137
 20
-0.1330719999999707
 42
-0.099561
  0
CIRCLE
  5
14D9
330
14D4
100
AcDbEntity
  8
BLOCKS
100
AcDbCircle
 10
0.0
 20
-0.044179999999983
 30
0.0
 40
0.0175
  0
CIRCLE
  5
14DA
330
14D4
100
AcDbEntity
  8
BLOCKS
100
AcDbCircle
 10
0.0
 20
-0.1799999999999505
 30
0.0
 40
0.0225
  0
LWPOLYLINE
  5
14DB
330
14D4
100
AcDbEntity
  8
BLOCKS
100
AcDbPolyline
 90
        3
 70
     0
 43
0.0
 10
-0.1851930000000266
 20
-0.238141000000042
 42
-0.312309
 10
-0.1106800000000021
 20
-0.1310409999999825
 42
-0.473819
 10
-0.1046619999999621
 20
-0.1345460000000008
  0
LWPOLYLINE
  5
14DC
330
14D4
100
AcDbEntity
  8
BLOCKS
100
AcDbPolyline
 90
       16
 70
     1
 43
0.0
 10
-0.1749999999999545
 20
-0.2419330000000178
 42
-0.130429
 10
-0.1627079999999523
 20
-0.1956129999999808
 42
-0.106497
 10
-0.1237439999999879
 20
-0.1521599999999813
 42
-0.084123
 10
-0.0691870000000563
 20
-0.1251449999999755
 42
-0.073109
 10
0.0
 20
-0.114973999999961
 42
-0.073109
 10
0.0691870000000563
 20
-0.1251449999999755
 42
-0.084123
 10
0.1237439999999879
 20
-0.1521599999999813
 42
-0.106497
 10
0.1627079999999523
 20
-0.1956129999999808
 42
-0.130429
 10
0.1749999999999545
 20
-0.2419330000000178
 42
-0.141766
 10
0.1631029999999782
 20
-0.2830480000000085
 42
-0.10716
 10
0.1237439999999879
 20
-0.3230889999999823
 42
-0.078967
 10
0.0697099999999864
 20
-0.3474049999999812
 42
-0.066412
 10
0.0
 20
-0.3567050000000341
 42
-0.066412
 10
-0.0697099999999864
 20
-0.3474049999999812
 42
-0.078967
 10
-0.1237439999999879
 20
-0.3230889999999823
 42
-0.10716
 10
-0.1631029999999782
 20
-0.2830480000000085
 42
-0.141766
  0
LWPOLYLINE
  5
14DD
330
14D4
100
AcDbEntity
  8
BLOCKS
100
AcDbPolyline
 90
        3
 70
     0
 43
0.0
 10
0.1046619999999621
 20
-0.1345460000000008
 42
-0.473819
 10
0.1106800000000021
 20
-0.1310409999999825
 42
-0.312309
 10
0.1851930000000266
 20
-0.238141000000042
 42
-0.312309
  0
LWPOLYLINE
  5
14DE
330
14D4
100
AcDbEntity
  8
BLOCKS
100
AcDbPolyline
 90
        7
 70
     0
 43
0.0
 10
-0.2142330000000356
 20
-0.2335349999999613
 42
-0.107059
 10
-0.1677550000000565
 20
-0.0286139999999477
 42
-0.290311
 10
-0.1461060000000316
 20
-0.0147570000000315
 10
0.0
 20
-0.0141320000000178
 10
0.1461060000000316
 20
-0.0147570000000315
 42
-0.290311
 10
0.1677550000000565
 20
-0.0286139999999477
 42
-0.107059
 10
0.2142330000000356
 20
-0.2335349999999613
  0
LWPOLYLINE
  5
14DF
330
14D4
100
AcDbEntity
  8
BLOCKS
100
AcDbPolyline
 90
        8
 70
     1
 43
0.0
 10
-0.0173710000000256
 20
-0.3805380000000019
 42
-0.150297
 10
-0.1749999999999545
 20
-0.3320609999999538
 42
-0.240697
 10
-0.2250000000000227
 20
-0.2419330000000178
 42
-0.086177
 10
-0.1749999999999545
 20
0.0
 10
0.1749999999999545
 20
0.0
 42
-0.086177
 10
0.2250000000000227
 20
-0.2419330000000178
 42
-0.240697
 10
0.1749999999999545
 20
-0.3320609999999538
 42
-0.150297
 10
0.0173710000000256
 20
-0.3805380000000019
  0
ENDBLK
  5
14E1
330
14D4
100
AcDbEntity
  8
0
100
AcDbBlockEnd
  0
ENDSEC
  0
SECTION
  2
ENTITIES
  0
LWPOLYLINE
  5
102C
330
1F
100
AcDbEntity
  8
SANINDUSA
100
AcDbPolyline
 90
        7
 70
   128
 43
0.0
 10
97.96574135735745
 20
1057.285480622872
 10
97.98138891525619
 20
1057.291269686533
 10
97.99742413329703
 20
1057.295879103004
 10
98.0141365757235
 20
1057.299350721462
 10
98.03106444603704
 20
1057.301543051662
 10
98.0444278837011
 20
1057.302359211213
 10
98.05143006138784
 20
1057.302468809605
  0
LWPOLYLINE
  5
102E
330
1F
100
AcDbEntity
  8
SANINDUSA
100
AcDbPolyline
 90
        5
 70
   128
 43
0.0
 10
97.99903973801461
 20
1057.046796346132
 10
98.00712314507155
 20
1057.045608090757
 10
98.02709559336085
 20
1057.043524959197
 10
98.03787484603596
 20
1057.042903294054
 10
98.04868019869136
 20
1057.042634146829
  0
LWPOLYLINE
  5
1030
330
1F
100
AcDbEntity
  8
SANINDUSA
100
AcDbPolyline
 90
       19
 70
   128
 43
0.0
 10
98.05143006138784
 20
1057.073356220268
 10
98.03372062752471
 20
1057.073860346127
 10
98.01602756779953
 20
1057.075357692314
 10
97.99842855410259
 20
1057.077825711743
 10
97.98100125832419
 20
1057.081241857328
 10
97.96382335235461
 20
1057.085583581983
 10
97.95391320147823
 20
1057.088429507153
 10
97.94407027547144
 20
1057.091548971483
 10
97.93443254641061
 20
1057.095179817448
 10
97.92513798637216
 20
1057.099559887527
 10
97.91863176567311
 20
1057.103506436706
 10
97.91252983486101
 20
1057.108108214567
 10
97.90683110833581
 20
1057.113226647662
 10
97.90153450049739
 20
1057.118723162544
 10
97.89515885668045
 20
1057.126605821743
 10
97.88965381447505
 20
1057.135154674671
 10
97.88512005981688
 20
1057.144221507779
 10
97.8830037719198
 20
1057.149560977595
 10
97.88122053964922
 20
1057.155020692449
  0
LINE
  5
1032
330
1F
100
AcDbEntity
  8
SANINDUSA
100
AcDbLine
 10
97.87824719395226
 20
1057.422488165951
 30
0.0
 11
98.22778832083434
 21
1057.422488165951
 31
0.0
  0
LINE
  5
1034
330
1F
100
AcDbEntity
  8
SANINDUSA
100
AcDbLine
 10
97.9287056327036
 20
1057.408212798194
 30
0.0
 11
98.1741544900721
 21
1057.408212798194
 31
0.0
  0
LWPOLYLINE
  5
103C
330
1F
100
AcDbEntity
  8
SANINDUSA
100
AcDbPolyline
 90
        8
 70
   128
 43
0.0
 10
97.83877255792894
 20
1057.196276873302
 10
97.83981688635114
 20
1057.210817135665
 10
97.84162834404511
 20
1057.225299784198
 10
97.84377541223577
 20
1057.239737886681
 10
97.84731565991005
 20
1057.261465912863
 10
97.85135173224119
 20
1057.283107683677
 10
97.85471150749337
 20
1057.299417186617
 10
97.85539586168374
 20
1057.30258721512
  0
LWPOLYLINE
  5
103E
330
1F
100
AcDbEntity
  8
SANINDUSA
100
AcDbPolyline
 90
       10
 70
   128
 43
0.0
 10
97.87865500373937
 20
1057.197089092896
 10
97.88073050387787
 20
1057.206174100968
 10
97.88370177494904
 20
1057.215006874611
 10
97.88676838915783
 20
1057.222060949529
 10
97.89036973751654
 20
1057.228887347669
 10
97.89452391107138
 20
1057.235379324193
 10
97.89924900086859
 20
1057.241430134266
 10
97.90484123653733
 20
1057.247199485649
 10
97.91090318765029
 20
1057.252488127774
 10
97.91090323393447
 20
1057.252488165951
  0
LWPOLYLINE
  5
1040
330
1F
100
AcDbEntity
  8
SANINDUSA
100
AcDbPolyline
 90
       11
 70
   128
 43
0.0
 10
97.87035193607168
 20
1057.198092880249
 10
97.87196911498504
 20
1057.205456411377
 10
97.87413151808918
 20
1057.212678635871
 10
97.87676392124994
 20
1057.219574611406
 10
97.87987436204414
 20
1057.226269151281
 10
97.88417450233723
 20
1057.234018354382
 10
97.88910228204686
 20
1057.241380530344
 10
97.89286370421045
 20
1057.246083205338
 10
97.89697404338644
 20
1057.250484358441
 10
97.90137139956694
 20
1057.254575017517
 10
97.90596570463954
 20
1057.258446642481
  0
LWPOLYLINE
  5
1042
330
1F
100
AcDbEntity
  8
SANINDUSA
100
AcDbPolyline
 90
        9
 70
   128
 43
0.0
 10
97.87317146323458
 20
1057.421073447494
 10
97.86718726876946
 20
1057.400733607578
 10
97.85816814566084
 20
1057.367274580625
 10
97.85008797930032
 20
1057.333576493981
 10
97.84294292816495
 20
1057.299670785592
 10
97.83673369810415
 20
1057.265581768529
 10
97.83308640053212
 20
1057.242753600738
 10
97.82986710664644
 20
1057.219860339241
 10
97.8271724278148
 20
1057.196903223777
  0
LWPOLYLINE
  5
1044
330
1F
100
AcDbEntity
  8
SANINDUSA
100
AcDbPolyline
 90
        3
 70
   128
 43
0.0
 10
97.87987633685915
 20
1057.090279658235
 10
97.88277945291774
 20
1057.088384493007
 10
97.8862640954037
 20
1057.086301699292
  0
LWPOLYLINE
  5
1047
330
1F
100
AcDbEntity
  8
SANINDUSA
100
AcDbPolyline
 90
        7
 70
   128
 43
0.0
 10
97.83294526778563
 20
1057.150150998815
 10
97.83401007940094
 20
1057.147142599582
 10
97.83631533342349
 20
1057.14156542812
 10
97.83891759070757
 20
1057.136088331325
 10
97.84181085070256
 20
1057.13072862127
 10
97.84498774572996
 20
1057.125504042984
 10
97.84781521486797
 20
1057.121349778818
  0
LWPOLYLINE
  5
1049
330
1F
100
AcDbEntity
  8
SANINDUSA
100
AcDbPolyline
 90
        8
 70
   128
 43
0.0
 10
97.84946058175446
 20
1057.11922235438
 10
97.85172409939162
 20
1057.116204751111
 10
97.85569691453012
 20
1057.111404688023
 10
97.85992500825665
 20
1057.106791777423
 10
97.86432654191798
 20
1057.102464931191
 10
97.86889639844646
 20
1057.09842215025
 10
97.87364872817132
 20
1057.094645418212
 10
97.87753078296203
 20
1057.091885844104
  0
LWPOLYLINE
  5
104B
330
1F
100
AcDbEntity
  8
SANINDUSA
100
AcDbPolyline
 90
        3
 70
   128
 43
0.0
 10
97.84781521486797
 20
1057.121349778818
 10
97.84856536327904
 20
1057.120383147357
 10
97.84946058175446
 20
1057.11922235438
  0
LWPOLYLINE
  5
104C
330
1F
100
AcDbEntity
  8
SANINDUSA
100
AcDbPolyline
 90
        3
 70
   128
 43
0.0
 10
97.87751393469674
 20
1057.091861367271
 10
97.87799552995252
 20
1057.091530179913
 10
97.87987633685915
 20
1057.090279658235
  0
LINE
  5
104E
330
1F
100
AcDbEntity
  8
SANINDUSA
100
AcDbLine
 10
97.8271724278148
 20
1057.196903223777
 30
0.0
 11
97.82661321342352
 21
1057.189223583822
 31
0.0
  0
LWPOLYLINE
  5
104F
330
1F
100
AcDbEntity
  8
SANINDUSA
100
AcDbPolyline
 90
        7
 70
   128
 43
0.0
 10
97.8267432280759
 20
1057.182410663897
 10
97.8269508816847
 20
1057.178962283042
 10
97.82757943933841
 20
1057.172868942145
 10
97.8284330648859
 20
1057.16718123781
 10
97.82950793832242
 20
1057.161830455498
 10
97.83080199102828
 20
1057.156766976681
 10
97.83195537273439
 20
1057.153086422917
  0
LWPOLYLINE
  5
1050
330
1F
100
AcDbEntity
  8
SANINDUSA
100
AcDbPolyline
 90
        3
 70
   128
 43
0.0
 10
97.82661321342352
 20
1057.189223583822
 10
97.82661830748203
 20
1057.188731083422
 10
97.8267432280759
 20
1057.182410663897
  0
LWPOLYLINE
  5
1052
330
1F
100
AcDbEntity
  8
SANINDUSA
100
AcDbPolyline
 90
        3
 70
   128
 43
0.0
 10
97.88122053964922
 20
1057.155020692449
 10
97.87876124054271
 20
1057.165501028713
 10
97.87746948769623
 20
1057.176327403846
  0
LWPOLYLINE
  5
1055
330
1F
100
AcDbEntity
  8
SANINDUSA
100
AcDbPolyline
 90
        7
 70
   128
 43
0.0
 10
97.86892371606557
 20
1057.153381426758
 10
97.86890151472041
 20
1057.153526058613
 10
97.86879539549705
 20
1057.154237743479
 10
97.86844629399922
 20
1057.156881265008
 10
97.86799661349199
 20
1057.161591936789
 10
97.86772914838532
 20
1057.167978077075
 10
97.86792438722054
 20
1057.175735643887
  0
LINE
  5
1058
330
1F
100
AcDbEntity
  8
SANINDUSA
100
AcDbLine
 10
97.83192777583447
 20
1057.153077459027
 30
0.0
 11
97.83294266569381
 21
1057.150150163593
 31
0.0
  0
LWPOLYLINE
  5
105F
330
1F
100
AcDbEntity
  8
SANINDUSA
100
AcDbPolyline
 90
        5
 70
   128
 43
0.0
 10
97.87746948769623
 20
1057.176327403846
 10
97.87730204329683
 20
1057.18148642763
 10
97.87744177465302
 20
1057.186666259706
 10
97.87789400257526
 20
1057.191886289372
 10
97.87865500373937
 20
1057.197089092896
  0
LWPOLYLINE
  5
1062
330
1F
100
AcDbEntity
  8
SANINDUSA
100
AcDbPolyline
 90
        4
 70
   128
 43
0.0
 10
97.86792438722054
 20
1057.175735643887
 10
97.86804112300279
 20
1057.177643517143
 10
97.86870112794575
 20
1057.186076717504
 10
97.87035193607168
 20
1057.198092880249
  0
LWPOLYLINE
  5
1064
330
1F
100
AcDbEntity
  8
SANINDUSA
100
AcDbPolyline
 90
        7
 70
   128
 43
0.0
 10
97.9048574123052
 20
1057.076518038938
 10
97.90979782537529
 20
1057.074191794797
 10
97.91838337875049
 20
1057.070305074305
 10
97.9268961441349
 20
1057.066751184382
 10
97.93593301776246
 20
1057.063279252542
 10
97.94568728947815
 20
1057.059859375036
 10
97.95306891941162
 20
1057.057509038702
  0
LWPOLYLINE
  5
1065
330
1F
100
AcDbEntity
  8
SANINDUSA
100
AcDbPolyline
 90
        4
 70
   128
 43
0.0
 10
97.88945888185306
 20
1057.084453965502
 10
97.89327290930652
 20
1057.082443561021
 10
97.89997023491226
 20
1057.078893744993
 10
97.90137848132395
 20
1057.078176079105
  0
LWPOLYLINE
  5
1067
330
1F
100
AcDbEntity
  8
SANINDUSA
100
AcDbPolyline
 90
        3
 70
   128
 43
0.0
 10
97.90137848132395
 20
1057.078176079105
 10
97.9036160545106
 20
1057.077104118059
 10
97.9048574123052
 20
1057.076518038938
  0
LWPOLYLINE
  5
1069
330
1F
100
AcDbEntity
  8
SANINDUSA
100
AcDbPolyline
 90
        3
 70
   128
 43
0.0
 10
97.8862640954037
 20
1057.086301699292
 10
97.88942479817535
 20
1057.084472487495
 10
97.88949296553077
 20
1057.084435443508
  0
LWPOLYLINE
  5
106B
330
1F
100
AcDbEntity
  8
SANINDUSA
100
AcDbPolyline
 90
        4
 70
   128
 43
0.0
 10
97.95306891941162
 20
1057.057509038702
 10
97.96140726729005
 20
1057.055032872188
 10
97.9713743526681
 20
1057.052403135076
 10
97.97760157672819
 20
1057.050958043454
  0
LWPOLYLINE
  5
106D
330
1F
100
AcDbEntity
  8
SANINDUSA
100
AcDbPolyline
 90
        5
 70
   128
 43
0.0
 10
97.97760015728778
 20
1057.050952046889
 10
97.97853296816752
 20
1057.050727733882
 10
97.98862707334295
 20
1057.048625257168
 10
97.99876971705707
 20
1057.046835475839
 10
97.99903973801461
 20
1057.046796346132
  0
LWPOLYLINE
  5
1072
330
1F
100
AcDbEntity
  8
SANINDUSA
100
AcDbPolyline
 90
        4
 70
   128
 43
0.0
 10
97.88056998516657
 20
1057.395919621371
 10
97.87147020225416
 20
1057.365504997596
 10
97.86317164585481
 20
1057.334884469978
 10
97.85666717831347
 20
1057.30835603496
  0
LINE
  5
1075
330
1F
100
AcDbEntity
  8
SANINDUSA
100
AcDbLine
 10
97.92518215812025
 20
1057.404390601919
 30
0.0
 11
97.96014992828045
 21
1057.290016179328
 31
0.0
  0
LINE
  5
1077
330
1F
100
AcDbEntity
  8
SANINDUSA
100
AcDbLine
 10
97.95238767201768
 20
1057.290891990927
 30
0.0
 11
97.9180988156289
 21
1057.403045786631
 31
0.0
  0
LINE
  5
1079
330
1F
100
AcDbEntity
  8
SANINDUSA
100
AcDbLine
 10
97.85539586162061
 20
1057.302587215135
 30
0.0
 11
97.85666717831347
 21
1057.30835603496
 31
0.0
  0
LWPOLYLINE
  5
107B
330
1F
100
AcDbEntity
  8
SANINDUSA
100
AcDbPolyline
 90
        9
 70
   128
 43
0.0
 10
97.96014992828045
 20
1057.290016179328
 10
97.96064113562945
 20
1057.288894540872
 10
97.96124950702136
 20
1057.287861793228
 10
97.96194965640852
 20
1057.286961030762
 10
97.96271236804225
 20
1057.286229840381
 10
97.96350581558401
 20
1057.285698733109
 10
97.96429689015106
 20
1057.285389870927
 10
97.96505258187979
 20
1057.285316141997
 10
97.96574135735745
 20
1057.285480622872
  0
LWPOLYLINE
  5
107D
330
1F
100
AcDbEntity
  8
SANINDUSA
100
AcDbPolyline
 90
        4
 70
   128
 43
0.0
 10
97.95298116702745
 20
1057.287045835042
 10
97.95297870273259
 20
1057.287100717046
 10
97.95276051662954
 20
1057.289279189298
 10
97.95238767201768
 20
1057.290891990927
  0
LWPOLYLINE
  5
1081
330
1F
100
AcDbEntity
  8
SANINDUSA
100
AcDbPolyline
 90
        7
 70
   128
 43
0.0
 10
97.91090323273818
 20
1057.252488165951
 10
97.9109032790145
 20
1057.252488204138
 10
97.92036987509179
 20
1057.259869561072
 10
97.92795172865304
 20
1057.265202670077
 10
97.93575550595374
 20
1057.270205607886
 10
97.94382683818957
 20
1057.274903433277
 10
97.9520931562134
 20
1057.279249060547
  0
LWPOLYLINE
  5
1083
330
1F
100
AcDbEntity
  8
SANINDUSA
100
AcDbPolyline
 90
        5
 70
   128
 43
0.0
 10
97.90596570463952
 20
1057.258446642481
 10
97.91546998090318
 20
1057.265779245686
 10
97.92534502468102
 20
1057.272604362429
 10
97.93559061774296
 20
1057.278922258916
 10
97.94871776852943
 20
1057.286002621144
  0
LWPOLYLINE
  5
1085
330
1F
100
AcDbEntity
  8
SANINDUSA
100
AcDbPolyline
 90
        3
 70
   128
 43
0.0
 10
97.96004648789029
 20
1057.283058129486
 10
97.9633560915609
 20
1057.284497092594
 10
97.96574135735745
 20
1057.285480622872
  0
LWPOLYLINE
  5
1089
330
1F
100
AcDbEntity
  8
SANINDUSA
100
AcDbPolyline
 90
        4
 70
   128
 43
0.0
 10
97.9520931562134
 20
1057.279249060547
 10
97.95483266047805
 20
1057.280626660112
 10
97.95804425036276
 20
1057.282149451556
 10
97.95878038527533
 20
1057.282486735853
  0
LWPOLYLINE
  5
108A
330
1F
100
AcDbEntity
  8
SANINDUSA
100
AcDbPolyline
 90
        9
 70
   128
 43
0.0
 10
97.95335530518224
 20
1057.285822084278
 10
97.95370867414151
 20
1057.284793107537
 10
97.95391732671856
 20
1057.283758228298
 10
97.95397422683992
 20
1057.282752344222
 10
97.9538774557494
 20
1057.281809375207
 10
97.95363027671124
 20
1057.280961119562
 10
97.95324102496813
 20
1057.280236181722
 10
97.9527228266645
 20
1057.279659007662
 10
97.9520931562134
 20
1057.279249060547
  0
LINE
  5
108F
330
1F
100
AcDbEntity
  8
SANINDUSA
100
AcDbLine
 10
97.95335530518224
 20
1057.285822084278
 30
0.0
 11
97.95298116702745
 21
1057.287045835042
 31
0.0
  0
LWPOLYLINE
  5
1093
330
1F
100
AcDbEntity
  8
SANINDUSA
100
AcDbPolyline
 90
        5
 70
   128
 43
0.0
 10
97.94897207834985
 20
1057.286073849942
 10
97.94918041786743
 20
1057.286127636574
 10
97.95121253811942
 20
1057.286635072934
 10
97.95296921865151
 20
1057.287043197821
 10
97.95298116702745
 20
1057.287045835042
  0
LINE
  5
1094
330
1F
100
AcDbEntity
  8
SANINDUSA
100
AcDbLine
 10
97.95878038527533
 20
1057.282486735853
 30
0.0
 11
97.96004648789029
 21
1057.283058129486
 31
0.0
  0
LWPOLYLINE
  5
1098
330
1F
100
AcDbEntity
  8
SANINDUSA
100
AcDbPolyline
 90
        8
 70
   128
 43
0.0
 10
97.89740031627992
 20
1057.408212798194
 10
97.89442755405936
 20
1057.407891649463
 10
97.89153967797446
 20
1057.407113706857
 10
97.88877209179165
 20
1057.405848540639
 10
97.88625612376101
 20
1057.404136313657
 10
97.88420115926406
 20
1057.40216232677
 10
97.88248338795732
 20
1057.399889186561
 10
97.88056998516657
 20
1057.395919621371
  0
LWPOLYLINE
  5
109F
330
1F
100
AcDbEntity
  8
SANINDUSA
100
AcDbPolyline
 90
        9
 70
   128
 43
0.0
 10
97.87315941608401
 20
1057.42107364147
 10
97.87327642933174
 20
1057.421369436853
 10
97.87343885966413
 20
1057.421642938944
 10
97.8736425981212
 20
1057.421887229028
 10
97.8738824907816
 20
1057.42209612736
 10
97.87415246914001
 20
1057.422264349489
 10
97.87444570362062
 20
1057.422387639942
 10
97.87475477634325
 20
1057.422462879871
 10
97.87507180194136
 20
1057.422488165951
  0
LINE
  5
10A0
330
1F
100
AcDbEntity
  8
SANINDUSA
100
AcDbLine
 10
97.87824719395226
 20
1057.422488165951
 30
0.0
 11
97.87507906819513
 21
1057.422488165951
 31
0.0
  0
LINE
  5
10A4
330
1F
100
AcDbEntity
  8
SANINDUSA
100
AcDbLine
 10
97.91399637306852
 20
1057.408212798194
 30
0.0
 11
97.89740031627992
 21
1057.408212798194
 31
0.0
  0
LINE
  5
10A7
330
1F
100
AcDbEntity
  8
SANINDUSA
100
AcDbLine
 10
97.92241052972904
 20
1057.407171252786
 30
0.0
 11
97.92092834081781
 21
1057.407171252786
 31
0.0
  0
LWPOLYLINE
  5
10AA
330
1F
100
AcDbEntity
  8
SANINDUSA
100
AcDbPolyline
 90
        4
 70
   128
 43
0.0
 10
97.9287056327036
 20
1057.408212798194
 10
97.92661836787194
 20
1057.408104615915
 10
97.92468397156415
 20
1057.407784563709
 10
97.92298281181764
 20
1057.407265938732
  0
LWPOLYLINE
  5
10B0
330
1F
100
AcDbEntity
  8
SANINDUSA
100
AcDbPolyline
 90
        9
 70
   128
 43
0.0
 10
97.92298281181764
 20
1057.407265938732
 10
97.9233105015526
 20
1057.407058994353
 10
97.9236329159753
 20
1057.406798268114
 10
97.92394486469813
 20
1057.406487957315
 10
97.92424132581549
 20
1057.406133057494
 10
97.92451752674892
 20
1057.405739282004
 10
97.92476902107855
 20
1057.40531297004
 10
97.92499176012361
 20
1057.404860984582
 10
97.92518215812025
 20
1057.404390601919
  0
LWPOLYLINE
  5
10B1
330
1F
100
AcDbEntity
  8
SANINDUSA
100
AcDbPolyline
 90
        9
 70
   128
 43
0.0
 10
97.92029816193151
 20
1057.407265938732
 10
97.91992151671717
 20
1057.406962119452
 10
97.91955541305149
 20
1057.406567509175
 10
97.91921009744619
 20
1057.406093152253
 10
97.91889523459666
 20
1057.405552324993
 10
97.91861963688633
 20
1057.40496016407
 10
97.9183910177457
 20
1057.404333242888
 10
97.91821577576868
 20
1057.403689107722
 10
97.9180988156289
 20
1057.403045786631
  0
LWPOLYLINE
  5
10B3
330
1F
100
AcDbEntity
  8
SANINDUSA
100
AcDbPolyline
 90
        4
 70
   128
 43
0.0
 10
97.92029816193151
 20
1057.407265938732
 10
97.9182798830495
 20
1057.407784563709
 10
97.91614978718385
 20
1057.408104615915
 10
97.91399637306852
 20
1057.408212798194
  0
LWPOLYLINE
  5
10B9
330
1F
100
AcDbEntity
  8
SANINDUSA
100
AcDbPolyline
 90
        8
 70
   128
 43
0.0
 10
98.26408756484674
 20
1057.196276873302
 10
98.26304323642457
 20
1057.210817135665
 10
98.26123177873057
 20
1057.225299784198
 10
98.25908471053992
 20
1057.239737886681
 10
98.25554446286565
 20
1057.261465912863
 10
98.25150839053449
 20
1057.283107683677
 10
98.24814861528233
 20
1057.299417186617
 10
98.24746426109195
 20
1057.30258721512
  0
LWPOLYLINE
  5
10BB
330
1F
100
AcDbEntity
  8
SANINDUSA
100
AcDbPolyline
 90
        9
 70
   128
 43
0.0
 10
98.22968865954113
 20
1057.421073447494
 10
98.23567285400622
 20
1057.400733607578
 10
98.24469197711486
 20
1057.367274580625
 10
98.25277214347536
 20
1057.333576493981
 10
98.25991719461073
 20
1057.299670785592
 10
98.26612642467155
 20
1057.265581768529
 10
98.26977372224359
 20
1057.242753600738
 10
98.27299301612926
 20
1057.219860339241
 10
98.27568769496089
 20
1057.196903223777
  0
LWPOLYLINE
  5
10BC
330
1F
100
AcDbEntity
  8
SANINDUSA
100
AcDbPolyline
 90
       10
 70
   128
 43
0.0
 10
98.22420511903631
 20
1057.197089092896
 10
98.22212961889784
 20
1057.206174100968
 10
98.21915834782666
 20
1057.215006874611
 10
98.21609173361785
 20
1057.222060949529
 10
98.21249038525916
 20
1057.228887347669
 10
98.20833621170432
 20
1057.235379324193
 10
98.2036111219071
 20
1057.241430134266
 10
98.19801888623835
 20
1057.247199485649
 10
98.1919569351254
 20
1057.252488127774
 10
98.19195688884123
 20
1057.252488165951
  0
LWPOLYLINE
  5
10BE
330
1F
100
AcDbEntity
  8
SANINDUSA
100
AcDbPolyline
 90
       11
 70
   128
 43
0.0
 10
98.23250818670402
 20
1057.198092880249
 10
98.23089100779064
 20
1057.205456411377
 10
98.22872860468651
 20
1057.212678635871
 10
98.22609620152576
 20
1057.219574611406
 10
98.22298576073157
 20
1057.226269151281
 10
98.21868562043846
 20
1057.234018354382
 10
98.21375784072884
 20
1057.241380530344
 10
98.20999641856523
 20
1057.246083205338
 10
98.20588607938926
 20
1057.250484358441
 10
98.20148872320876
 20
1057.254575017517
 10
98.19689441813615
 20
1057.258446642481
  0
LWPOLYLINE
  5
10C1
330
1F
100
AcDbEntity
  8
SANINDUSA
100
AcDbPolyline
 90
        4
 70
   128
 43
0.0
 10
98.23493573555516
 20
1057.175735643887
 10
98.2348189997729
 20
1057.177643517143
 10
98.23415899482993
 20
1057.186076717504
 10
98.23250818670402
 20
1057.198092880249
  0
LWPOLYLINE
  5
10C3
330
1F
100
AcDbEntity
  8
SANINDUSA
100
AcDbPolyline
 90
        8
 70
   128
 43
0.0
 10
98.22534474585888
 20
1057.091863111935
 10
98.22925990014974
 20
1057.094681938108
 10
98.23388370180298
 20
1057.098355097523
 10
98.23838208327899
 20
1057.102323891335
 10
98.24269316376534
 20
1057.106541912524
 10
98.24682188654193
 20
1057.111014366473
 10
98.25077397714629
 20
1057.115746478335
 10
98.25339479765149
 20
1057.119225511669
  0
LWPOLYLINE
  5
10C4
330
1F
100
AcDbEntity
  8
SANINDUSA
100
AcDbPolyline
 90
        5
 70
   128
 43
0.0
 10
98.10799339123036
 20
1057.047633696884
 10
98.09573697770415
 20
1057.045608090757
 10
98.07576452941486
 20
1057.043524959197
 10
98.06498527673975
 20
1057.042903294054
 10
98.05417992408433
 20
1057.042634146829
  0
LINE
  5
10C5
330
1F
100
AcDbEntity
  8
SANINDUSA
100
AcDbLine
 10
98.05142810623749
 20
1057.042574418056
 30
0.0
 11
98.05417992408433
 21
1057.042634146829
 31
0.0
  0
LWPOLYLINE
  5
10C6
330
1F
100
AcDbEntity
  8
SANINDUSA
100
AcDbPolyline
 90
        3
 70
   128
 43
0.0
 10
98.04868019869136
 20
1057.042634146829
 10
98.05109469001259
 20
1057.0425753356
 10
98.05142810623749
 20
1057.042574418056
  0
LWPOLYLINE
  5
10C8
330
1F
100
AcDbEntity
  8
SANINDUSA
100
AcDbPolyline
 90
        4
 70
   128
 43
0.0
 10
98.10801189925877
 20
1057.047529037282
 10
98.11265131478359
 20
1057.04832496603
 10
98.12273549601201
 20
1057.050374723833
 10
98.12525620882043
 20
1057.050967950779
  0
LWPOLYLINE
  5
10CA
330
1F
100
AcDbEntity
  8
SANINDUSA
100
AcDbPolyline
 90
       19
 70
   128
 43
0.0
 10
98.05143006138784
 20
1057.073356220268
 10
98.06913949525098
 20
1057.073860346127
 10
98.08683255497617
 20
1057.075357692314
 10
98.10443156867311
 20
1057.077825711743
 10
98.12185886445151
 20
1057.081241857328
 10
98.13903677042107
 20
1057.085583581983
 10
98.14894692129746
 20
1057.088429507153
 10
98.15878984730426
 20
1057.091548971483
 10
98.16842757636509
 20
1057.095179817448
 10
98.17772213640353
 20
1057.099559887527
 10
98.1842283571026
 20
1057.103506436706
 10
98.19033028791469
 20
1057.108108214567
 10
98.19602901443989
 20
1057.113226647662
 10
98.20132562227829
 20
1057.118723162544
 10
98.20770126609524
 20
1057.126605821743
 10
98.21320630830065
 20
1057.135154674671
 10
98.2177400629588
 20
1057.144221507779
 10
98.2198563508559
 20
1057.149560977595
 10
98.22163958312648
 20
1057.155020692449
  0
LWPOLYLINE
  5
10CF
330
1F
100
AcDbEntity
  8
SANINDUSA
100
AcDbPolyline
 90
        7
 70
   128
 43
0.0
 10
98.14978560132994
 20
1057.057527657407
 10
98.1533667457182
 20
1057.058614990139
 10
98.16314564583995
 20
1057.061913658307
 10
98.17282807013656
 20
1057.065512702447
 10
98.18240961708919
 20
1057.069413545542
 10
98.19145235975703
 20
1057.073442444856
 10
98.19799952001385
 20
1057.076524854834
  0
LWPOLYLINE
  5
10D0
330
1F
100
AcDbEntity
  8
SANINDUSA
100
AcDbPolyline
 90
        4
 70
   128
 43
0.0
 10
98.12526295137118
 20
1057.050939611794
 10
98.13432713451087
 20
1057.053119446903
 10
98.14423252180722
 20
1057.055825026518
 10
98.14978611081437
 20
1057.057525907603
  0
LWPOLYLINE
  5
10D3
330
1F
100
AcDbEntity
  8
SANINDUSA
100
AcDbPolyline
 90
        3
 70
   128
 43
0.0
 10
98.20147168907524
 20
1057.078192826642
 10
98.20798655633506
 20
1057.081582049593
 10
98.21330268083222
 20
1057.084529894256
  0
LWPOLYLINE
  5
10D4
330
1F
100
AcDbEntity
  8
SANINDUSA
100
AcDbPolyline
 90
        3
 70
   128
 43
0.0
 10
98.19799952001385
 20
1057.076524854834
 10
98.20041826048719
 20
1057.07767392402
 10
98.20147168907524
 20
1057.078192826642
  0
LWPOLYLINE
  5
10D6
330
1F
100
AcDbEntity
  8
SANINDUSA
100
AcDbPolyline
 90
        3
 70
   128
 43
0.0
 10
98.21330268083222
 20
1057.084529894256
 10
98.21640661584593
 20
1057.086264194721
 10
98.21655562835772
 20
1057.086353832277
  0
LWPOLYLINE
  5
10D7
330
1F
100
AcDbEntity
  8
SANINDUSA
100
AcDbPolyline
 90
        3
 70
   128
 43
0.0
 10
98.21655562835772
 20
1057.086353832277
 10
98.21776207688197
 20
1057.087130787123
 10
98.22298532267234
 20
1057.090276933297
  0
LWPOLYLINE
  5
10D8
330
1F
100
AcDbEntity
  8
SANINDUSA
100
AcDbPolyline
 90
        3
 70
   128
 43
0.0
 10
98.22298532267234
 20
1057.090276933297
 10
98.22340411789953
 20
1057.090550473495
 10
98.22534474585888
 20
1057.091863111935
  0
LWPOLYLINE
  5
10DD
330
1F
100
AcDbEntity
  8
SANINDUSA
100
AcDbPolyline
 90
        3
 70
   128
 43
0.0
 10
98.22163958312648
 20
1057.155020692449
 10
98.22409888223297
 20
1057.165501028713
 10
98.22539063507946
 20
1057.176327403846
  0
LWPOLYLINE
  5
10E1
330
1F
100
AcDbEntity
  8
SANINDUSA
100
AcDbPolyline
 90
        5
 70
   128
 43
0.0
 10
98.22539063507946
 20
1057.176327403846
 10
98.22555807947887
 20
1057.18148642763
 10
98.22541834812266
 20
1057.186666259706
 10
98.22496612020042
 20
1057.191886289372
 10
98.22420511903631
 20
1057.197089092896
  0
LWPOLYLINE
  5
10E2
330
1F
100
AcDbEntity
  8
SANINDUSA
100
AcDbPolyline
 90
        7
 70
   128
 43
0.0
 10
98.25503723131252
 20
1057.12135430451
 10
98.25753463869597
 20
1057.124982374572
 10
98.26075522761691
 20
1057.130218773743
 10
98.26369583073834
 20
1057.13560454528
 10
98.26634666457021
 20
1057.141121563056
 10
98.26869936125262
 20
1057.146751648667
 10
98.26992417102811
 20
1057.150147728641
  0
LWPOLYLINE
  5
10E5
330
1F
100
AcDbEntity
  8
SANINDUSA
100
AcDbPolyline
 90
        3
 70
   128
 43
0.0
 10
98.25339807221286
 20
1057.119223471421
 10
98.25456837737405
 20
1057.120744246734
 10
98.25503723131252
 20
1057.12135430451
  0
LWPOLYLINE
  5
10E6
330
1F
100
AcDbEntity
  8
SANINDUSA
100
AcDbPolyline
 90
        7
 70
   128
 43
0.0
 10
98.27092818023265
 20
1057.153079400827
 10
98.27238876057014
 20
1057.157958605942
 10
98.2736968369716
 20
1057.163399362535
 10
98.27471017005358
 20
1057.168872353675
 10
98.27549521375855
 20
1057.174669315483
 10
98.27605013380463
 20
1057.180840077133
 10
98.27639509707486
 20
1057.18514616567
  0
LWPOLYLINE
  5
10E9
330
1F
100
AcDbEntity
  8
SANINDUSA
100
AcDbPolyline
 90
        7
 70
   128
 43
0.0
 10
98.23393640671014
 20
1057.153381426758
 10
98.23395860805529
 20
1057.153526058613
 10
98.23406472727864
 20
1057.154237743479
 10
98.23441382877648
 20
1057.156881265008
 10
98.23486350928371
 20
1057.161591936789
 10
98.23513097439036
 20
1057.167978077075
 10
98.23493573555516
 20
1057.175735643887
  0
LWPOLYLINE
  5
10EA
330
1F
100
AcDbEntity
  8
SANINDUSA
100
AcDbPolyline
 90
        3
 70
   128
 43
0.0
 10
98.26992417102811
 20
1057.150147728641
 10
98.27057026284549
 20
1057.151981489822
 10
98.27092818023265
 20
1057.153079400827
  0
LINE
  5
10ED
330
1F
100
AcDbEntity
  8
SANINDUSA
100
AcDbLine
 10
98.27639509707486
 20
1057.18514616567
 30
0.0
 11
98.27624690935218
 21
1057.189223583822
 31
0.0
  0
LINE
  5
10F0
330
1F
100
AcDbEntity
  8
SANINDUSA
100
AcDbLine
 10
98.27568769496089
 20
1057.196903223777
 30
0.0
 11
98.27624690935218
 21
1057.189223583822
 31
0.0
  0
LWPOLYLINE
  5
1100
330
1F
100
AcDbEntity
  8
SANINDUSA
100
AcDbPolyline
 90
        4
 70
   128
 43
0.0
 10
98.22229013760914
 20
1057.395919621371
 10
98.23138992052152
 20
1057.365504997596
 10
98.23968847692089
 20
1057.334884469978
 10
98.24619294446224
 20
1057.30835603496
  0
CIRCLE
  5
1103
330
1F
100
AcDbEntity
  8
SANINDUSA
100
AcDbCircle
 10
98.05143006138784
 20
1057.372488165952
 30
0.0
 40
0.0175
  0
LINE
  5
1105
330
1F
100
AcDbEntity
  8
SANINDUSA
100
AcDbLine
 10
98.17767796465544
 20
1057.404390601919
 30
0.0
 11
98.14271019449526
 21
1057.290016179328
 31
0.0
  0
LINE
  5
1107
330
1F
100
AcDbEntity
  8
SANINDUSA
100
AcDbLine
 10
98.15047245075803
 20
1057.290891990927
 30
0.0
 11
98.18476130714678
 21
1057.403045786631
 31
0.0
  0
LWPOLYLINE
  5
1109
330
1F
100
AcDbEntity
  8
SANINDUSA
100
AcDbPolyline
 90
        7
 70
   128
 43
0.0
 10
98.13711876541825
 20
1057.285480622872
 10
98.1214712075195
 20
1057.291269686533
 10
98.10543598947866
 20
1057.295879103004
 10
98.0887235470522
 20
1057.299350721462
 10
98.07179567673864
 20
1057.301543051662
 10
98.0584322390746
 20
1057.302359211213
 10
98.05143006138784
 20
1057.302468809605
  0
CIRCLE
  5
110B
330
1F
100
AcDbEntity
  8
SANINDUSA
100
AcDbCircle
 10
98.05143006138784
 20
1057.253884070972
 30
0.0
 40
0.0360881481805694
  0
CIRCLE
  5
110D
330
1F
100
AcDbEntity
  8
SANINDUSA
100
AcDbCircle
 10
98.05143006138784
 20
1057.252488165951
 30
0.0
 40
0.0245
  0
LWPOLYLINE
  5
1114
330
1F
100
AcDbEntity
  8
SANINDUSA
100
AcDbPolyline
 90
        4
 70
   128
 43
0.0
 10
98.14987895574823
 20
1057.287045835042
 10
98.14988142004311
 20
1057.287100717046
 10
98.15009960614617
 20
1057.289279189298
 10
98.15047245075803
 20
1057.290891990927
  0
LWPOLYLINE
  5
1117
330
1F
100
AcDbEntity
  8
SANINDUSA
100
AcDbPolyline
 90
        9
 70
   128
 43
0.0
 10
98.14271019449526
 20
1057.290016179328
 10
98.14221898714624
 20
1057.288894540872
 10
98.14161061575433
 20
1057.287861793228
 10
98.14091046636718
 20
1057.286961030762
 10
98.14014775473344
 20
1057.286229840381
 10
98.13935430719167
 20
1057.285698733109
 10
98.13856323262463
 20
1057.285389870927
 10
98.1378075408959
 20
1057.285316141997
 10
98.13711876541825
 20
1057.285480622872
  0
LWPOLYLINE
  5
111A
330
1F
100
AcDbEntity
  8
SANINDUSA
100
AcDbPolyline
 90
        7
 70
   128
 43
0.0
 10
98.1919568900375
 20
1057.252488165951
 10
98.19195684376119
 20
1057.252488204138
 10
98.18249024768389
 20
1057.259869561072
 10
98.17490839412267
 20
1057.265202670077
 10
98.16710461682196
 20
1057.270205607886
 10
98.15903328458611
 20
1057.274903433277
 10
98.15076696656229
 20
1057.279249060547
  0
LWPOLYLINE
  5
111C
330
1F
100
AcDbEntity
  8
SANINDUSA
100
AcDbPolyline
 90
        5
 70
   128
 43
0.0
 10
98.19689441813618
 20
1057.258446642481
 10
98.18739014187251
 20
1057.265779245686
 10
98.17751509809466
 20
1057.272604362429
 10
98.16726950503273
 20
1057.278922258916
 10
98.15414235424626
 20
1057.286002621144
  0
LWPOLYLINE
  5
111F
330
1F
100
AcDbEntity
  8
SANINDUSA
100
AcDbPolyline
 90
        4
 70
   128
 43
0.0
 10
98.15076696656229
 20
1057.279249060547
 10
98.14802746229764
 20
1057.280626660112
 10
98.14481587241294
 20
1057.282149451556
 10
98.14407973750036
 20
1057.282486735853
  0
LINE
  5
1120
330
1F
100
AcDbEntity
  8
SANINDUSA
100
AcDbLine
 10
98.14407973750036
 20
1057.282486735853
 30
0.0
 11
98.14281363488539
 21
1057.283058129486
 31
0.0
  0
LWPOLYLINE
  5
1121
330
1F
100
AcDbEntity
  8
SANINDUSA
100
AcDbPolyline
 90
        3
 70
   128
 43
0.0
 10
98.14281363488539
 20
1057.283058129486
 10
98.13950403121481
 20
1057.284497092594
 10
98.13711876541825
 20
1057.285480622872
  0
LWPOLYLINE
  5
1124
330
1F
100
AcDbEntity
  8
SANINDUSA
100
AcDbPolyline
 90
        3
 70
   128
 43
0.0
 10
98.15414235424626
 20
1057.286002621144
 10
98.15398808238446
 20
1057.286059748353
 10
98.15388804442584
 20
1057.286073849942
  0
LWPOLYLINE
  5
1128
330
1F
100
AcDbEntity
  8
SANINDUSA
100
AcDbPolyline
 90
        9
 70
   128
 43
0.0
 10
98.14950481759344
 20
1057.285822084278
 10
98.14915144863419
 20
1057.284793107537
 10
98.14894279605715
 20
1057.283758228298
 10
98.14888589593577
 20
1057.282752344222
 10
98.1489826670263
 20
1057.281809375207
 10
98.14922984606447
 20
1057.280961119562
 10
98.14961909780755
 20
1057.280236181722
 10
98.1501372961112
 20
1057.279659007662
 10
98.15076696656229
 20
1057.279249060547
  0
LINE
  5
112B
330
1F
100
AcDbEntity
  8
SANINDUSA
100
AcDbLine
 10
98.14950481759344
 20
1057.285822084278
 30
0.0
 11
98.14987895574823
 21
1057.287045835042
 31
0.0
  0
LWPOLYLINE
  5
112C
330
1F
100
AcDbEntity
  8
SANINDUSA
100
AcDbPolyline
 90
        5
 70
   128
 43
0.0
 10
98.15388804442584
 20
1057.286073849942
 10
98.15367970490827
 20
1057.286127636574
 10
98.15164758465627
 20
1057.286635072934
 10
98.14989090412417
 20
1057.287043197821
 10
98.14987895574823
 20
1057.287045835042
  0
LWPOLYLINE
  5
1130
330
1F
100
AcDbEntity
  8
SANINDUSA
100
AcDbPolyline
 90
        4
 70
   128
 43
0.0
 10
98.1741544900721
 20
1057.408212798194
 10
98.17624175490376
 20
1057.408104615915
 10
98.17817615121153
 20
1057.407784563709
 10
98.17987731095804
 20
1057.407265938732
  0
LINE
  5
1136
330
1F
100
AcDbEntity
  8
SANINDUSA
100
AcDbLine
 10
98.18886374970716
 20
1057.408212798194
 30
0.0
 11
98.20545980649578
 21
1057.408212798194
 31
0.0
  0
LWPOLYLINE
  5
1138
330
1F
100
AcDbEntity
  8
SANINDUSA
100
AcDbPolyline
 90
        4
 70
   128
 43
0.0
 10
98.18256196084419
 20
1057.407265938732
 10
98.1845802397262
 20
1057.407784563709
 10
98.18671033559185
 20
1057.408104615915
 10
98.18886374970716
 20
1057.408212798194
  0
LWPOLYLINE
  5
1139
330
1F
100
AcDbEntity
  8
SANINDUSA
100
AcDbPolyline
 90
        4
 70
   128
 43
0.0
 10
98.17987731095804
 20
1057.407265938732
 10
98.1800474269327
 20
1057.407214076234
 10
98.18024086656349
 20
1057.407182071014
 10
98.18044959304664
 20
1057.407171252786
  0
LWPOLYLINE
  5
113F
330
1F
100
AcDbEntity
  8
SANINDUSA
100
AcDbPolyline
 90
        9
 70
   128
 43
0.0
 10
98.18256196084419
 20
1057.407265938732
 10
98.18293860605853
 20
1057.406962119452
 10
98.18330470972421
 20
1057.406567509175
 10
98.18365002532949
 20
1057.406093152253
 10
98.18396488817903
 20
1057.405552324993
 10
98.18424048588937
 20
1057.40496016407
 10
98.18446910503
 20
1057.404333242888
 10
98.184644347007
 20
1057.403689107722
 10
98.18476130714678
 20
1057.403045786631
  0
LWPOLYLINE
  5
1141
330
1F
100
AcDbEntity
  8
SANINDUSA
100
AcDbPolyline
 90
        9
 70
   128
 43
0.0
 10
98.17987731095804
 20
1057.407265938732
 10
98.17954962122311
 20
1057.407058994353
 10
98.17922720680039
 20
1057.406798268114
 10
98.17891525807757
 20
1057.406487957315
 10
98.17861879696021
 20
1057.406133057494
 10
98.17834259602676
 20
1057.405739282004
 10
98.17809110169715
 20
1057.40531297004
 10
98.17786836265208
 20
1057.404860984582
 10
98.17767796465544
 20
1057.404390601919
  0
LWPOLYLINE
  5
1148
330
1F
100
AcDbEntity
  8
SANINDUSA
100
AcDbPolyline
 90
        8
 70
   128
 43
0.0
 10
98.20545980649578
 20
1057.408212798194
 10
98.20843256871633
 20
1057.407891649463
 10
98.21132044480123
 20
1057.407113706857
 10
98.21408803098405
 20
1057.405848540639
 10
98.21660399901467
 20
1057.404136313657
 10
98.21865896351162
 20
1057.40216232677
 10
98.22037673481839
 20
1057.399889186561
 10
98.22229013760914
 20
1057.395919621371
  0
LWPOLYLINE
  5
114A
330
1F
100
AcDbEntity
  8
SANINDUSA
100
AcDbPolyline
 90
        9
 70
   128
 43
0.0
 10
98.22778832083434
 20
1057.422488165951
 10
98.22810555635237
 20
1057.422462846159
 10
98.22841482298766
 20
1057.422387506784
 10
98.22870822003988
 20
1057.42226405621
 10
98.22897831562315
 20
1057.422095621496
 10
98.22921826808874
 20
1057.421886469174
 10
98.22942199932739
 20
1057.421641897171
 10
98.22958434873061
 20
1057.421368100611
 10
98.22968865954113
 20
1057.421073447494
  0
LINE
  5
114E
330
1F
100
AcDbEntity
  8
SANINDUSA
100
AcDbLine
 10
98.24746426115508
 20
1057.302587215135
 30
0.0
 11
98.24619294446224
 21
1057.30835603496
 31
0.0
  0
LWPOLYLINE
  5
1158
330
1F
100
AcDbEntity
  8
SANINDUSA
100
AcDbPolyline
 90
       12
 70
   128
 43
0.0
 10
99.13264123098734
 20
1057.168065728769
 10
99.13399498774573
 20
1057.167904125415
 10
99.13557506839252
 20
1057.167716886177
 10
99.13742402977002
 20
1057.167499504769
 10
99.13960295576897
 20
1057.167245965077
 10
99.14313621088652
 20
1057.166841662094
 10
99.14728740808797
 20
1057.166378998379
 10
99.15180918679212
 20
1057.165892598623
 10
99.15652497317086
 20
1057.165407469428
 10
99.16211799665886
 20
1057.164864942343
 10
99.16795867717933
 20
1057.164340535503
 10
99.1724791795508
 20
1057.163971919636
  0
LWPOLYLINE
  5
1159
330
1F
100
AcDbEntity
  8
SANINDUSA
100
AcDbPolyline
 90
       12
 70
   128
 43
0.0
 10
99.06744129422918
 20
1057.191942421306
 10
99.07759880668251
 20
1057.187324565819
 10
99.08786046001383
 20
1057.183623908669
 10
99.09822411873555
 20
1057.180524713909
 10
99.10869916463809
 20
1057.177673808161
 10
99.11927605938565
 20
1057.175078005107
 10
99.12994539227273
 20
1057.172741870878
 10
99.14069770466092
 20
1057.170669898707
 10
99.15968501816061
 20
1057.167693317252
 10
99.17884220358702
 20
1057.165554683031
 10
99.19811303694245
 20
1057.164264095923
 10
99.21744129422918
 20
1057.163831655803
  0
LINE
  5
115D
330
1F
100
AcDbEntity
  8
SANINDUSA
100
AcDbLine
 10
99.39062416166477
 20
1057.323740877393
 30
0.0
 11
99.0442584267936
 21
1057.323740877393
 31
0.0
  0
LINE
  5
115E
330
1F
100
AcDbEntity
  8
SANINDUSA
100
AcDbLine
 10
99.43123513624518
 20
1057.313831655803
 30
0.0
 11
99.00364745221319
 21
1057.313831655803
 31
0.0
  0
LWPOLYLINE
  5
1164
330
1F
100
AcDbEntity
  8
SANINDUSA
100
AcDbPolyline
 90
        6
 70
   128
 43
0.0
 10
99.03724893331329
 20
1057.211755260427
 10
99.04236150854792
 20
1057.20763196975
 10
99.04719370063633
 20
1057.204066019095
 10
99.05178157837312
 20
1057.200930992003
 10
99.05956382141587
 20
1057.196137708469
 10
99.06744249653463
 20
1057.191944802349
  0
LWPOLYLINE
  5
1165
330
1F
100
AcDbEntity
  8
SANINDUSA
100
AcDbPolyline
 90
        8
 70
   128
 43
0.0
 10
99.07017231343225
 20
1057.175797866667
 10
99.07017225541205
 20
1057.175797874624
 10
99.06510236641249
 20
1057.176780916777
 10
99.06029870665438
 20
1057.178280461138
 10
99.0557042857956
 20
1057.180316664927
 10
99.05153486233984
 20
1057.182754487693
 10
99.04787216160592
 20
1057.185488098235
 10
99.04432167519997
 20
1057.188917210893
  0
LWPOLYLINE
  5
1166
330
1F
100
AcDbEntity
  8
SANINDUSA
100
AcDbPolyline
 90
       21
 70
   128
 43
0.0
 10
98.99305328532793
 20
1057.301071070964
 10
98.99315207449856
 20
1057.300008655843
 10
98.99357229396548
 20
1057.296444830344
 10
98.9942289400983
 20
1057.292059812771
 10
98.99522922403019
 20
1057.286813023622
 10
98.99600779291722
 20
1057.283425574924
 10
98.99694738940887
 20
1057.279869256753
 10
98.99801786966005
 20
1057.276310523902
 10
98.99903680058452
 20
1057.273290869923
 10
98.99988519719943
 20
1057.270929350572
 10
99.00070726511271
 20
1057.268737117997
 10
99.00152864457512
 20
1057.266629540634
 10
99.00292967954934
 20
1057.263185623146
 10
99.0043091847523
 20
1057.259910717854
 10
99.00584806174295
 20
1057.256334422939
 10
99.00775611881854
 20
1057.252083786614
 10
99.00962836038234
 20
1057.248167644148
 10
99.01178057242242
 20
1057.243984802677
 10
99.01413176000929
 20
1057.23976842651
 10
99.01651103077453
 20
1057.235832747887
 10
99.01868460590694
 20
1057.232690585524
  0
LWPOLYLINE
  5
1167
330
1F
100
AcDbEntity
  8
SANINDUSA
100
AcDbPolyline
 90
       25
 70
   128
 43
0.0
 10
99.01868460590694
 20
1057.232690585524
 10
99.01868460590694
 20
1057.232690585524
 10
99.01923381288661
 20
1057.231738829742
 10
99.02011307636309
 20
1057.230373159011
 10
99.02092579470521
 20
1057.229122941173
 10
99.02167051179775
 20
1057.22797828928
 10
99.02278558810134
 20
1057.226249336436
 10
99.02382796608625
 20
1057.224606510871
 10
99.02483281219282
 20
1057.222993734531
 10
99.0257981322226
 20
1057.22141325612
 10
99.02671262341904
 20
1057.219883936139
 10
99.02757462902014
 20
1057.218410244398
 10
99.02839751750562
 20
1057.216971013806
 10
99.02957224577455
 20
1057.214854784611
 10
99.03079734350811
 20
1057.212560035972
 10
99.03197126388846
 20
1057.210264586509
 10
99.03306138539637
 20
1057.208034120709
 10
99.03440622027915
 20
1057.205110425772
 10
99.0357920255732
 20
1057.202009565931
 10
99.03777399398016
 20
1057.198134016423
 10
99.03899423938341
 20
1057.196053002483
 10
99.04043169799397
 20
1057.193846249646
 10
99.0421166887179
 20
1057.191541310344
 10
99.04407579270198
 20
1057.189177715117
 10
99.04432167519997
 20
1057.188917210893
  0
LWPOLYLINE
  5
1168
330
1F
100
AcDbEntity
  8
SANINDUSA
100
AcDbPolyline
 90
        3
 70
   128
 43
0.0
 10
99.0301469593526
 20
1057.218333377547
 10
99.02269706126979
 20
1057.226910235685
 10
99.01868460590694
 20
1057.232690585524
  0
LWPOLYLINE
  5
1169
330
1F
100
AcDbEntity
  8
SANINDUSA
100
AcDbPolyline
 90
        3
 70
   128
 43
0.0
 10
99.03724893331329
 20
1057.211755260427
 10
99.03503330703811
 20
1057.213687474306
 10
99.0301469593526
 20
1057.218333377547
  0
LWPOLYLINE
  5
116B
330
1F
100
AcDbEntity
  8
SANINDUSA
100
AcDbPolyline
 90
        9
 70
   128
 43
0.0
 10
98.9975516899811
 20
1057.313831655803
 10
98.99655132625422
 20
1057.313730459496
 10
98.99559145577354
 20
1057.31343096685
 10
98.99471093267843
 20
1057.312945300886
 10
98.9939453992433
 20
1057.312293120644
 10
98.99332584313095
 20
1057.311500825419
 10
98.99287734305778
 20
1057.310600486149
 10
98.99261805364432
 20
1057.309628547239
 10
98.99254584474416
 20
1057.308635548461
  0
LWPOLYLINE
  5
116C
330
1F
100
AcDbEntity
  8
SANINDUSA
100
AcDbPolyline
 90
       13
 70
   128
 43
0.0
 10
98.99256805893694
 20
1057.307948811585
 10
98.99256805975545
 20
1057.307948799947
 10
98.99256807470438
 20
1057.307948514674
 10
98.99256810102581
 20
1057.307947969531
 10
98.99254584474416
 20
1057.308635548461
 10
98.99256832345225
 20
1057.307943113378
 10
98.99256861816553
 20
1057.307936554224
 10
98.99257226065579
 20
1057.307854857946
 10
98.99259305165728
 20
1057.307404979857
 10
98.99264101955942
 20
1057.306469214225
 10
98.99273200140381
 20
1057.304961369615
 10
98.99289005768732
 20
1057.30282648112
 10
98.99305328532793
 20
1057.301071070964
  0
LWPOLYLINE
  5
1172
330
1F
100
AcDbEntity
  8
SANINDUSA
100
AcDbPolyline
 90
       16
 70
   128
 43
0.0
 10
99.04350432885173
 20
1057.323688209695
 10
99.03815372706466
 20
1057.32289946098
 10
99.03326472287361
 20
1057.322141861989
 10
99.02823462788818
 20
1057.321310598357
 10
99.02364810662627
 20
1057.320501521709
 10
99.01910456648792
 20
1057.319642367729
 10
99.01484369677303
 20
1057.318773101621
 10
99.0108646786102
 20
1057.317892368383
 10
99.00716513858823
 20
1057.316997793865
 10
99.00374463641218
 20
1057.316085435881
 10
99.00062407486407
 20
1057.315156216239
 10
98.99935353463718
 20
1057.314743166082
 10
98.99801998844772
 20
1057.314287104213
 10
98.99713588750032
 20
1057.313980683499
 10
98.99637708824194
 20
1057.313686211269
 10
98.99635442831245
 20
1057.313675762923
  0
LINE
  5
1175
330
1F
100
AcDbEntity
  8
SANINDUSA
100
AcDbLine
 10
99.00364745221319
 20
1057.313831655803
 30
0.0
 11
99.00269476754376
 21
1057.313831655803
 31
0.0
  0
LINE
  5
117A
330
1F
100
AcDbEntity
  8
SANINDUSA
100
AcDbLine
 10
99.00269476754376
 20
1057.313831655803
 30
0.0
 11
98.9975516899811
 21
1057.313831655803
 31
0.0
  0
LINE
  5
117E
330
1F
100
AcDbEntity
  8
SANINDUSA
100
AcDbLine
 10
99.04350432885173
 20
1057.323688209695
 30
0.0
 11
99.0442584267936
 21
1057.323740877393
 31
0.0
  0
LWPOLYLINE
  5
118C
330
1F
100
AcDbEntity
  8
SANINDUSA
100
AcDbPolyline
 90
       10
 70
   128
 43
0.0
 10
99.12783324904118
 20
1057.168663663995
 10
99.1223401174461
 20
1057.169402919072
 10
99.11660802642355
 20
1057.170217334023
 10
99.11085821308828
 20
1057.171061022459
 10
99.10517817851618
 20
1057.171901259016
 10
99.09980779879859
 20
1057.172682282008
 10
99.09482499116471
 20
1057.173374824911
 10
99.09042652848725
 20
1057.173935706555
 10
99.08670538290817
 20
1057.174348252312
 10
99.08370334994469
 20
1057.174609071365
  0
LWPOLYLINE
  5
118D
330
1F
100
AcDbEntity
  8
SANINDUSA
100
AcDbPolyline
 90
        3
 70
   128
 43
0.0
 10
99.08370334994469
 20
1057.174609071365
 10
99.07899582184771
 20
1057.174919820949
 10
99.07505806714816
 20
1057.175133463553
  0
LINE
  5
118E
330
1F
100
AcDbEntity
  8
SANINDUSA
100
AcDbLine
 10
99.07505806714816
 20
1057.175133463553
 30
0.0
 11
99.07017231343225
 21
1057.175797866667
 31
0.0
  0
LINE
  5
118F
330
1F
100
AcDbEntity
  8
SANINDUSA
100
AcDbLine
 10
99.13264598021138
 20
1057.168106336106
 30
0.0
 11
99.12783324904118
 21
1057.168663663995
 31
0.0
  0
LWPOLYLINE
  5
11A6
330
1F
100
AcDbEntity
  8
SANINDUSA
100
AcDbPolyline
 90
        9
 70
   128
 43
0.0
 10
99.26242868618412
 20
1057.163972223816
 10
99.26341025363498
 20
1057.164047367952
 10
99.26991695880914
 20
1057.16460376862
 10
99.27614289749294
 20
1057.165188715742
 10
99.28271057702586
 20
1057.16585533023
 10
99.28873524432686
 20
1057.166505442202
 10
99.29421329533688
 20
1057.167123344126
 10
99.29906620226702
 20
1057.167688413857
 10
99.30224544313711
 20
1057.168066662952
  0
LWPOLYLINE
  5
11A7
330
1F
100
AcDbEntity
  8
SANINDUSA
100
AcDbPolyline
 90
       11
 70
   128
 43
0.0
 10
99.36744104716602
 20
1057.19194291059
 10
99.35620474648139
 20
1057.186891254958
 10
99.34415624091151
 20
1057.182735905421
 10
99.33195886289681
 20
1057.179210831014
 10
99.31961456821774
 20
1057.176028475493
 10
99.30713821145182
 20
1057.173200812712
 10
99.29454518555779
 20
1057.170734818442
 10
99.27547087697497
 20
1057.167729206005
 10
99.25622401371134
 20
1057.165570298752
 10
99.2368617516638
 20
1057.164267916144
 10
99.21744129422918
 20
1057.163831655803
  0
LINE
  5
11AC
330
1F
100
AcDbEntity
  8
SANINDUSA
100
AcDbLine
 10
99.25147560545438
 20
1057.128831655804
 30
0.0
 11
99.18340698300399
 21
1057.128831655804
 31
0.0
  0
LWPOLYLINE
  5
11AF
330
1F
100
AcDbEntity
  8
SANINDUSA
100
AcDbPolyline
 90
       12
 70
   128
 43
0.0
 10
99.21744129422918
 20
1057.162761548884
 10
99.21744135422919
 20
1057.162761548884
 10
99.22498177294817
 20
1057.162801124425
 10
99.23230434711978
 20
1057.162911257917
 10
99.23922057860437
 20
1057.163078388621
 10
99.24551368508051
 20
1057.163277789546
 10
99.25103077091538
 20
1057.163484745183
 10
99.25559704559718
 20
1057.163673574237
 10
99.25908344259596
 20
1057.163823523879
 10
99.26139887537082
 20
1057.163924444194
 10
99.26237216552374
 20
1057.163968201313
 10
99.26242866652636
 20
1057.163972483482
  0
LWPOLYLINE
  5
11B1
330
1F
100
AcDbEntity
  8
SANINDUSA
100
AcDbPolyline
 90
       11
 70
   128
 43
0.0
 10
99.21744129422918
 20
1057.162761548884
 10
99.21744123422918
 20
1057.162761548884
 10
99.20990081551019
 20
1057.162801124425
 10
99.20257824133861
 20
1057.162911257917
 10
99.195662009854
 20
1057.163078388621
 10
99.18936890337786
 20
1057.163277789546
 10
99.18385181754299
 20
1057.163484745183
 10
99.17928554286119
 20
1057.163673574237
 10
99.17579914586241
 20
1057.163823523879
 10
99.17348371308754
 20
1057.163924444194
 10
99.1724791795508
 20
1057.163971919636
  0
LWPOLYLINE
  5
11B2
330
1F
100
AcDbEntity
  8
SANINDUSA
100
AcDbPolyline
 90
       13
 70
   128
 43
0.0
 10
99.1724791795508
 20
1057.163971919636
 10
99.17254376205608
 20
1057.163961623331
 10
99.1727959754054
 20
1057.163935477795
 10
99.17349125799351
 20
1057.163829398045
 10
99.17449138723625
 20
1057.1635865966
 10
99.17588801557451
 20
1057.163053734718
 10
99.17727264864973
 20
1057.162262543327
 10
99.17841910772262
 20
1057.161349978178
 10
99.17945358122279
 20
1057.160237654105
 10
99.18034775949889
 20
1057.158910925609
 10
99.1810339757783
 20
1057.157417365149
 10
99.18147070536555
 20
1057.155807508156
 10
99.18155020482842
 20
1057.154349117582
  0
LINE
  5
11B3
330
1F
100
AcDbEntity
  8
SANINDUSA
100
AcDbLine
 10
99.18155020482842
 20
1057.154349117582
 30
0.0
 11
99.18240759217697
 21
1057.129796756307
 31
0.0
  0
ARC
  5
11B4
330
1F
100
AcDbEntity
  8
SANINDUSA
100
AcDbCircle
 10
99.18340698300399
 20
1057.129831655803
 30
0.0
 40
0.0010000000000001
100
AcDbArc
 50
182.00000000016
 51
270.0000000000008
  0
LWPOLYLINE
  5
11B5
330
1F
100
AcDbEntity
  8
SANINDUSA
100
AcDbPolyline
 90
       13
 70
   128
 43
0.0
 10
99.25333238362995
 20
1057.154349117582
 10
99.25341224614474
 20
1057.155809486319
 10
99.25384363602672
 20
1057.157403632643
 10
99.25448852277742
 20
1057.158827790864
 10
99.25529788827002
 20
1057.160069566821
 10
99.25622498676869
 20
1057.16112234301
 10
99.25722460640956
 20
1057.161985890421
 10
99.25825275173755
 20
1057.162666438237
 10
99.25926624106592
 20
1057.163176490307
 10
99.26022151544318
 20
1057.163534377289
 10
99.26106933048878
 20
1057.163763085386
 10
99.26173177273458
 20
1057.163887610533
 10
99.26242866652636
 20
1057.163972483482
  0
LINE
  5
11B6
330
1F
100
AcDbEntity
  8
SANINDUSA
100
AcDbLine
 10
99.2524749962814
 20
1057.129796756307
 30
0.0
 11
99.25333238362995
 21
1057.154349117582
 31
0.0
  0
ARC
  5
11B7
330
1F
100
AcDbEntity
  8
SANINDUSA
100
AcDbCircle
 10
99.25147560545438
 20
1057.129831655803
 30
0.0
 40
0.0010000000000001
100
AcDbArc
 50
270.0000000000008
 51
357.99999999984
  0
LWPOLYLINE
  5
11BE
330
1F
100
AcDbEntity
  8
SANINDUSA
100
AcDbPolyline
 90
       16
 70
   128
 43
0.0
 10
99.43929113268483
 20
1057.31343096685
 10
99.43851710662613
 20
1057.313716561272
 10
99.43777503605904
 20
1057.313970409703
 10
99.43686234708648
 20
1057.314287190014
 10
99.43582859594071
 20
1057.314642267813
 10
99.43432462820387
 20
1057.31513528103
 10
99.43116170145566
 20
1057.316078752356
 10
99.42771304925805
 20
1057.316998909627
 10
99.42397299824547
 20
1057.317902740997
 10
99.41993116817453
 20
1057.318795950107
 10
99.41560983740046
 20
1057.319675330201
 10
99.41100584684917
 20
1057.320543147677
 10
99.40611901112374
 20
1057.321400606539
 10
99.40151115644086
 20
1057.322158901183
 10
99.39636627660584
 20
1057.322954050406
 10
99.39137476764077
 20
1057.323688144137
  0
LWPOLYLINE
  5
11BF
330
1F
100
AcDbEntity
  8
SANINDUSA
100
AcDbPolyline
 90
        3
 70
   128
 43
0.0
 10
99.39763365514508
 20
1057.211755260427
 10
99.39984928142026
 20
1057.213687474306
 10
99.40473562910577
 20
1057.218333377547
  0
LWPOLYLINE
  5
11C0
330
1F
100
AcDbEntity
  8
SANINDUSA
100
AcDbPolyline
 90
       29
 70
   128
 43
0.0
 10
99.39044290600408
 20
1057.188803512554
 10
99.39303182146163
 20
1057.191887649065
 10
99.3952074634507
 20
1057.194977117124
 10
99.39695428141508
 20
1057.197858656404
 10
99.39844186720421
 20
1057.200666343337
 10
99.39923668586011
 20
1057.202323224916
 10
99.39989797419423
 20
1057.203791404681
 10
99.40044457812298
 20
1057.205038309654
 10
99.40092701921447
 20
1057.206115923985
 10
99.40149480399076
 20
1057.207344349639
 10
99.40217527332485
 20
1057.208770237123
 10
99.4029733300589
 20
1057.210388446759
 10
99.40376884493758
 20
1057.211951228729
 10
99.40448009734339
 20
1057.213310183601
 10
99.40509966306958
 20
1057.214466839595
 10
99.40567458909816
 20
1057.215519190024
 10
99.40636035839615
 20
1057.216749898167
 10
99.40716817032701
 20
1057.218168081313
 10
99.40809253528199
 20
1057.219752907571
 10
99.40900794839855
 20
1057.221286928077
 10
99.40982387146069
 20
1057.222629509561
 10
99.41053186247668
 20
1057.223782213217
 10
99.41125356470982
 20
1057.224941282775
 10
99.41213436696061
 20
1057.226320679864
 10
99.41276689149312
 20
1057.227296055986
 10
99.41346101074399
 20
1057.22836041739
 10
99.41428930341128
 20
1057.229632189649
 10
99.41540014154865
 20
1057.231354346683
 10
99.41693249988063
 20
1057.233785425212
  0
LWPOLYLINE
  5
11C4
330
1F
100
AcDbEntity
  8
SANINDUSA
100
AcDbPolyline
 90
       10
 70
   128
 43
0.0
 10
99.30704933941719
 20
1057.168663663995
 10
99.31254247101227
 20
1057.169402919072
 10
99.31827456203484
 20
1057.170217334023
 10
99.32402437537009
 20
1057.171061022459
 10
99.32970440994219
 20
1057.171901259016
 10
99.33507478965978
 20
1057.172682282008
 10
99.34005759729366
 20
1057.173374824911
 10
99.34445605997112
 20
1057.173935706555
 10
99.3481772055502
 20
1057.174348252312
 10
99.35117923851368
 20
1057.174609071365
  0
LINE
  5
11C5
330
1F
100
AcDbEntity
  8
SANINDUSA
100
AcDbLine
 10
99.30224075362731
 20
1057.168066662952
 30
0.0
 11
99.30704933941719
 21
1057.168663663995
 31
0.0
  0
LWPOLYLINE
  5
11C6
330
1F
100
AcDbEntity
  8
SANINDUSA
100
AcDbPolyline
 90
        6
 70
   128
 43
0.0
 10
99.39763365514508
 20
1057.211755260427
 10
99.39252107991045
 20
1057.20763196975
 10
99.38768888782204
 20
1057.204066019095
 10
99.38310101008525
 20
1057.200930992003
 10
99.3753187670425
 20
1057.196137708469
 10
99.36744009192373
 20
1057.191944802349
  0
LWPOLYLINE
  5
11C7
330
1F
100
AcDbEntity
  8
SANINDUSA
100
AcDbPolyline
 90
        8
 70
   128
 43
0.0
 10
99.36471027502612
 20
1057.175797866667
 10
99.36471033304632
 20
1057.175797874624
 10
99.3697802220459
 20
1057.176780916777
 10
99.37458388180399
 20
1057.178280461138
 10
99.37917830266277
 20
1057.180316664927
 10
99.38334772611852
 20
1057.182754487693
 10
99.38701042685245
 20
1057.185488098235
 10
99.39042608785635
 20
1057.188819509973
  0
LINE
  5
11C8
330
1F
100
AcDbEntity
  8
SANINDUSA
100
AcDbLine
 10
99.35982452131021
 20
1057.175133463553
 30
0.0
 11
99.36471027502612
 21
1057.175797866667
 31
0.0
  0
LWPOLYLINE
  5
11C9
330
1F
100
AcDbEntity
  8
SANINDUSA
100
AcDbPolyline
 90
        3
 70
   128
 43
0.0
 10
99.35117923851368
 20
1057.174609071365
 10
99.35588676661065
 20
1057.174919820949
 10
99.35982452131021
 20
1057.175133463553
  0
LINE
  5
11D9
330
1F
100
AcDbEntity
  8
SANINDUSA
100
AcDbLine
 10
99.39137476764077
 20
1057.323688144137
 30
0.0
 11
99.39062416166477
 21
1057.323740877393
 31
0.0
  0
LWPOLYLINE
  5
11EE
330
1F
100
AcDbEntity
  8
SANINDUSA
100
AcDbPolyline
 90
       19
 70
   128
 43
0.0
 10
99.41619798255143
 20
1057.232493260355
 10
99.41900255044437
 20
1057.23684661762
 10
99.42198809184777
 20
1057.241943457436
 10
99.42483056346157
 20
1057.247318308388
 10
99.42727983866966
 20
1057.252416621717
 10
99.42921803843155
 20
1057.256755244528
 10
99.43075813542803
 20
1057.260343883473
 10
99.43215628372596
 20
1057.263674063139
 10
99.43363196924394
 20
1057.267333933485
 10
99.43457038460991
 20
1057.269779160969
 10
99.43562580595283
 20
1057.272664838337
 10
99.43688795354157
 20
1057.276384279139
 10
99.43814202699199
 20
1057.280613704235
 10
99.43907561202516
 20
1057.284255148415
 10
99.43973051270745
 20
1057.287176544181
 10
99.44027536357495
 20
1057.289922850429
 10
99.441164415603
 20
1057.295374133096
 10
99.44183107784816
 20
1057.301012462443
 10
99.44184165591387
 20
1057.301149357508
  0
LWPOLYLINE
  5
11EF
330
1F
100
AcDbEntity
  8
SANINDUSA
100
AcDbPolyline
 90
        3
 70
   128
 43
0.0
 10
99.40473562910577
 20
1057.218333377547
 10
99.41218552718858
 20
1057.226910235685
 10
99.41617695384504
 20
1057.232691144176
  0
LINE
  5
1201
330
1F
100
AcDbEntity
  8
SANINDUSA
100
AcDbLine
 10
99.43218782091461
 20
1057.313831655803
 30
0.0
 11
99.43733089847727
 21
1057.313831655803
 31
0.0
  0
LWPOLYLINE
  5
1202
330
1F
100
AcDbEntity
  8
SANINDUSA
100
AcDbPolyline
 90
        9
 70
   128
 43
0.0
 10
99.43733089847727
 20
1057.313831655803
 10
99.43833126220415
 20
1057.313730459496
 10
99.43929113268483
 20
1057.31343096685
 10
99.44017165577994
 20
1057.312945300886
 10
99.44093718921507
 20
1057.312293120644
 10
99.44155674532742
 20
1057.311500825419
 10
99.44200524540059
 20
1057.310600486149
 10
99.44226453481405
 20
1057.309628547239
 10
99.44234462054398
 20
1057.308633036956
  0
LWPOLYLINE
  5
1203
330
1F
100
AcDbEntity
  8
SANINDUSA
100
AcDbPolyline
 90
        3
 70
   128
 43
0.0
 10
99.44184165591387
 20
1057.301149357508
 10
99.44229725982827
 20
1057.307557711371
 10
99.44234462054398
 20
1057.308633036956
  0
LWPOLYLINE
  5
1204
330
1F
100
AcDbEntity
  8
SANINDUSA
100
AcDbPolyline
 90
        6
 70
   128
 43
0.0
 10
98.58910711487887
 20
1057.164132301747
 10
98.58945198220531
 20
1057.164221732707
 10
98.59221299821015
 20
1057.164934524636
 10
98.5958836263153
 20
1057.165891373069
 10
98.60049065268924
 20
1057.167127104175
 10
98.60599844037299
 20
1057.168663663995
  0
LINE
  5
1206
330
1F
100
AcDbEntity
  8
SANINDUSA
100
AcDbLine
 10
98.54788289913903
 20
1057.187926518453
 30
0.0
 11
98.54841930274353
 21
1057.161120285869
 31
0.0
  0
LWPOLYLINE
  5
1208
330
1F
100
AcDbEntity
  8
SANINDUSA
100
AcDbPolyline
 90
        8
 70
   128
 43
0.0
 10
98.56749146956691
 20
1057.175206245394
 10
98.56899405521025
 20
1057.171799690431
 10
98.5711862999698
 20
1057.16847725804
 10
98.57389919990877
 20
1057.165581952838
 10
98.57705395457987
 20
1057.163174703808
 10
98.58058709514528
 20
1057.161317256639
 10
98.58437659698234
 20
1057.160063495996
 10
98.58905669851566
 20
1057.159404601941
  0
LWPOLYLINE
  5
1209
330
1F
100
AcDbEntity
  8
SANINDUSA
100
AcDbPolyline
 90
       18
 70
   128
 43
0.0
 10
98.83837287722592
 20
1057.308616223389
 10
98.83735483338659
 20
1057.296445704703
 10
98.83538478785254
 20
1057.284498171802
 10
98.83250353247635
 20
1057.272858454511
 10
98.82875523734668
 20
1057.261601621618
 10
98.82418991613096
 20
1057.250785857544
 10
98.81885295614603
 20
1057.240457547584
 10
98.81157631635534
 20
1057.22886803268
 10
98.80329128344325
 20
1057.217978996912
 10
98.79407575752294
 20
1057.207895113667
 10
98.78401567076096
 20
1057.198712863404
 10
98.77299535664107
 20
1057.190345754161
 10
98.76133198288098
 20
1057.183057324288
 10
98.7491118751102
 20
1057.176884965031
 10
98.73640194628841
 20
1057.171849450603
 10
98.72326989209577
 20
1057.167973120743
 10
98.70978923909492
 20
1057.165288476155
 10
98.69603560166936
 20
1057.163831655803
  0
LWPOLYLINE
  5
120B
330
1F
100
AcDbEntity
  8
SANINDUSA
100
AcDbPolyline
 90
       26
 70
   128
 43
0.0
 10
99.97865481771178
 20
1057.308978057308
 10
99.9759286350946
 20
1057.297307934812
 10
99.97234668552458
 20
1057.285889133519
 10
99.96791844800423
 20
1057.274743504692
 10
99.96263612878722
 20
1057.263894073591
 10
99.95648029379401
 20
1057.253364656647
 10
99.94943003964429
 20
1057.243179373772
 10
99.94145678013877
 20
1057.233377655405
 10
99.93253735340026
 20
1057.224035108528
 10
99.92388807548891
 20
1057.216259564538
 10
99.91447063024198
 20
1057.208967149963
 10
99.90426570958915
 20
1057.202222799334
 10
99.89325078772438
 20
1057.196102349574
 10
99.88917542278535
 20
1057.194114517441
 10
99.88496288814603
 20
1057.192206527225
 10
99.88032049765223
 20
1057.190269294048
 10
99.87503295164605
 20
1057.18826785548
 10
99.86892581655631
 20
1057.186214507673
 10
99.86191872755744
 20
1057.184185933712
 10
99.85372573221635
 20
1057.182247287204
 10
99.84434048736492
 20
1057.180568519128
 10
99.8353252692681
 20
1057.179523067079
 42
0.1511698457454165
 10
99.83262094054156
 20
1057.178329899498
 10
99.82574257688316
 20
1057.172350629192
 42
0.217121283546191
 10
99.82402287202811
 20
1057.168577081291
 10
99.82402287202811
 20
1057.129831655803
  0
ARC
  5
120D
330
1F
100
AcDbEntity
  8
SANINDUSA
100
AcDbCircle
 10
98.67434924761099
 20
1057.152768430159
 30
0.0
 40
0.0099999999999999
100
AcDbArc
 50
92.12567554482808
 51
177.9999999999963
  0
LWPOLYLINE
  5
120E
330
1F
100
AcDbEntity
  8
SANINDUSA
100
AcDbPolyline
 90
       16
 70
   128
 43
0.0
 10
98.67397833234255
 20
1057.162761548884
 10
98.6739783323425
 20
1057.162761548884
 10
98.67332756524012
 20
1057.162801124425
 10
98.67141567556938
 20
1057.162911257917
 10
98.6682711987629
 20
1057.163078388621
 10
98.66401485331293
 20
1057.163277789546
 10
98.65872793227723
 20
1057.163484745183
 10
98.65259987684828
 20
1057.163673574237
 10
98.64577940825526
 20
1057.163823523879
 10
98.63847703975066
 20
1057.163924444194
 10
98.63090880790025
 20
1057.163972139993
 10
98.6232695477144
 20
1057.163974400846
 10
98.61579486464831
 20
1057.16394192307
 10
98.60867268957083
 20
1057.163889079493
 10
98.60304733733119
 20
1057.163838043412
 10
98.59794300143422
 20
1057.163787992608
  0
LINE
  5
1210
330
1F
100
AcDbEntity
  8
SANINDUSA
100
AcDbLine
 10
99.89862359720621
 20
1057.313831655803
 30
0.0
 11
99.98454427979169
 21
1057.313831655803
 31
0.0
  0
LWPOLYLINE
  5
1211
330
1F
100
AcDbEntity
  8
SANINDUSA
100
AcDbPolyline
 90
       40
 70
   128
 43
0.0
 10
99.99775899565179
 20
1057.301831655803
 10
99.98813496924512
 20
1057.301831655803
 42
0.3399643379000442
 10
99.9871685715982
 20
1057.301088707526
 10
99.9841687398513
 20
1057.289810703576
 10
99.98010709945901
 20
1057.278056987025
 10
99.9751845621332
 20
1057.266586908464
 10
99.96962049736652
 20
1057.255838275239
 10
99.9632307439343
 20
1057.245400408282
 10
99.95599716941853
 20
1057.235297007872
 10
99.94788945087508
 20
1057.225562967816
 10
99.93888845235813
 20
1057.216268909679
 10
99.92897394954468
 20
1057.207489151777
 10
99.91812353256282
 20
1057.199307521897
 10
99.90631653876333
 20
1057.191812065356
 10
99.90131590470271
 20
1057.189026605857
 10
99.89615307391176
 20
1057.186375208011
 10
99.8908247037979
 20
1057.18386593385
 10
99.8850372680561
 20
1057.181388479908
 10
99.87828604950536
 20
1057.178810943285
 10
99.8730370487773
 20
1057.177028332562
 10
99.87006139733075
 20
1057.176130236361
 42
0.9036488901701774
 10
99.87044105211706
 20
1057.174177012574
 10
99.8751815059704
 20
1057.174608814591
 10
99.88380347637312
 20
1057.175935407455
 10
99.89229744384669
 20
1057.177783139984
 10
99.90064168421067
 20
1057.180141654109
 10
99.90881348901604
 20
1057.183000540173
 10
99.91679083609188
 20
1057.186351629797
 10
99.92835217291592
 20
1057.192288649698
 10
99.93937301251994
 20
1057.199301836417
 10
99.94976627262769
 20
1057.207352802391
 10
99.95940320697931
 20
1057.216367423314
 10
99.968178836474
 20
1057.226276530868
 10
99.97600942644702
 20
1057.236980587525
 10
99.98280546494571
 20
1057.248359378701
 10
99.98852493974823
 20
1057.260382112244
 10
99.99223914098957
 20
1057.270267789758
 10
99.99523173863417
 20
1057.280507328021
 10
99.99746410457698
 20
1057.291052038614
 10
99.998750226354
 20
1057.300699513096
  0
LWPOLYLINE
  5
1212
330
1F
100
AcDbEntity
  8
SANINDUSA
100
AcDbPolyline
 90
       18
 70
   128
 43
0.0
 10
100.0093884876656
 20
1057.308616223389
 10
100.0083704438263
 20
1057.296445704703
 10
100.0064003982922
 20
1057.284498171802
 10
100.0035191429161
 20
1057.272858454511
 10
99.99977084778642
 20
1057.261601621618
 10
99.9952055265707
 20
1057.250785857544
 10
99.98986856658577
 20
1057.240457547584
 10
99.98259192679508
 20
1057.22886803268
 10
99.97430689388297
 20
1057.217978996912
 10
99.96509136796268
 20
1057.207895113667
 10
99.9550312812007
 20
1057.198712863404
 10
99.94401096708081
 20
1057.190345754161
 10
99.93234759332072
 20
1057.183057324288
 10
99.92012748554994
 20
1057.176884965031
 10
99.90741755672814
 20
1057.171849450603
 10
99.89428550253551
 20
1057.167973120743
 10
99.88080484953465
 20
1057.165288476155
 10
99.8670512121091
 20
1057.163831655803
  0
LINE
  5
1223
330
1F
100
AcDbEntity
  8
SANINDUSA
100
AcDbLine
 10
99.74854133375787
 20
1057.318654490359
 30
0.0
 11
99.83642492434272
 21
1057.314831655803
 31
0.0
  0
LINE
  5
1224
330
1F
100
AcDbEntity
  8
SANINDUSA
100
AcDbLine
 10
99.643798239786
 20
1057.315984087329
 30
0.0
 11
99.64154763284637
 21
1057.320305755731
 31
0.0
  0
LINE
  5
1225
330
1F
100
AcDbEntity
  8
SANINDUSA
100
AcDbLine
 10
99.62952287202812
 20
1057.278680739876
 30
0.0
 11
99.62952287202812
 21
1057.321742766861
 31
0.0
  0
LINE
  5
1230
330
1F
100
AcDbEntity
  8
SANINDUSA
100
AcDbLine
 10
99.66102287202811
 20
1057.313831655803
 30
0.0
 11
99.6980228720281
 21
1057.313831655803
 31
0.0
  0
LINE
  5
1232
330
1F
100
AcDbEntity
  8
SANINDUSA
100
AcDbLine
 10
99.6980228720281
 20
1057.301831655803
 30
0.0
 11
99.66102287202811
 21
1057.301831655803
 31
0.0
  0
LWPOLYLINE
  5
1237
330
1F
100
AcDbEntity
  8
SANINDUSA
100
AcDbPolyline
 90
       13
 70
   128
 43
0.0
 10
99.63186591269987
 20
1057.209263697659
 10
99.63597697061283
 20
1057.20989402255
 10
99.646891712717
 20
1057.210784826243
 10
99.65792898926295
 20
1057.210568411432
 10
99.66892317460276
 20
1057.209242216353
 10
99.67955341744705
 20
1057.206868373697
 10
99.68998532234465
 20
1057.203470663208
 10
99.70003697703033
 20
1057.199117583559
 10
99.7048949795384
 20
1057.196607589326
 10
99.70960884860163
 20
1057.193942029106
 10
99.71409025632318
 20
1057.191205373943
 10
99.71849342443217
 20
1057.188326944569
 10
99.71889605030304
 20
1057.188049418293
  0
ARC
  5
123D
330
1F
100
AcDbEntity
  8
SANINDUSA
100
AcDbCircle
 10
99.63901917087838
 20
1057.238831655803
 30
0.0
 40
0.005
100
AcDbArc
 50
186.0724564072077
 51
270.0000000000008
  0
ARC
  5
123E
330
1F
100
AcDbEntity
  8
SANINDUSA
100
AcDbCircle
 10
99.64420872355749
 20
1057.238831655803
 30
0.0
 40
0.005
100
AcDbArc
 50
270.0000000000008
 51
357.9999999999964
  0
LINE
  5
1240
330
1F
100
AcDbEntity
  8
SANINDUSA
100
AcDbLine
 10
99.6295228720281
 20
1057.230058419788
 30
0.0
 11
99.62952287202812
 21
1057.278680739876
 31
0.0
  0
LINE
  5
1249
330
1F
100
AcDbEntity
  8
SANINDUSA
100
AcDbLine
 10
99.63901917087838
 20
1057.233831655803
 30
0.0
 11
99.64420872355749
 21
1057.233831655803
 31
0.0
  0
LINE
  5
124E
330
1F
100
AcDbEntity
  8
SANINDUSA
100
AcDbLine
 10
99.6295228720281
 20
1057.213519902207
 30
0.0
 11
99.6295228720281
 21
1057.227896289423
 31
0.0
  0
LINE
  5
124F
330
1F
100
AcDbEntity
  8
SANINDUSA
100
AcDbLine
 10
99.6295228720281
 20
1057.229070106921
 30
0.0
 11
99.6295228720281
 21
1057.230058419788
 31
0.0
  0
LINE
  5
1250
330
1F
100
AcDbEntity
  8
SANINDUSA
100
AcDbLine
 10
99.6295228720281
 20
1057.227896289423
 30
0.0
 11
99.6295228720281
 21
1057.229070106921
 31
0.0
  0
LWPOLYLINE
  5
125A
330
1F
100
AcDbEntity
  8
SANINDUSA
100
AcDbPolyline
 90
        9
 70
   128
 43
0.0
 10
99.62952287202812
 20
1057.211440044552
 10
99.62957016319375
 20
1057.21080169233
 10
99.62970980023628
 20
1057.210389790702
 10
99.62993517955723
 20
1057.210017814617
 10
99.6302356427058
 20
1057.209703355256
 10
99.63059698042943
 20
1057.209461283771
 10
99.63100210464602
 20
1057.209303048003
 10
99.63143185655916
 20
1057.209236131106
 10
99.63186591269987
 20
1057.209263697659
  0
LINE
  5
125C
330
1F
100
AcDbEntity
  8
SANINDUSA
100
AcDbLine
 10
99.6295228720281
 20
1057.211440044552
 30
0.0
 11
99.6295228720281
 21
1057.213519902207
 31
0.0
  0
ARC
  5
1260
330
1F
100
AcDbEntity
  8
SANINDUSA
100
AcDbCircle
 10
99.62499131981504
 20
1057.276163037414
 30
0.0
 40
0.005
100
AcDbArc
 50
6.072456407207692
 51
21.0800403020689
  0
LINE
  5
1261
330
1F
100
AcDbEntity
  8
SANINDUSA
100
AcDbLine
 10
99.64324814287975
 20
1057.297285349261
 30
0.0
 11
99.64190641007922
 21
1057.258863148947
 31
0.0
  0
LINE
  5
1262
330
1F
100
AcDbEntity
  8
SANINDUSA
100
AcDbLine
 10
99.63991263033902
 20
1057.258792262389
 30
0.0
 11
99.63791837568637
 21
1057.277538256124
 31
0.0
  0
LINE
  5
1263
330
1F
100
AcDbEntity
  8
SANINDUSA
100
AcDbLine
 10
99.6512432694959
 20
1057.297006153287
 30
0.0
 11
99.64920567769258
 21
1057.23865715832
 31
0.0
  0
ARC
  5
1264
330
1F
100
AcDbEntity
  8
SANINDUSA
100
AcDbCircle
 10
99.6409070192522
 20
1057.258898048443
 30
0.0
 40
0.001
100
AcDbArc
 50
186.0724564072077
 51
358.0000000000029
  0
LINE
  5
1265
330
1F
100
AcDbEntity
  8
SANINDUSA
100
AcDbLine
 10
99.63404722631247
 20
1057.23830272553
 30
0.0
 11
99.62996326438094
 21
1057.276691967687
 31
0.0
  0
LINE
  5
1267
330
1F
100
AcDbEntity
  8
SANINDUSA
100
AcDbLine
 10
99.66102287202811
 20
1057.313831655803
 30
0.0
 11
99.64734598424316
 21
1057.313831655803
 31
0.0
  0
ARC
  5
1269
330
1F
100
AcDbEntity
  8
SANINDUSA
100
AcDbCircle
 10
99.64734598424316
 20
1057.317831655803
 30
0.0
 40
0.0040000000000001
100
AcDbArc
 50
207.5092700044871
 51
270.0000000000049
  0
ARC
  5
126A
330
1F
100
AcDbEntity
  8
SANINDUSA
100
AcDbCircle
 10
99.64491431614504
 20
1057.305061104122
 30
0.0
 40
0.001
100
AcDbArc
 50
323.9976993510351
 51
79.21924341097181
  0
ARC
  5
126B
330
1F
100
AcDbEntity
  8
SANINDUSA
100
AcDbCircle
 10
99.64734598424316
 20
1057.317831655803
 30
0.0
 40
0.0120000000000001
100
AcDbArc
 50
227.2577869034393
 51
259.2192434109743
  0
ARC
  5
126C
330
1F
100
AcDbEntity
  8
SANINDUSA
100
AcDbCircle
 10
99.63852287202811
 20
1057.308284263969
 30
0.0
 40
0.001
100
AcDbArc
 50
47.25778690344022
 51
180.0
  0
ARC
  5
126D
330
1F
100
AcDbEntity
  8
SANINDUSA
100
AcDbCircle
 10
99.62499131981504
 20
1057.276163037414
 30
0.0
 40
0.013
100
AcDbArc
 50
6.072456407207692
 51
14.86355464156991
  0
ARC
  5
126E
330
1F
100
AcDbEntity
  8
SANINDUSA
100
AcDbCircle
 10
99.63852287202811
 20
1057.27975428994
 30
0.0
 40
0.001
100
AcDbArc
 50
180.0
 51
194.8635546415632
  0
ARC
  5
1271
330
1F
100
AcDbEntity
  8
SANINDUSA
100
AcDbCircle
 10
99.63152287202811
 20
1057.278680739876
 30
0.0
 40
0.002
100
AcDbArc
 50
180.0
 51
201.0800403020621
  0
ARC
  5
1272
330
1F
100
AcDbEntity
  8
SANINDUSA
100
AcDbCircle
 10
99.65624022363099
 20
1057.296831655803
 30
0.0
 40
0.013
100
AcDbArc
 50
143.9976993510359
 51
177.9999999999833
  0
LINE
  5
1273
330
1F
100
AcDbEntity
  8
SANINDUSA
100
AcDbLine
 10
99.63752287202812
 20
1057.27975428994
 30
0.0
 11
99.63752287202812
 21
1057.308284263969
 31
0.0
  0
ARC
  5
1275
330
1F
100
AcDbEntity
  8
SANINDUSA
100
AcDbCircle
 10
99.66102287202811
 20
1057.312831655804
 30
0.0
 40
0.0010000000000001
100
AcDbArc
 50
0.0
 51
90.0
  0
ARC
  5
1276
330
1F
100
AcDbEntity
  8
SANINDUSA
100
AcDbCircle
 10
99.66102287202811
 20
1057.302831655803
 30
0.0
 40
0.0010000000000001
100
AcDbArc
 50
270.0000000000008
 51
0.0
  0
LINE
  5
1277
330
1F
100
AcDbEntity
  8
SANINDUSA
100
AcDbLine
 10
99.66102287202811
 20
1057.301831655803
 30
0.0
 11
99.65624022363099
 21
1057.301831655803
 31
0.0
  0
LINE
  5
1278
330
1F
100
AcDbEntity
  8
SANINDUSA
100
AcDbLine
 10
99.66202287202811
 20
1057.302831655803
 30
0.0
 11
99.66202287202811
 21
1057.312831655804
 31
0.0
  0
ARC
  5
1279
330
1F
100
AcDbEntity
  8
SANINDUSA
100
AcDbCircle
 10
99.65624022363099
 20
1057.296831655803
 30
0.0
 40
0.005
100
AcDbArc
 50
90.0
 51
177.9999999999833
  0
ARC
  5
127B
330
1F
100
AcDbEntity
  8
SANINDUSA
100
AcDbCircle
 10
99.84536485805072
 20
1057.152768430159
 30
0.0
 40
0.0099999999999999
100
AcDbArc
 50
92.12567554482562
 51
177.9999999999702
  0
ARC
  5
127C
330
1F
100
AcDbEntity
  8
SANINDUSA
100
AcDbCircle
 10
99.77402287202812
 20
1057.154422550336
 30
0.0
 40
0.001
100
AcDbArc
 50
264.5822044394532
 51
0.0
  0
LINE
  5
127F
330
1F
100
AcDbEntity
  8
SANINDUSA
100
AcDbLine
 10
99.77392845450664
 20
1057.153427017649
 30
0.0
 11
99.76362987491322
 21
1057.154403747366
 31
0.0
  0
ARC
  5
1280
330
1F
100
AcDbEntity
  8
SANINDUSA
100
AcDbCircle
 10
99.72943291170253
 20
1057.161320349881
 30
0.0
 40
0.0100000000000001
100
AcDbArc
 50
181.146358834867
 51
228.6120786318509
  0
LINE
  5
1281
330
1F
100
AcDbEntity
  8
SANINDUSA
100
AcDbLine
 10
99.74663359149396
 20
1057.146162354083
 30
0.0
 11
99.72976276195167
 21
1057.161029671329
 31
0.0
  0
LINE
  5
1287
330
1F
100
AcDbEntity
  8
SANINDUSA
100
AcDbLine
 10
99.82502287202812
 20
1057.128831655804
 30
0.0
 11
99.77402287202812
 21
1057.128831655804
 31
0.0
  0
LINE
  5
1288
330
1F
100
AcDbEntity
  8
SANINDUSA
100
AcDbLine
 10
99.74026560924206
 20
1057.138445218109
 30
0.0
 11
99.72282137451959
 21
1057.153817845227
 31
0.0
  0
ARC
  5
1289
330
1F
100
AcDbEntity
  8
SANINDUSA
100
AcDbCircle
 10
99.75949005318867
 20
1057.129684189078
 30
0.0
 40
0.005
100
AcDbArc
 50
2.000000000016688
 51
84.58220443945888
  0
LINE
  5
128A
330
1F
100
AcDbEntity
  8
SANINDUSA
100
AcDbLine
 10
99.7741172895496
 20
1057.143364234715
 30
0.0
 11
99.74720032769077
 21
1057.145917071862
 31
0.0
  0
ARC
  5
128C
330
1F
100
AcDbEntity
  8
SANINDUSA
100
AcDbCircle
 10
99.74729474521225
 20
1057.146912604549
 30
0.0
 40
0.001
100
AcDbArc
 50
228.6120786318509
 51
264.5822044394581
  0
LINE
  5
128D
330
1F
100
AcDbEntity
  8
SANINDUSA
100
AcDbLine
 10
99.75996214079607
 20
1057.134661852515
 30
0.0
 11
99.74593297121018
 21
1057.135992395889
 31
0.0
  0
ARC
  5
128E
330
1F
100
AcDbEntity
  8
SANINDUSA
100
AcDbCircle
 10
99.74687714642501
 20
1057.145947722763
 30
0.0
 40
0.0100000000000001
100
AcDbArc
 50
228.6120786318509
 51
264.5822044394581
  0
ARC
  5
1296
330
1F
100
AcDbEntity
  8
SANINDUSA
100
AcDbCircle
 10
99.77402287202812
 20
1057.142368702028
 30
0.0
 40
0.0009999999999999
100
AcDbArc
 50
0.0
 51
84.58220443946869
  0
ARC
  5
129A
330
1F
100
AcDbEntity
  8
SANINDUSA
100
AcDbCircle
 10
99.77402287202812
 20
1057.129831655803
 30
0.0
 40
0.001
100
AcDbArc
 50
270.0000000000008
 51
0.0
  0
LINE
  5
129B
330
1F
100
AcDbEntity
  8
SANINDUSA
100
AcDbLine
 10
99.77502287202812
 20
1057.129831655803
 30
0.0
 11
99.77502287202812
 21
1057.142368702028
 31
0.0
  0
ARC
  5
129D
330
1F
100
AcDbEntity
  8
SANINDUSA
100
AcDbCircle
 10
99.76548856080292
 20
1057.129831655803
 30
0.0
 40
0.001
100
AcDbArc
 50
182.0000000000036
 51
270.0000000000008
  0
LINE
  5
129E
330
1F
100
AcDbEntity
  8
SANINDUSA
100
AcDbLine
 10
99.76548856080292
 20
1057.128831655804
 30
0.0
 11
99.77402287202812
 21
1057.128831655804
 31
0.0
  0
ARC
  5
12A3
330
1F
100
AcDbEntity
  8
SANINDUSA
100
AcDbCircle
 10
99.83355718325331
 20
1057.129831655803
 30
0.0
 40
0.001
100
AcDbArc
 50
270.0000000000008
 51
357.9999999997813
  0
LINE
  5
12A4
330
1F
100
AcDbEntity
  8
SANINDUSA
100
AcDbLine
 10
99.82502287202812
 20
1057.128831655804
 30
0.0
 11
99.83355718325331
 21
1057.128831655804
 31
0.0
  0
LINE
  5
12A5
330
1F
100
AcDbEntity
  8
SANINDUSA
100
AcDbLine
 10
99.83455657408033
 20
1057.129796756307
 30
0.0
 11
99.83537094978053
 21
1057.153117425126
 31
0.0
  0
ARC
  5
12A6
330
1F
100
AcDbEntity
  8
SANINDUSA
100
AcDbCircle
 10
99.82502287202812
 20
1057.129831655803
 30
0.0
 40
0.0010000000000002
100
AcDbArc
 50
180.0
 51
270.0000000000008
  0
LINE
  5
12A9
330
1F
100
AcDbEntity
  8
SANINDUSA
100
AcDbLine
 10
99.76739296713628
 20
1057.314831655803
 30
0.0
 11
99.79489702184972
 21
1057.314831655803
 31
0.0
  0
LWPOLYLINE
  5
12AD
330
1F
100
AcDbEntity
  8
SANINDUSA
100
AcDbPolyline
 90
       14
 70
   128
 43
0.0
 10
99.76247748175818
 20
1057.184125954271
 10
99.76254236419269
 20
1057.18408108808
 10
99.76370017659682
 20
1057.183463554715
 10
99.76470740562263
 20
1057.18319759236
 10
99.7657986807436
 20
1057.183018600998
 10
99.76944420089539
 20
1057.18252815776
 10
99.77401235981174
 20
1057.182179520385
 10
99.77694615875636
 20
1057.182019821895
 10
99.78013299875758
 20
1057.181875484393
 10
99.78538447457914
 20
1057.181681307592
 10
99.79100232515934
 20
1057.181504666926
 10
99.79523656622641
 20
1057.181383544171
 10
99.7995228120563
 20
1057.181269719702
 10
99.79952287202811
 20
1057.181269718151
  0
LWPOLYLINE
  5
12B0
330
1F
100
AcDbEntity
  8
SANINDUSA
100
AcDbPolyline
 90
       26
 70
   128
 43
0.0
 10
99.76362987491322
 20
1057.154403747366
 10
99.76327151974095
 20
1057.164665696845
 42
0.1898559321066622
 10
99.76034867928262
 20
1057.17138776969
 10
99.75509115151915
 20
1057.176645297453
 42
-0.0212869334855027
 10
99.75503358575373
 20
1057.176707985197
 10
99.75174645880786
 20
1057.180608515108
 10
99.7489362068546
 20
1057.185919086764
 10
99.74763335236239
 20
1057.191238740395
 10
99.74709036790834
 20
1057.195448761179
 10
99.74662967991378
 20
1057.199121987108
 10
99.74617648827857
 20
1057.202837306472
 10
99.74414897195138
 20
1057.221229223361
 10
99.74248312298394
 20
1057.239718933296
 10
99.74092227642355
 20
1057.262838423307
 42
-0.4198730820727122
 10
99.7418718980249
 20
1057.263904624306
 10
99.74986412145632
 20
1057.264289553589
 42
-0.4085766011427288
 10
99.75090995748594
 20
1057.263358070233
 10
99.75245285196837
 20
1057.240504489055
 10
99.75409968305088
 20
1057.222225863787
 10
99.7561099264405
 20
1057.20399063241
 10
99.75655405492055
 20
1057.200349613879
 10
99.7570104579346
 20
1057.196710553592
 10
99.757479548452
 20
1057.193073468197
 10
99.75835442097128
 20
1057.189501297397
 10
99.76008387186839
 20
1057.186233130318
 10
99.76183543472526
 20
1057.18415471247
  0
LINE
  5
12B1
330
1F
100
AcDbEntity
  8
SANINDUSA
100
AcDbLine
 10
99.72942411581804
 20
1057.161759915393
 30
0.0
 11
99.72664163412837
 21
1057.300811649402
 31
0.0
  0
LINE
  5
12B2
330
1F
100
AcDbEntity
  8
SANINDUSA
100
AcDbLine
 10
99.71943491318327
 20
1057.161120285869
 30
0.0
 11
99.71671727185473
 21
1057.29693168781
 31
0.0
  0
ARC
  5
12B4
330
1F
100
AcDbEntity
  8
SANINDUSA
100
AcDbCircle
 10
99.73042391566997
 20
1057.161779921795
 30
0.0
 40
0.001
100
AcDbArc
 50
181.1463588348475
 51
228.6120786318509
  0
LINE
  5
12B6
330
1F
100
AcDbEntity
  8
SANINDUSA
100
AcDbLine
 10
99.77355840593403
 20
1057.172320178662
 30
0.0
 11
99.76175148302811
 21
1057.184127101568
 31
0.0
  0
ARC
  5
12BB
330
1F
100
AcDbEntity
  8
SANINDUSA
100
AcDbCircle
 10
99.77002287202811
 20
1057.168784644756
 30
0.0
 40
0.0050000000000001
100
AcDbArc
 50
0.0
 51
44.99999999999942
  0
LINE
  5
12BC
330
1F
100
AcDbEntity
  8
SANINDUSA
100
AcDbLine
 10
99.77502287202812
 20
1057.154422550336
 30
0.0
 11
99.77502287202812
 21
1057.168784644756
 31
0.0
  0
LINE
  5
12BE
330
1F
100
AcDbEntity
  8
SANINDUSA
100
AcDbLine
 10
99.73867617966291
 20
1057.301831655803
 30
0.0
 11
99.72764143398029
 21
1057.301831655803
 31
0.0
  0
LINE
  5
12BF
330
1F
100
AcDbEntity
  8
SANINDUSA
100
AcDbLine
 10
99.74354235487176
 20
1057.313831655803
 30
0.0
 11
99.6980228720281
 21
1057.313831655803
 31
0.0
  0
LINE
  5
12C0
330
1F
100
AcDbEntity
  8
SANINDUSA
100
AcDbLine
 10
99.7117182725951
 20
1057.301831655803
 30
0.0
 11
99.6980228720281
 21
1057.301831655803
 31
0.0
  0
ARC
  5
12C2
330
1F
100
AcDbEntity
  8
SANINDUSA
100
AcDbCircle
 10
99.6980228720281
 20
1057.312831655804
 30
0.0
 40
0.0010000000000001
100
AcDbArc
 50
90.0
 51
180.0
  0
ARC
  5
12C3
330
1F
100
AcDbEntity
  8
SANINDUSA
100
AcDbCircle
 10
99.6980228720281
 20
1057.302831655803
 30
0.0
 40
0.0010000000000001
100
AcDbArc
 50
180.0
 51
270.0000000000008
  0
LINE
  5
12C4
330
1F
100
AcDbEntity
  8
SANINDUSA
100
AcDbLine
 10
99.69702287202812
 20
1057.312831655804
 30
0.0
 11
99.69702287202812
 21
1057.302831655803
 31
0.0
  0
ARC
  5
12C5
330
1F
100
AcDbEntity
  8
SANINDUSA
100
AcDbCircle
 10
99.72764143398029
 20
1057.300831655803
 30
0.0
 40
0.001
100
AcDbArc
 50
90.0
 51
181.1463588348475
  0
ARC
  5
12C6
330
1F
100
AcDbEntity
  8
SANINDUSA
100
AcDbCircle
 10
99.7117182725951
 20
1057.296831655803
 30
0.0
 40
0.005
100
AcDbArc
 50
1.146358834873588
 51
90.0
  0
LWPOLYLINE
  5
12C9
330
1F
100
AcDbEntity
  8
SANINDUSA
100
AcDbPolyline
 90
       12
 70
   128
 43
0.0
 10
99.74999756832366
 20
1057.284304318334
 10
99.75004179745848
 20
1057.283716110633
 10
99.75016337753013
 20
1057.282015037655
 10
99.75033261433397
 20
1057.279391018177
 10
99.7505121099045
 20
1057.276138972467
 10
99.75066915982374
 20
1057.272629590968
 10
99.7507854370148
 20
1057.269250681624
 10
99.75085806684079
 20
1057.266387429208
 10
99.75089575611836
 20
1057.264362445645
 10
99.7509099085723
 20
1057.263405918707
 10
99.75091071880642
 20
1057.263346793442
 10
99.75091071880642
 20
1057.263346793442
  0
LWPOLYLINE
  5
12CA
330
1F
100
AcDbEntity
  8
SANINDUSA
100
AcDbPolyline
 90
       12
 70
   128
 43
0.0
 10
99.7400041352408
 20
1057.283867845679
 10
99.74004836437563
 20
1057.283279637978
 10
99.74016994444728
 20
1057.281578564999
 10
99.74033918125112
 20
1057.278954545522
 10
99.74051867682163
 20
1057.275702499812
 10
99.74067572674087
 20
1057.272193118312
 10
99.74079200393195
 20
1057.268814208968
 10
99.74086463375794
 20
1057.265950956552
 10
99.74090232303549
 20
1057.263925972989
 10
99.74091647548945
 20
1057.262969446051
 10
99.74092227642355
 20
1057.262838423307
 10
99.74092227642357
 20
1057.262838423307
  0
LWPOLYLINE
  5
12CB
330
1F
100
AcDbEntity
  8
SANINDUSA
100
AcDbPolyline
 90
        9
 70
   128
 43
0.0
 10
99.76366620547549
 20
1057.314291034859
 10
99.7629749524237
 20
1057.314001972968
 10
99.76256573279773
 20
1057.313890629142
 10
99.7623268950284
 20
1057.313848317571
 10
99.76221770946782
 20
1057.31383626812
 10
99.76215729117527
 20
1057.313832375461
 10
99.7621268972866
 20
1057.313831656647
 10
99.7621177940563
 20
1057.313831833616
 10
99.76211938464334
 20
1057.313831673385
  0
LINE
  5
12CE
330
1F
100
AcDbEntity
  8
SANINDUSA
100
AcDbLine
 10
99.76098624718638
 20
1057.313831655803
 30
0.0
 11
99.7621195591774
 21
1057.313831655803
 31
0.0
  0
LINE
  5
12D0
330
1F
100
AcDbEntity
  8
SANINDUSA
100
AcDbLine
 10
99.74354235487176
 20
1057.313831655803
 30
0.0
 11
99.76098624718638
 21
1057.313831655803
 31
0.0
  0
ARC
  5
12D1
330
1F
100
AcDbEntity
  8
SANINDUSA
100
AcDbCircle
 10
99.74354235487176
 20
1057.307831655803
 30
0.0
 40
0.006
100
AcDbArc
 50
0.3720514394644188
 51
90.0
  0
ARC
  5
12D2
330
1F
100
AcDbEntity
  8
SANINDUSA
100
AcDbCircle
 10
99.74899808472827
 20
1057.284272185134
 30
0.0
 40
0.0010000000000001
100
AcDbArc
 50
272.7574046111781
 51
1.841413735524012
  0
LINE
  5
12D3
330
1F
100
AcDbEntity
  8
SANINDUSA
100
AcDbLine
 10
99.74105205584395
 20
1057.282888321553
 30
0.0
 11
99.74904619194241
 21
1057.283273342956
 31
0.0
  0
LINE
  5
12D4
330
1F
100
AcDbEntity
  8
SANINDUSA
100
AcDbLine
 10
99.7400041352408
 20
1057.283867845679
 30
0.0
 11
99.73967599305195
 21
1057.300850973855
 31
0.0
  0
ARC
  5
12D5
330
1F
100
AcDbEntity
  8
SANINDUSA
100
AcDbCircle
 10
99.74100394862981
 20
1057.28388716373
 30
0.0
 40
0.001
100
AcDbArc
 50
181.1069117050716
 51
272.7574046111728
  0
ARC
  5
12D6
330
1F
100
AcDbEntity
  8
SANINDUSA
100
AcDbCircle
 10
99.73867617966291
 20
1057.300831655803
 30
0.0
 40
0.001
100
AcDbArc
 50
1.106911705071625
 51
90.0
  0
LINE
  5
12D7
330
1F
100
AcDbEntity
  8
SANINDUSA
100
AcDbLine
 10
99.74999756832366
 20
1057.284304318334
 30
0.0
 11
99.74954222837467
 21
1057.307870616665
 31
0.0
  0
LINE
  5
12DB
330
1F
100
AcDbEntity
  8
SANINDUSA
100
AcDbLine
 10
99.76593718803808
 20
1057.314831655803
 30
0.0
 11
99.76739296713628
 21
1057.314831655803
 31
0.0
  0
LWPOLYLINE
  5
12DC
330
1F
100
AcDbEntity
  8
SANINDUSA
100
AcDbPolyline
 90
        9
 70
   128
 43
0.0
 10
99.76593718803808
 20
1057.314831655803
 10
99.76564193042264
 20
1057.31482291492
 10
99.76534770513218
 20
1057.31479672283
 10
99.76505554088232
 20
1057.314753171111
 10
99.76476645918253
 20
1057.314692412035
 10
99.76448147076464
 20
1057.314614658037
 10
99.76420157204884
 20
1057.314520180973
 10
99.76392774166004
 20
1057.314409311167
 10
99.76366093700601
 20
1057.314282436261
  0
LWPOLYLINE
  5
12E3
330
1F
100
AcDbEntity
  8
SANINDUSA
100
AcDbPolyline
 90
        3
 70
   128
 43
0.0
 10
99.8670512121091
 20
1057.163831655803
 10
99.85470039379411
 20
1057.163170480569
 10
99.84499394278229
 20
1057.162761548884
  0
LWPOLYLINE
  5
12E5
330
1F
100
AcDbEntity
  8
SANINDUSA
100
AcDbPolyline
 90
       15
 70
   128
 43
0.0
 10
99.79952287202811
 20
1057.181269725564
 10
99.79952293199835
 20
1057.181269723987
 10
99.79976568790942
 20
1057.181263313838
 10
99.80556025435724
 20
1057.181087310018
 10
99.81116432292667
 20
1057.180869978556
 10
99.81591568284773
 20
1057.180642944768
 10
99.82028472948158
 20
1057.180395062532
 10
99.821460257596
 20
1057.180320885746
 10
99.82580544885269
 20
1057.180024649624
 10
99.82934810012627
 20
1057.17976459192
 10
99.83196072728237
 20
1057.179569050964
 10
99.83346739470626
 20
1057.179454860287
 10
99.83417499626298
 20
1057.179400149788
 10
99.83422841874093
 20
1057.17939587053
 10
99.83422841874096
 20
1057.17939587053
  0
LINE
  5
12E7
330
1F
100
AcDbEntity
  8
SANINDUSA
100
AcDbLine
 10
99.83642492434272
 20
1057.314831655803
 30
0.0
 11
99.85391596757239
 21
1057.314831655803
 31
0.0
  0
LINE
  5
12E9
330
1F
100
AcDbEntity
  8
SANINDUSA
100
AcDbLine
 10
99.79489622276169
 20
1057.314831655803
 30
0.0
 11
99.83642492434272
 21
1057.314831655803
 31
0.0
  0
LWPOLYLINE
  5
12EB
330
1F
100
AcDbEntity
  8
SANINDUSA
100
AcDbPolyline
 90
        7
 70
   128
 43
0.0
 10
99.8986296112219
 20
1057.313831655803
 10
99.89848497936689
 20
1057.313831676728
 10
99.89777329450037
 20
1057.313832389275
 10
99.89512977297131
 20
1057.313843907756
 10
99.89041910119066
 20
1057.313899086187
 10
99.88403296090409
 20
1057.314044793993
 10
99.87627539409317
 20
1057.314331655804
  0
LWPOLYLINE
  5
12EE
330
1F
100
AcDbEntity
  8
SANINDUSA
100
AcDbPolyline
 90
        4
 70
   128
 43
0.0
 10
99.85391596757239
 20
1057.314831655803
 10
99.85395028079816
 20
1057.314831654626
 10
99.86500007114575
 20
1057.314708807757
 10
99.87627210395771
 20
1057.314331655804
  0
LINE
  5
12EF
330
1F
100
AcDbEntity
  8
SANINDUSA
100
AcDbLine
 10
99.65273294899105
 20
1057.322822044297
 30
0.0
 11
99.74272818664534
 21
1057.318907355536
 31
0.0
  0
LINE
  5
12F1
330
1F
100
AcDbEntity
  8
SANINDUSA
100
AcDbLine
 10
99.63648676265274
 20
1057.323528734615
 30
0.0
 11
99.65273294899105
 21
1057.322822044297
 31
0.0
  0
LINE
  5
12F2
330
1F
100
AcDbEntity
  8
SANINDUSA
100
AcDbLine
 10
99.63648676265274
 20
1057.323528734615
 30
0.0
 11
99.63160978752547
 21
1057.323740877393
 31
0.0
  0
ARC
  5
12F3
330
1F
100
AcDbEntity
  8
SANINDUSA
100
AcDbCircle
 10
99.63622601616062
 20
1057.31753440302
 30
0.0
 40
0.006
100
AcDbArc
 50
27.50927000451745
 51
87.5092700044736
  0
ARC
  5
12F4
330
1F
100
AcDbEntity
  8
SANINDUSA
100
AcDbCircle
 10
99.63152287202811
 20
1057.321742766861
 30
0.0
 40
0.002
100
AcDbArc
 50
87.50927000448257
 51
180.0
  0
LINE
  5
12F7
330
1F
100
AcDbEntity
  8
SANINDUSA
100
AcDbLine
 10
99.74272818664534
 20
1057.318907355536
 30
0.0
 11
99.74854133375787
 21
1057.318654490359
 31
0.0
  0
LINE
  5
12F9
330
1F
100
AcDbEntity
  8
SANINDUSA
100
AcDbLine
 10
98.55180576407985
 20
1057.153817845227
 30
0.0
 11
98.56924999880233
 21
1057.138445218109
 31
0.0
  0
ARC
  5
12FC
330
1F
100
AcDbEntity
  8
SANINDUSA
100
AcDbCircle
 10
98.55841730126279
 20
1057.161320349881
 30
0.0
 40
0.0099999999999999
100
AcDbArc
 50
181.1463588348475
 51
228.612078631852
  0
LINE
  5
12FE
330
1F
100
AcDbEntity
  8
SANINDUSA
100
AcDbLine
 10
98.66254157281357
 20
1057.128831655804
 30
0.0
 11
98.60322535016965
 21
1057.128831655804
 31
0.0
  0
LINE
  5
1301
330
1F
100
AcDbEntity
  8
SANINDUSA
100
AcDbLine
 10
98.57491736077044
 20
1057.135992395889
 30
0.0
 11
98.58894653036138
 21
1057.134661852515
 31
0.0
  0
LWPOLYLINE
  5
1304
330
1F
100
AcDbEntity
  8
SANINDUSA
100
AcDbPolyline
 90
        4
 70
   128
 43
0.0
 10
98.56924999880233
 20
1057.138445218109
 10
98.57095282089645
 20
1057.137235402969
 10
98.57286982278422
 20
1057.136405728625
 10
98.57491736077044
 20
1057.135992395889
  0
LWPOLYLINE
  5
1309
330
1F
100
AcDbEntity
  8
SANINDUSA
100
AcDbPolyline
 90
        3
 70
   128
 43
0.0
 10
98.6054651760044
 20
1057.154292170877
 10
98.60534270560735
 20
1057.146102250201
 10
98.60522497382783
 20
1057.137862215434
  0
LINE
  5
130B
330
1F
100
AcDbEntity
  8
SANINDUSA
100
AcDbLine
 10
98.58905669851566
 20
1057.159404601941
 30
0.0
 11
98.59793780678025
 21
1057.159059252057
 31
0.0
  0
LINE
  5
130C
330
1F
100
AcDbEntity
  8
SANINDUSA
100
AcDbLine
 10
98.59794300143422
 20
1057.163787992608
 30
0.0
 11
98.58910711487887
 21
1057.164132301747
 31
0.0
  0
ARC
  5
130F
330
1F
100
AcDbEntity
  8
SANINDUSA
100
AcDbCircle
 10
98.59447295036318
 20
1057.129831655803
 30
0.0
 40
0.0010000000000001
100
AcDbArc
 50
182.00000000016
 51
270.0000000000008
  0
LINE
  5
1310
330
1F
100
AcDbEntity
  8
SANINDUSA
100
AcDbLine
 10
98.59502628685618
 20
1057.128831655804
 30
0.0
 11
98.60037597771047
 21
1057.128831655804
 31
0.0
  0
LWPOLYLINE
  5
1317
330
1F
100
AcDbEntity
  8
SANINDUSA
100
AcDbPolyline
 90
        7
 70
   128
 43
0.0
 10
98.59793780678025
 20
1057.159059252057
 10
98.59993511789591
 20
1057.158823189115
 10
98.60186077785641
 20
1057.158246763072
 10
98.60372074257014
 20
1057.15722621953
 10
98.60483339095683
 20
1057.15613304963
 10
98.60532714204596
 20
1057.155189035662
 10
98.6054651760044
 20
1057.154292170877
  0
LINE
  5
1319
330
1F
100
AcDbEntity
  8
SANINDUSA
100
AcDbLine
 10
98.60037597771047
 20
1057.128831655804
 30
0.0
 11
98.60322535016965
 21
1057.128831655804
 31
0.0
  0
LWPOLYLINE
  5
131B
330
1F
100
AcDbEntity
  8
SANINDUSA
100
AcDbPolyline
 90
        8
 70
   128
 43
0.0
 10
98.60522497382783
 20
1057.137862215434
 10
98.60516670996448
 20
1057.137302267685
 10
98.6049789427089
 20
1057.136860898508
 10
98.60454958617843
 20
1057.136311435093
 10
98.60408975859638
 20
1057.135916488933
 10
98.60237536916045
 20
1057.134989264941
 10
98.59902028735026
 20
1057.134103850342
 10
98.59591711020769
 20
1057.13400075431
  0
LINE
  5
131D
330
1F
100
AcDbEntity
  8
SANINDUSA
100
AcDbLine
 10
98.5889465303614
 20
1057.134661852515
 30
0.0
 11
98.59591711020769
 21
1057.13400075431
 31
0.0
  0
ARC
  5
131E
330
1F
100
AcDbEntity
  8
SANINDUSA
100
AcDbCircle
 10
98.58847408830269
 20
1057.12968346461
 30
0.0
 40
0.0050007547053255
100
AcDbArc
 50
1.298142345624911
 51
84.57894525580547
  0
ARC
  5
131F
330
1F
100
AcDbEntity
  8
SANINDUSA
100
AcDbCircle
 10
98.66254157281357
 20
1057.129831655803
 30
0.0
 40
0.0010000000000001
100
AcDbArc
 50
270.0000000000008
 51
357.99999999984
  0
LINE
  5
1320
330
1F
100
AcDbEntity
  8
SANINDUSA
100
AcDbLine
 10
98.66354096364059
 20
1057.129796756307
 30
0.0
 11
98.6643553393408
 21
1057.153117425126
 31
0.0
  0
LINE
  5
1327
330
1F
100
AcDbEntity
  8
SANINDUSA
100
AcDbLine
 10
100.0043931309341
 20
1057.313831655803
 30
0.0
 11
99.98454427979169
 21
1057.313831655803
 31
0.0
  0
ARC
  5
1328
330
1F
100
AcDbEntity
  8
SANINDUSA
100
AcDbCircle
 10
99.98454427979169
 20
1057.307831655803
 30
0.0
 40
0.0060000000000001
100
AcDbArc
 50
90.0
 51
168.9849451796256
  0
ARC
  5
1329
330
1F
100
AcDbEntity
  8
SANINDUSA
100
AcDbCircle
 10
100.0043931309341
 20
1057.308831655803
 30
0.0
 40
0.0050000000000002
100
AcDbArc
 50
357.5305619155705
 51
90.0
  0
ARC
  5
132A
330
1F
100
AcDbEntity
  8
SANINDUSA
100
AcDbCircle
 10
99.99775899565179
 20
1057.300831655803
 30
0.0
 40
0.001
100
AcDbArc
 50
352.4065712560568
 51
90.0
  0
LWPOLYLINE
  5
132B
330
1F
100
AcDbEntity
  8
SANINDUSA
100
AcDbPolyline
 90
        8
 70
   128
 43
0.0
 10
98.67397833234255
 20
1057.162761548884
 10
98.67500002134848
 20
1057.162803012597
 10
98.67625193624961
 20
1057.162851713996
 10
98.67673220229352
 20
1057.162870180948
 10
98.67692909186088
 20
1057.162877620155
 10
98.67709455400046
 20
1057.162883768561
 10
98.67732340008272
 20
1057.162892005277
 10
98.6774031474501
 20
1057.162894723927
  0
LWPOLYLINE
  5
132C
330
1F
100
AcDbEntity
  8
SANINDUSA
100
AcDbPolyline
 90
        3
 70
   128
 43
0.0
 10
98.69603560166936
 20
1057.163831655803
 10
98.68368478335437
 20
1057.163170480569
 10
98.677402678911
 20
1057.162905816218
  0
LINE
  5
1330
330
1F
100
AcDbEntity
  8
SANINDUSA
100
AcDbLine
 10
98.68483657952705
 20
1057.313986592216
 30
0.0
 11
98.46059417708575
 21
1057.323740877393
 31
0.0
  0
LWPOLYLINE
  5
1335
330
1F
100
AcDbEntity
  8
SANINDUSA
100
AcDbPolyline
 90
       12
 70
   128
 43
0.0
 10
98.54788289913905
 20
1057.187926518453
 10
98.54966108927808
 20
1057.186704708771
 10
98.55215310126432
 20
1057.184941145104
 10
98.55446012350348
 20
1057.183273784251
 10
98.55657061098895
 20
1057.181730731145
 10
98.5584973321583
 20
1057.180321635074
 10
98.56001285235606
 20
1057.179249293349
 10
98.56144221582489
 20
1057.178295316504
 10
98.56283159930661
 20
1057.177430732349
 10
98.56417225134542
 20
1057.176660353431
 10
98.56540132994535
 20
1057.176005177357
 10
98.56552422720119
 20
1057.175942153552
  0
LINE
  5
1337
330
1F
100
AcDbEntity
  8
SANINDUSA
100
AcDbLine
 10
98.45850726158838
 20
1057.321742766861
 30
0.0
 11
98.45850726158838
 21
1057.21709405639
 31
0.0
  0
LWPOLYLINE
  5
1339
330
1F
100
AcDbEntity
  8
SANINDUSA
100
AcDbPolyline
 90
       18
 70
   128
 43
0.0
 10
98.47857005962007
 20
1057.210812914059
 10
98.47957884057832
 20
1057.210833537966
 10
98.48530972258656
 20
1057.210657168598
 10
98.49103230889809
 20
1057.21018081565
 10
98.49671200629442
 20
1057.20941105899
 10
98.5023173412695
 20
1057.208357343302
 10
98.5078192878756
 20
1057.207031519328
 10
98.51320024180376
 20
1057.20544679272
 10
98.51848315928556
 20
1057.203607667542
 10
98.52363395196308
 20
1057.201531586756
 10
98.52815812519123
 20
1057.199466841665
 10
98.53192416998018
 20
1057.197573676766
 10
98.53540015305314
 20
1057.195692171535
 10
98.53859485685637
 20
1057.193853603414
 10
98.54154292249395
 20
1057.192066518934
 10
98.54427477053258
 20
1057.190334236861
 10
98.54705976822661
 20
1057.188492098756
 10
98.54788289913905
 20
1057.187926518453
  0
LWPOLYLINE
  5
133B
330
1F
100
AcDbEntity
  8
SANINDUSA
100
AcDbPolyline
 90
        4
 70
   128
 43
0.0
 10
98.46085030226014
 20
1057.209263697659
 10
98.46496136017309
 20
1057.20989402255
 10
98.47587610227726
 20
1057.210784826243
 10
98.47857005962007
 20
1057.210812914059
  0
LWPOLYLINE
  5
133D
330
1F
100
AcDbEntity
  8
SANINDUSA
100
AcDbPolyline
 90
        9
 70
   128
 43
0.0
 10
98.45850726158838
 20
1057.211234040192
 10
98.45855455275401
 20
1057.21080169233
 10
98.45869418979654
 20
1057.210389790702
 10
98.45891956911749
 20
1057.210017814617
 10
98.45922003226606
 20
1057.209703355256
 10
98.45958136998971
 20
1057.209461283771
 10
98.45998649420629
 20
1057.209303048003
 10
98.46041624611942
 20
1057.209236131106
 10
98.46085030226014
 20
1057.209263697659
  0
LINE
  5
133E
330
1F
100
AcDbEntity
  8
SANINDUSA
100
AcDbLine
 10
98.45850726158838
 20
1057.21709405639
 30
0.0
 11
98.45850726158838
 21
1057.211234040192
 31
0.0
  0
ARC
  5
1340
330
1F
100
AcDbEntity
  8
SANINDUSA
100
AcDbCircle
 10
98.46050726158837
 20
1057.321742766861
 30
0.0
 40
0.0019999999999999
100
AcDbArc
 50
87.50927000447848
 51
180.0
  0
LWPOLYLINE
  5
1344
330
1F
100
AcDbEntity
  8
SANINDUSA
100
AcDbPolyline
 90
        3
 70
   128
 43
0.0
 10
98.59079874252156
 20
1057.174609071365
 10
98.58030402143775
 20
1057.174919820949
 10
98.56942922407119
 20
1057.175133463553
  0
LWPOLYLINE
  5
1346
330
1F
100
AcDbEntity
  8
SANINDUSA
100
AcDbPolyline
 90
        6
 70
   128
 43
0.0
 10
98.56552261185491
 20
1057.175941137715
 10
98.56590391902242
 20
1057.175757818479
 10
98.56674696004127
 20
1057.175442201217
 10
98.56762361353284
 20
1057.17523124833
 10
98.56852182015323
 20
1057.175127861709
 10
98.56942922407119
 20
1057.175133463553
  0
LWPOLYLINE
  5
1347
330
1F
100
AcDbEntity
  8
SANINDUSA
100
AcDbPolyline
 90
       10
 70
   128
 43
0.0
 10
98.60599844037299
 20
1057.168663663995
 10
98.60797683313739
 20
1057.169402919072
 10
98.6090289795163
 20
1057.170217334023
 10
98.60910435711922
 20
1057.171061022459
 10
98.60821279601552
 20
1057.171901259016
 10
98.60637682964641
 20
1057.172682282008
 10
98.60363828941418
 20
1057.173374824911
 10
98.60007368109124
 20
1057.173935706555
 10
98.59578892351855
 20
1057.174348252312
 10
98.59079874252156
 20
1057.174609071365
  0
LINE
  5
1349
330
1F
100
AcDbEntity
  8
SANINDUSA
100
AcDbLine
 10
98.79031963730819
 20
1057.313831655803
 30
0.0
 11
98.7865316170251
 21
1057.313831655803
 31
0.0
  0
LINE
  5
134C
330
1F
100
AcDbEntity
  8
SANINDUSA
100
AcDbLine
 10
98.75672823932118
 20
1057.313831655803
 30
0.0
 11
98.72917485870162
 21
1057.313831655803
 31
0.0
  0
LINE
  5
134E
330
1F
100
AcDbEntity
  8
SANINDUSA
100
AcDbLine
 10
98.72637435357367
 20
1057.313831655803
 30
0.0
 11
98.69642755956007
 21
1057.313831655803
 31
0.0
  0
LINE
  5
1350
330
1F
100
AcDbEntity
  8
SANINDUSA
100
AcDbLine
 10
98.69642755956007
 20
1057.313831655803
 30
0.0
 11
98.69603913114245
 21
1057.313831655803
 31
0.0
  0
LINE
  5
1353
330
1F
100
AcDbEntity
  8
SANINDUSA
100
AcDbLine
 10
98.69603913114245
 20
1057.313831655803
 30
0.0
 11
98.69196365031147
 21
1057.313831655803
 31
0.0
  0
LINE
  5
1355
330
1F
100
AcDbEntity
  8
SANINDUSA
100
AcDbLine
 10
98.69196365031147
 20
1057.313831655803
 30
0.0
 11
98.68483657952705
 21
1057.313986592216
 31
0.0
  0
LINE
  5
1358
330
1F
100
AcDbEntity
  8
SANINDUSA
100
AcDbLine
 10
98.72917485870162
 20
1057.313831655803
 30
0.0
 11
98.72637435357367
 21
1057.313831655803
 31
0.0
  0
LINE
  5
1359
330
1F
100
AcDbEntity
  8
SANINDUSA
100
AcDbLine
 10
98.78501824642405
 20
1057.313831655803
 30
0.0
 11
98.75882096882618
 21
1057.313831655803
 31
0.0
  0
LINE
  5
135B
330
1F
100
AcDbEntity
  8
SANINDUSA
100
AcDbLine
 10
98.75882096882618
 20
1057.313831655803
 30
0.0
 11
98.75672823932118
 21
1057.313831655803
 31
0.0
  0
LINE
  5
135C
330
1F
100
AcDbEntity
  8
SANINDUSA
100
AcDbLine
 10
98.7865316170251
 20
1057.313831655803
 30
0.0
 11
98.78501824642405
 21
1057.313831655803
 31
0.0
  0
LINE
  5
135E
330
1F
100
AcDbEntity
  8
SANINDUSA
100
AcDbLine
 10
98.81872858279839
 20
1057.313831655803
 30
0.0
 11
98.7999897413033
 21
1057.313831655803
 31
0.0
  0
LINE
  5
1361
330
1F
100
AcDbEntity
  8
SANINDUSA
100
AcDbLine
 10
98.7921346814708
 20
1057.313831655803
 30
0.0
 11
98.79031963730819
 21
1057.313831655803
 31
0.0
  0
LINE
  5
1362
330
1F
100
AcDbEntity
  8
SANINDUSA
100
AcDbLine
 10
98.79831120394783
 20
1057.313831655803
 30
0.0
 11
98.7921346814708
 21
1057.313831655803
 31
0.0
  0
LINE
  5
1366
330
1F
100
AcDbEntity
  8
SANINDUSA
100
AcDbLine
 10
98.7999897413033
 20
1057.313831655803
 30
0.0
 11
98.79831120394783
 21
1057.313831655803
 31
0.0
  0
ARC
  5
1368
330
1F
100
AcDbEntity
  8
SANINDUSA
100
AcDbCircle
 10
98.83337752049442
 20
1057.308831655803
 30
0.0
 40
0.0050000000000001
100
AcDbArc
 50
357.5305619155053
 51
90.0
  0
LINE
  5
136A
330
1F
100
AcDbEntity
  8
SANINDUSA
100
AcDbLine
 10
98.82519296200847
 20
1057.313831655803
 30
0.0
 11
98.81872858279839
 21
1057.313831655803
 31
0.0
  0
LINE
  5
136D
330
1F
100
AcDbEntity
  8
SANINDUSA
100
AcDbLine
 10
98.83336611487397
 20
1057.313831655803
 30
0.0
 11
98.82519296200847
 21
1057.313831655803
 31
0.0
  0
ENDSEC
  0
SECTION
  2
OBJECTS
  0
DICTIONARY
  5
C
330
0
100
AcDbDictionary
281
     1
  3
ACAD_COLOR
350
1516
  3
ACAD_GROUP
350
D
  3
ACAD_LAYOUT
350
1A
  3
ACAD_MATERIAL
350
14E9
  3
ACAD_MLEADERSTYLE
350
152B
  3
ACAD_MLINESTYLE
350
17
  3
ACAD_PLOTSETTINGS
350
19
  3
ACAD_PLOTSTYLENAME
350
E
  3
ACAD_SCALELIST
350
1519
  3
ACAD_TABLESTYLE
350
1517
  3
ACAD_VISUALSTYLE
350
1502
  3
ACDB_RECOMPOSE_DATA
350
155A
  3
AcDbVariableDictionary
350
3D
  3
ASE_INDEX_DICTIONARY
350
14CE
  3
DWGPROPS
350
155B
  0
DICTIONARY
  5
1532
330
10
100
AcDbDictionary
280
     1
281
     1
  3
ADSK_XREC_LAYER_RECONCILED
360
1533
  0
DICTIONARY
  5
1534
330
2F
100
AcDbDictionary
280
     1
281
     1
  3
ADSK_XREC_LAYER_RECONCILED
360
1535
  0
DICTIONARY
  5
1536
330
30
100
AcDbDictionary
280
     1
281
     1
  3
ADSK_XREC_LAYER_RECONCILED
360
1537
  0
DICTIONARY
  5
1538
330
31
100
AcDbDictionary
280
     1
281
     1
  3
ADSK_XREC_LAYER_RECONCILED
360
1539
  0
DICTIONARY
  5
153A
330
32
100
AcDbDictionary
280
     1
281
     1
  3
ADSK_XREC_LAYER_RECONCILED
360
153B
  0
DICTIONARY
  5
153C
330
33
100
AcDbDictionary
280
     1
281
     1
  3
ADSK_XREC_LAYER_RECONCILED
360
153D
  0
DICTIONARY
  5
153E
330
34
100
AcDbDictionary
280
     1
281
     1
  3
ADSK_XREC_LAYER_RECONCILED
360
153F
  0
DICTIONARY
  5
1540
330
35
100
AcDbDictionary
280
     1
281
     1
  3
ADSK_XREC_LAYER_RECONCILED
360
1541
  0
DICTIONARY
  5
1542
330
36
100
AcDbDictionary
280
     1
281
     1
  3
ADSK_XREC_LAYER_RECONCILED
360
1543
  0
DICTIONARY
  5
1544
330
37
100
AcDbDictionary
280
     1
281
     1
  3
ADSK_XREC_LAYER_RECONCILED
360
1545
  0
DICTIONARY
  5
1546
330
5D6
100
AcDbDictionary
280
     1
281
     1
  3
ADSK_XREC_LAYER_RECONCILED
360
1547
  0
DICTIONARY
  5
1548
330
8AF
100
AcDbDictionary
280
     1
281
     1
  3
ADSK_XREC_LAYER_RECONCILED
360
1549
  0
DICTIONARY
  5
154A
330
8F8
100
AcDbDictionary
280
     1
281
     1
  3
ADSK_XREC_LAYER_RECONCILED
360
154B
  0
DICTIONARY
  5
154C
330
91D
100
AcDbDictionary
280
     1
281
     1
  3
ADSK_XREC_LAYER_RECONCILED
360
154D
  0
DICTIONARY
  5
154E
330
BA5
100
AcDbDictionary
280
     1
281
     1
  3
ADSK_XREC_LAYER_RECONCILED
360
154F
  0
DICTIONARY
  5
1550
330
14D1
100
AcDbDictionary
280
     1
281
     1
  3
ADSK_XREC_LAYER_RECONCILED
360
1551
  0
DICTIONARY
  5
1516
102
{ACAD_REACTORS
330
C
102
}
330
C
100
AcDbDictionary
281
     1
  0
DICTIONARY
  5
D
102
{ACAD_REACTORS
330
C
102
}
330
C
100
AcDbDictionary
281
     1
  0
DICTIONARY
  5
1A
102
{ACAD_REACTORS
330
C
102
}
330
C
100
AcDbDictionary
281
     1
  3
Layout1
350
1E
  3
Layout2
350
26
  3
Model
350
22
  0
DICTIONARY
  5
14E9
102
{ACAD_REACTORS
330
C
102
}
330
C
100
AcDbDictionary
281
     1
  3
ByBlock
350
14F2
  3
ByLayer
350
14EA
  3
Global
350
14FA
  0
DICTIONARY
  5
152B
102
{ACAD_REACTORS
330
C
102
}
330
C
100
AcDbDictionary
281
     1
  3
Standard
350
152C
  0
DICTIONARY
  5
17
102
{ACAD_REACTORS
330
C
102
}
330
C
100
AcDbDictionary
281
     1
  3
Standard
350
18
  0
DICTIONARY
  5
19
102
{ACAD_REACTORS
330
C
102
}
330
C
100
AcDbDictionary
281
     1
  0
ACDBDICTIONARYWDFLT
  5
E
102
{ACAD_REACTORS
330
C
102
}
330
C
100
AcDbDictionary
281
     1
  3
Normal
350
F
100
AcDbDictionaryWithDefault
340
F
  0
DICTIONARY
  5
1519
102
{ACAD_REACTORS
330
C
102
}
330
C
100
AcDbDictionary
281
     1
  3
A0
350
151A
  3
A1
350
151B
  3
A2
350
151C
  3
A3
350
151D
  3
A4
350
151E
  3
A5
350
151F
  3
A6
350
1520
  3
A7
350
1521
  3
A8
350
1522
  3
A9
350
1523
  3
B0
350
1524
  3
B1
350
1525
  3
B2
350
1526
  3
B3
350
1527
  3
B4
350
1528
  3
B5
350
1529
  3
B6
350
152A
  0
DICTIONARY
  5
1517
102
{ACAD_REACTORS
330
C
102
}
330
C
100
AcDbDictionary
281
     1
  3
Standard
350
1518
  0
DICTIONARY
  5
1502
102
{ACAD_REACTORS
330
C
102
}
330
C
100
AcDbDictionary
281
     1
  3
2dWireframe
350
1508
  3
3D Hidden
350
150A
  3
3dWireframe
350
1509
  3
Basic
350
1507
  3
Brighten
350
150E
  3
ColorChange
350
1512
  3
Conceptual
350
150B
  3
Dim
350
150D
  3
EdgeColorOff
350
1515
  3
Facepattern
350
1511
  3
Flat
350
1503
  3
FlatWithEdges
350
1504
  3
Gouraud
350
1505
  3
GouraudWithEdges
350
1506
  3
JitterOff
350
1513
  3
Linepattern
350
1510
  3
OverhangOff
350
1514
  3
Realistic
350
150C
  3
Thicken
350
150F
  0
XRECORD
  5
155A
102
{ACAD_REACTORS
330
C
102
}
330
C
100
AcDbXrecord
280
     1
 90
        1
330
1518
  0
DICTIONARY
  5
3D
102
{ACAD_REACTORS
330
C
102
}
330
C
100
AcDbDictionary
281
     1
  3
CANNOSCALE
350
1554
  3
CMLEADERSTYLE
350
1553
  3
CTABLESTYLE
350
1552
  3
DIMASSOC
350
3F
  3
HIDETEXT
350
3E
  3
INDEXCTL
350
1556
  3
SORTENTS
350
1555
  3
XCLIPFRAME
350
1557
  0
DICTIONARY
  5
14CE
102
{ACAD_REACTORS
330
C
102
}
330
C
100
AcDbDictionary
281
     1
  3
ASEBlockHierarchyIndexRecord
350
14CF
1001
DCO15
1040
1757670369.781
  0
XRECORD
  5
155B
102
{ACAD_REACTORS
330
C
102
}
330
C
100
AcDbXrecord
280
     1
  1
DWGPROPS COOKIE
  2

  3

  4

  6

  7

  8
Julio
  9

300
=
301
=
302
=
303
=
304
=
305
=
306
=
307
=
308
=
309
=
 40
0.0059376851851852
 41
2453500.475089329
 42
2456146.618909503
  1

 90
        0
  0
XRECORD
  5
1533
102
{ACAD_REACTORS
330
1532
102
}
330
1532
100
AcDbXrecord
280
     1
290
     1
  0
XRECORD
  5
1535
102
{ACAD_REACTORS
330
1534
102
}
330
1534
100
AcDbXrecord
280
     1
290
     1
  0
XRECORD
  5
1537
102
{ACAD_REACTORS
330
1536
102
}
330
1536
100
AcDbXrecord
280
     1
290
     1
  0
XRECORD
  5
1539
102
{ACAD_REACTORS
330
1538
102
}
330
1538
100
AcDbXrecord
280
     1
290
     1
  0
XRECORD
  5
153B
102
{ACAD_REACTORS
330
153A
102
}
330
153A
100
AcDbXrecord
280
     1
290
     1
  0
XRECORD
  5
153D
102
{ACAD_REACTORS
330
153C
102
}
330
153C
100
AcDbXrecord
280
     1
290
     1
  0
XRECORD
  5
153F
102
{ACAD_REACTORS
330
153E
102
}
330
153E
100
AcDbXrecord
280
     1
290
     1
  0
XRECORD
  5
1541
102
{ACAD_REACTORS
330
1540
102
}
330
1540
100
AcDbXrecord
280
     1
290
     1
  0
XRECORD
  5
1543
102
{ACAD_REACTORS
330
1542
102
}
330
1542
100
AcDbXrecord
280
     1
290
     1
  0
XRECORD
  5
1545
102
{ACAD_REACTORS
330
1544
102
}
330
1544
100
AcDbXrecord
280
     1
290
     1
  0
XRECORD
  5
1547
102
{ACAD_REACTORS
330
1546
102
}
330
1546
100
AcDbXrecord
280
     1
290
     1
  0
XRECORD
  5
1549
102
{ACAD_REACTORS
330
1548
102
}
330
1548
100
AcDbXrecord
280
     1
290
     1
  0
XRECORD
  5
154B
102
{ACAD_REACTORS
330
154A
102
}
330
154A
100
AcDbXrecord
280
     1
290
     1
  0
XRECORD
  5
154D
102
{ACAD_REACTORS
330
154C
102
}
330
154C
100
AcDbXrecord
280
     1
290
     1
  0
XRECORD
  5
154F
102
{ACAD_REACTORS
330
154E
102
}
330
154E
100
AcDbXrecord
280
     1
290
     1
  0
XRECORD
  5
1551
102
{ACAD_REACTORS
330
1550
102
}
330
1550
100
AcDbXrecord
280
     1
290
     1
  0
LAYOUT
  5
1E
102
{ACAD_XDICTIONARY
360
155C
102
}
102
{ACAD_REACTORS
330
1A
102
}
330
1A
100
AcDbPlotSettings
  1

  2
Ploter HP500
  4

  6

 40
0.0
 41
0.0
 42
0.0
 43
0.0
 44
0.0
 45
0.0
 46
0.0
 47
0.0
 48
0.0
 49
0.0
140
0.0
141
0.0
142
1.0
143
1.0
 70
   688
 72
     0
 73
     0
 74
     5
  7
monochrome.ctb
 75
    16
147
1.0
148
0.0
149
0.0
100
AcDbLayout
  1
Layout1
 70
     1
 71
     1
 10
0.0
 20
0.0
 11
420.0
 21
297.0
 12
0.0
 22
0.0
 32
0.0
 14
1.000000000000000E+20
 24
1.000000000000000E+20
 34
1.000000000000000E+20
 15
-1.000000000000000E+20
 25
-1.000000000000000E+20
 35
-1.000000000000000E+20
146
0.0
 13
0.0
 23
0.0
 33
0.0
 16
1.0
 26
0.0
 36
0.0
 17
0.0
 27
1.0
 37
0.0
 76
     0
330
1B
  0
LAYOUT
  5
26
102
{ACAD_XDICTIONARY
360
1560
102
}
102
{ACAD_REACTORS
330
1A
102
}
330
1A
100
AcDbPlotSettings
  1

  2
Ploter HP500
  4

  6

 40
0.0
 41
0.0
 42
0.0
 43
0.0
 44
0.0
 45
0.0
 46
0.0
 47
0.0
 48
0.0
 49
0.0
140
0.0
141
0.0
142
1.0
143
1.0
 70
   688
 72
     0
 73
     0
 74
     5
  7
monochrome.ctb
 75
    16
147
1.0
148
0.0
149
0.0
100
AcDbLayout
  1
Layout2
 70
     1
 71
     2
 10
0.0
 20
0.0
 11
12.0
 21
9.0
 12
0.0
 22
0.0
 32
0.0
 14
0.0
 24
0.0
 34
0.0
 15
0.0
 25
0.0
 35
0.0
146
0.0
 13
0.0
 23
0.0
 33
0.0
 16
1.0
 26
0.0
 36
0.0
 17
0.0
 27
1.0
 37
0.0
 76
     0
330
23
  0
LAYOUT
  5
22
102
{ACAD_XDICTIONARY
360
155E
102
}
102
{ACAD_REACTORS
330
1A
102
}
330
1A
100
AcDbPlotSettings
  1

  2
Ploter HP500
  4
User268
  6

 40
4.995333194732666
 41
16.97565841674804
 42
4.995330810546875
 43
16.97567749023437
 44
209.9733276367187
 45
296.9259948730469
 46
0.0
 47
0.0
 48
0.0
 49
0.0
140
0.0
141
0.0
142
1.0
143
1.0
 70
 11952
 72
     1
 73
     1
 74
     0
  7

 75
     0
147
1.0
148
-427.5957866592534
149
7.362384574453926
100
AcDbLayout
  1
Model
 70
     1
 71
     0
 10
0.0
 20
0.0
 11
12.0
 21
9.0
 12
0.0
 22
0.0
 32
0.0
 14
0.0
 24
0.0
 34
0.0
 15
0.0
 25
0.0
 35
0.0
146
0.0
 13
0.0
 23
0.0
 33
0.0
 16
1.0
 26
0.0
 36
0.0
 17
0.0
 27
1.0
 37
0.0
 76
     0
330
1F
331
14E7
  0
MATERIAL
  5
14F2
102
{ACAD_XDICTIONARY
360
14F3
102
}
102
{ACAD_REACTORS
330
14E9
102
}
330
14E9
100
AcDbMaterial
  1
ByBlock
 72
     0
 43
0.0008202099737533
 43
0.0
 43
0.0
 43
0.0
 43
0.0
 43
0.0008202099737533
 43
0.0
 43
0.0
 43
0.0
 43
0.0
 43
1.0
 43
0.0
 43
0.0
 43
0.0
 43
0.0
 43
1.0
 77
     0
 47
0.0008202099737533
 47
0.0
 47
0.0
 47
0.0
 47
0.0
 47
0.0008202099737533
 47
0.0
 47
0.0
 47
0.0
 47
0.0
 47
1.0
 47
0.0
 47
0.0
 47
0.0
 47
0.0
 47
1.0
171
     0
 49
0.0008202099737533
 49
0.0
 49
0.0
 49
0.0
 49
0.0
 49
0.0008202099737533
 49
0.0
 49
0.0
 49
0.0
 49
0.0
 49
1.0
 49
0.0
 49
0.0
 49
0.0
 49
0.0
 49
1.0
175
     0
142
0.0008202099737533
142
0.0
142
0.0
142
0.0
142
0.0
142
0.0008202099737533
142
0.0
142
0.0
142
0.0
142
0.0
142
1.0
142
0.0
142
0.0
142
0.0
142
0.0
142
1.0
179
     0
144
0.0008202099737533
144
0.0
144
0.0
144
0.0
144
0.0
144
0.0008202099737533
144
0.0
144
0.0
144
0.0
144
0.0
144
1.0
144
0.0
144
0.0
144
0.0
144
0.0
144
1.0
147
0.0008202099737533
147
0.0
147
0.0
147
0.0
147
0.0
147
0.0008202099737533
147
0.0
147
0.0
147
0.0
147
0.0
147
1.0
147
0.0
147
0.0
147
0.0
147
0.0
147
1.0
  0
MATERIAL
  5
14EA
102
{ACAD_XDICTIONARY
360
14EB
102
}
102
{ACAD_REACTORS
330
14E9
102
}
330
14E9
100
AcDbMaterial
  1
ByLayer
 72
     0
 43
0.0008202099737533
 43
0.0
 43
0.0
 43
0.0
 43
0.0
 43
0.0008202099737533
 43
0.0
 43
0.0
 43
0.0
 43
0.0
 43
1.0
 43
0.0
 43
0.0
 43
0.0
 43
0.0
 43
1.0
 77
     0
 47
0.0008202099737533
 47
0.0
 47
0.0
 47
0.0
 47
0.0
 47
0.0008202099737533
 47
0.0
 47
0.0
 47
0.0
 47
0.0
 47
1.0
 47
0.0
 47
0.0
 47
0.0
 47
0.0
 47
1.0
171
     0
 49
0.0008202099737533
 49
0.0
 49
0.0
 49
0.0
 49
0.0
 49
0.0008202099737533
 49
0.0
 49
0.0
 49
0.0
 49
0.0
 49
1.0
 49
0.0
 49
0.0
 49
0.0
 49
0.0
 49
1.0
175
     0
142
0.0008202099737533
142
0.0
142
0.0
142
0.0
142
0.0
142
0.0008202099737533
142
0.0
142
0.0
142
0.0
142
0.0
142
1.0
142
0.0
142
0.0
142
0.0
142
0.0
142
1.0
179
     0
144
0.0008202099737533
144
0.0
144
0.0
144
0.0
144
0.0
144
0.0008202099737533
144
0.0
144
0.0
144
0.0
144
0.0
144
1.0
144
0.0
144
0.0
144
0.0
144
0.0
144
1.0
147
0.0008202099737533
147
0.0
147
0.0
147
0.0
147
0.0
147
0.0008202099737533
147
0.0
147
0.0
147
0.0
147
0.0
147
1.0
147
0.0
147
0.0
147
0.0
147
0.0
147
1.0
  0
MATERIAL
  5
14FA
102
{ACAD_XDICTIONARY
360
14FB
102
}
102
{ACAD_REACTORS
330
14E9
102
}
330
14E9
100
AcDbMaterial
  1
Global
 72
     0
 43
0.0008202099737533
 43
0.0
 43
0.0
 43
0.0
 43
0.0
 43
0.0008202099737533
 43
0.0
 43
0.0
 43
0.0
 43
0.0
 43
1.0
 43
0.0
 43
0.0
 43
0.0
 43
0.0
 43
1.0
 77
     0
 47
0.0008202099737533
 47
0.0
 47
0.0
 47
0.0
 47
0.0
 47
0.0008202099737533
 47
0.0
 47
0.0
 47
0.0
 47
0.0
 47
1.0
 47
0.0
 47
0.0
 47
0.0
 47
0.0
 47
1.0
171
     0
 49
0.0008202099737533
 49
0.0
 49
0.0
 49
0.0
 49
0.0
 49
0.0008202099737533
 49
0.0
 49
0.0
 49
0.0
 49
0.0
 49
1.0
 49
0.0
 49
0.0
 49
0.0
 49
0.0
 49
1.0
175
     0
142
0.0008202099737533
142
0.0
142
0.0
142
0.0
142
0.0
142
0.0008202099737533
142
0.0
142
0.0
142
0.0
142
0.0
142
1.0
142
0.0
142
0.0
142
0.0
142
0.0
142
1.0
179
     0
144
0.0008202099737533
144
0.0
144
0.0
144
0.0
144
0.0
144
0.0008202099737533
144
0.0
144
0.0
144
0.0
144
0.0
144
1.0
144
0.0
144
0.0
144
0.0
144
0.0
144
1.0
147
0.0008202099737533
147
0.0
147
0.0
147
0.0
147
0.0
147
0.0008202099737533
147
0.0
147
0.0
147
0.0
147
0.0
147
1.0
147
0.0
147
0.0
147
0.0
147
0.0
147
1.0
  0
MLEADERSTYLE
  5
152C
102
{ACAD_REACTORS
330
152B
102
}
330
152B
100
AcDbMLeaderStyle
170
     2
171
     1
172
     0
 90
        2
 40
0.0
 41
0.0
173
     1
 91
-1056964608
340
14
 92
       -2
290
     1
 42
2.0
291
     1
 43
0.36
  3
Standard
 44
4.0
300

342
11
174
     1
178
     6
175
     1
176
     0
 93
-1056964608
 45
4.0
292
     0
297
     0
 46
4.0
 94
-1056964608
 47
1.0
 49
1.0
140
1.0
293
     1
141
0.0
294
     1
177
     0
142
1.0
295
     0
296
     0
143
0.125
1001
ACAD_MLEADERVER
1070
     2
  0
MLINESTYLE
  5
18
102
{ACAD_REACTORS
330
17
102
}
330
17
100
AcDbMlineStyle
  2
STANDARD
 70
     0
  3

 62
   256
 51
90.0
 52
90.0
 71
     2
 49
0.5
 62
   256
  6
BYLAYER
 49
-0.5
 62
   256
  6
BYLAYER
  0
ACDBPLACEHOLDER
  5
F
102
{ACAD_REACTORS
330
E
102
}
330
E
  0
SCALE
  5
151A
102
{ACAD_REACTORS
330
1519
102
}
330
1519
100
AcDbScale
 70
     0
300
1:1
140
1.0
141
1.0
290
     1
  0
SCALE
  5
151B
102
{ACAD_REACTORS
330
1519
102
}
330
1519
100
AcDbScale
 70
     0
300
1:2
140
1.0
141
2.0
290
     0
  0
SCALE
  5
151C
102
{ACAD_REACTORS
330
1519
102
}
330
1519
100
AcDbScale
 70
     0
300
1:4
140
1.0
141
4.0
290
     0
  0
SCALE
  5
151D
102
{ACAD_REACTORS
330
1519
102
}
330
1519
100
AcDbScale
 70
     0
300
1:5
140
1.0
141
5.0
290
     0
  0
SCALE
  5
151E
102
{ACAD_REACTORS
330
1519
102
}
330
1519
100
AcDbScale
 70
     0
300
1:8
140
1.0
141
8.0
290
     0
  0
SCALE
  5
151F
102
{ACAD_REACTORS
330
1519
102
}
330
1519
100
AcDbScale
 70
     0
300
1:10
140
1.0
141
10.0
290
     0
  0
SCALE
  5
1520
102
{ACAD_REACTORS
330
1519
102
}
330
1519
100
AcDbScale
 70
     0
300
1:16
140
1.0
141
16.0
290
     0
  0
SCALE
  5
1521
102
{ACAD_REACTORS
330
1519
102
}
330
1519
100
AcDbScale
 70
     0
300
1:20
140
1.0
141
20.0
290
     0
  0
SCALE
  5
1522
102
{ACAD_REACTORS
330
1519
102
}
330
1519
100
AcDbScale
 70
     0
300
1:30
140
1.0
141
30.0
290
     0
  0
SCALE
  5
1523
102
{ACAD_REACTORS
330
1519
102
}
330
1519
100
AcDbScale
 70
     0
300
1:40
140
1.0
141
40.0
290
     0
  0
SCALE
  5
1524
102
{ACAD_REACTORS
330
1519
102
}
330
1519
100
AcDbScale
 70
     0
300
1:50
140
1.0
141
50.0
290
     0
  0
SCALE
  5
1525
102
{ACAD_REACTORS
330
1519
102
}
330
1519
100
AcDbScale
 70
     0
300
1:100
140
1.0
141
100.0
290
     0
  0
SCALE
  5
1526
102
{ACAD_REACTORS
330
1519
102
}
330
1519
100
AcDbScale
 70
     0
300
2:1
140
2.0
141
1.0
290
     0
  0
SCALE
  5
1527
102
{ACAD_REACTORS
330
1519
102
}
330
1519
100
AcDbScale
 70
     0
300
4:1
140
4.0
141
1.0
290
     0
  0
SCALE
  5
1528
102
{ACAD_REACTORS
330
1519
102
}
330
1519
100
AcDbScale
 70
     0
300
8:1
140
8.0
141
1.0
290
     0
  0
SCALE
  5
1529
102
{ACAD_REACTORS
330
1519
102
}
330
1519
100
AcDbScale
 70
     0
300
10:1
140
10.0
141
1.0
290
     0
  0
SCALE
  5
152A
102
{ACAD_REACTORS
330
1519
102
}
330
1519
100
AcDbScale
 70
     0
300
100:1
140
100.0
141
1.0
290
     0
  0
TABLESTYLE
  5
1518
102
{ACAD_XDICTIONARY
360
1558
102
}
102
{ACAD_REACTORS
330
1517
102
}
330
1517
100
AcDbTableStyle
  3
Standard
 70
     0
 71
     0
 40
1.5
 41
1.5
280
     0
281
     0
  7
Standard
140
4.5
170
     2
 62
     0
 63
     7
283
     0
274
    -2
284
     1
 64
     0
275
    -2
285
     1
 65
     0
276
    -2
286
     1
 66
     0
277
    -2
287
     1
 67
     0
278
    -2
288
     1
 68
     0
279
    -2
289
     1
 69
     0
  7
Standard
140
6.0
170
     5
 62
     0
 63
     7
283
     0
274
    -2
284
     1
 64
     0
275
    -2
285
     1
 65
     0
276
    -2
286
     1
 66
     0
277
    -2
287
     1
 67
     0
278
    -2
288
     1
 68
     0
279
    -2
289
     1
 69
     0
  7
Standard
140
4.5
170
     5
 62
     0
 63
     7
283
     0
274
    -2
284
     1
 64
     0
275
    -2
285
     1
 65
     0
276
    -2
286
     1
 66
     0
277
    -2
287
     1
 67
     0
278
    -2
288
     1
 68
     0
279
    -2
289
     1
 69
     0
  0
VISUALSTYLE
  5
1508
102
{ACAD_XDICTIONARY
360
1577
102
}
102
{ACAD_REACTORS
330
1502
102
}
330
1502
100
AcDbVisualStyle
  2
2dWireframe
 70
     4
 71
     0
 72
     2
 73
     0
 90
        0
 40
-0.6
 41
-30.0
 62
     5
 63
     7
 74
     1
 91
        4
 64
     7
 65
   257
 75
     1
175
     1
 42
1.0
 92
        0
 66
   257
 43
1.0
 76
     1
 77
     6
 78
     2
 67
     7
 79
     5
170
     0
171
     0
290
     0
174
     0
 93
        1
 44
0.0
173
     0
291
     0
 45
0.0
1001
ACAD
1000
AcDbSavedByObjectVersion
1070
     0
  0
VISUALSTYLE
  5
150A
102
{ACAD_XDICTIONARY
360
157B
102
}
102
{ACAD_REACTORS
330
1502
102
}
330
1502
100
AcDbVisualStyle
  2
3D Hidden
 70
     6
 71
     1
 72
     2
 73
     2
 90
        0
 40
-0.6
 41
-30.0
 62
     5
 63
     7
 74
     2
 91
        2
 64
     7
 65
   257
 75
     2
175
     1
 42
179.0
 92
        0
 66
   257
 43
1.0
 76
     1
 77
     6
 78
     2
 67
     7
 79
     3
170
     0
171
     0
290
     0
174
     0
 93
        1
 44
0.0
173
     0
291
     0
 45
0.0
1001
ACAD
1000
AcDbSavedByObjectVersion
1070
     0
  0
VISUALSTYLE
  5
1509
102
{ACAD_XDICTIONARY
360
1579
102
}
102
{ACAD_REACTORS
330
1502
102
}
330
1502
100
AcDbVisualStyle
  2
3dWireframe
 70
     5
 71
     0
 72
     2
 73
     0
 90
        0
 40
-0.6
 41
-30.0
 62
     5
 63
     7
 74
     1
 91
        4
 64
     7
 65
   257
 75
     1
175
     1
 42
1.0
 92
        0
 66
   257
 43
1.0
 76
     1
 77
     6
 78
     2
 67
     7
 79
     5
170
     0
171
     0
290
     0
174
     0
 93
        1
 44
0.0
173
     0
291
     0
 45
0.0
1001
ACAD
1000
AcDbSavedByObjectVersion
1070
     0
  0
VISUALSTYLE
  5
1507
102
{ACAD_XDICTIONARY
360
1575
102
}
102
{ACAD_REACTORS
330
1502
102
}
330
1502
100
AcDbVisualStyle
  2
Basic
 70
     7
 71
     1
 72
     0
 73
     1
 90
        0
 40
-0.6
 41
-30.0
 62
     5
 63
     7
 74
     0
 91
        4
 64
     7
 65
   257
 75
     1
175
     1
 42
1.0
 92
        8
 66
     7
 43
1.0
 76
     1
 77
     6
 78
     2
 67
     7
 79
     5
170
     0
171
     0
290
     0
174
     0
 93
        1
 44
0.0
173
     0
291
     1
 45
0.0
1001
ACAD
1000
AcDbSavedByObjectVersion
1070
     0
  0
VISUALSTYLE
  5
150E
102
{ACAD_XDICTIONARY
360
1583
102
}
102
{ACAD_REACTORS
330
1502
102
}
330
1502
100
AcDbVisualStyle
  2
Brighten
 70
    12
 71
     2
 72
     2
 73
     0
 90
        0
 40
-0.6
 41
-30.0
 62
     5
 63
     7
 74
     1
 91
        4
 64
     7
 65
   257
 75
     1
175
     1
 42
1.0
 92
        8
 66
     7
 43
1.0
 76
     1
 77
     6
 78
     2
 67
     7
 79
     5
170
     0
171
     0
290
     0
174
     0
 93
        1
 44
50.0
173
     0
291
     1
 45
0.0
1001
ACAD
1000
AcDbSavedByObjectVersion
1070
     0
  0
VISUALSTYLE
  5
1512
102
{ACAD_XDICTIONARY
360
158B
102
}
102
{ACAD_REACTORS
330
1502
102
}
330
1502
100
AcDbVisualStyle
  2
ColorChange
 70
    16
 71
     2
 72
     2
 73
     3
 90
        0
 40
-0.6
 41
-30.0
 62
     5
 63
     8
 74
     1
 91
        4
 64
     7
 65
   257
 75
     1
175
     1
 42
1.0
 92
        8
 66
     8
 43
1.0
 76
     1
 77
     6
 78
     2
 67
     7
 79
     5
170
     0
171
     0
290
     0
174
     0
 93
        1
 44
0.0
173
     0
291
     1
 45
0.0
1001
ACAD
1000
AcDbSavedByObjectVersion
1070
     0
  0
VISUALSTYLE
  5
150B
102
{ACAD_XDICTIONARY
360
157D
102
}
102
{ACAD_REACTORS
330
1502
102
}
330
1502
100
AcDbVisualStyle
  2
Conceptual
 70
     9
 71
     3
 72
     2
 73
     0
 90
        0
 40
-0.6
 41
-30.0
 62
     5
 63
     7
 74
     2
 91
        2
 64
     7
 65
   257
 75
     1
175
     1
 42
179.0
 92
        8
 66
     7
 43
1.0
 76
     1
 77
     6
 78
     2
 67
     7
 79
     3
170
     0
171
     0
290
     0
174
     0
 93
        1
 44
0.0
173
     0
291
     0
 45
0.0
1001
ACAD
1000
AcDbSavedByObjectVersion
1070
     0
  0
VISUALSTYLE
  5
150D
102
{ACAD_XDICTIONARY
360
1581
102
}
102
{ACAD_REACTORS
330
1502
102
}
330
1502
100
AcDbVisualStyle
  2
Dim
 70
    11
 71
     2
 72
     2
 73
     0
 90
        0
 40
-0.6
 41
-30.0
 62
     5
 63
     7
 74
     1
 91
        4
 64
     7
 65
   257
 75
     1
175
     1
 42
1.0
 92
        8
 66
     7
 43
1.0
 76
     1
 77
     6
 78
     2
 67
     7
 79
     5
170
     0
171
     0
290
     0
174
     0
 93
        1
 44
-50.0
173
     0
291
     1
 45
0.0
1001
ACAD
1000
AcDbSavedByObjectVersion
1070
     0
  0
VISUALSTYLE
  5
1515
102
{ACAD_XDICTIONARY
360
1591
102
}
102
{ACAD_REACTORS
330
1502
102
}
330
1502
100
AcDbVisualStyle
  2
EdgeColorOff
 70
    22
 71
     2
 72
     2
 73
     0
 90
        0
 40
-0.6
 41
-30.0
 62
     5
 63
     7
 74
     1
 91
        4
 64
     7
 65
   257
 75
     1
175
     1
 42
1.0
 92
        8
 66
     7
 43
1.0
 76
     1
 77
     6
 78
     2
 67
     7
 79
     5
170
     0
171
     0
290
     0
174
     0
 93
        1
 44
0.0
173
     0
291
     1
 45
0.0
1001
ACAD
1000
AcDbSavedByObjectVersion
1070
     0
  0
VISUALSTYLE
  5
1511
102
{ACAD_XDICTIONARY
360
1589
102
}
102
{ACAD_REACTORS
330
1502
102
}
330
1502
100
AcDbVisualStyle
  2
Facepattern
 70
    15
 71
     2
 72
     2
 73
     0
 90
        0
 40
-0.6
 41
-30.0
 62
     5
 63
     7
 74
     1
 91
        4
 64
     7
 65
   257
 75
     1
175
     1
 42
1.0
 92
        8
 66
     7
 43
1.0
 76
     1
 77
     6
 78
     2
 67
     7
 79
     5
170
     0
171
     0
290
     0
174
     0
 93
        1
 44
0.0
173
     0
291
     1
 45
0.0
1001
ACAD
1000
AcDbSavedByObjectVersion
1070
     0
  0
VISUALSTYLE
  5
1503
102
{ACAD_XDICTIONARY
360
156D
102
}
102
{ACAD_REACTORS
330
1502
102
}
330
1502
100
AcDbVisualStyle
  2
Flat
 70
     0
 71
     2
 72
     1
 73
     1
 90
        2
 40
-0.6
 41
30.0
 62
     5
 63
     7
 74
     0
 91
        4
 64
     7
 65
   257
 75
     1
175
     1
 42
1.0
 92
        8
 66
     7
 43
1.0
 76
     1
 77
     6
 78
     2
 67
     7
 79
     5
170
     0
171
     0
290
     0
174
     0
 93
       13
 44
0.0
173
     0
291
     1
 45
0.0
1001
ACAD
1000
AcDbSavedByObjectVersion
1070
     0
  0
VISUALSTYLE
  5
1504
102
{ACAD_XDICTIONARY
360
156F
102
}
102
{ACAD_REACTORS
330
1502
102
}
330
1502
100
AcDbVisualStyle
  2
FlatWithEdges
 70
     1
 71
     2
 72
     1
 73
     1
 90
        2
 40
-0.6
 41
30.0
 62
     5
 63
     7
 74
     1
 91
        4
 64
     7
 65
   257
 75
     1
175
     1
 42
1.0
 92
        0
 66
   257
 43
1.0
 76
     1
 77
     6
 78
     2
 67
     7
 79
     5
170
     0
171
     0
290
     0
174
     0
 93
       13
 44
0.0
173
     0
291
     1
 45
0.0
1001
ACAD
1000
AcDbSavedByObjectVersion
1070
     0
  0
VISUALSTYLE
  5
1505
102
{ACAD_XDICTIONARY
360
1571
102
}
102
{ACAD_REACTORS
330
1502
102
}
330
1502
100
AcDbVisualStyle
  2
Gouraud
 70
     2
 71
     2
 72
     2
 73
     1
 90
        2
 40
-0.6
 41
30.0
 62
     5
 63
     7
 74
     0
 91
        4
 64
     7
 65
   257
 75
     1
175
     1
 42
1.0
 92
        0
 66
     7
 43
1.0
 76
     1
 77
     6
 78
     2
 67
     7
 79
     5
170
     0
171
     0
290
     0
174
     0
 93
       13
 44
0.0
173
     0
291
     1
 45
0.0
1001
ACAD
1000
AcDbSavedByObjectVersion
1070
     0
  0
VISUALSTYLE
  5
1506
102
{ACAD_XDICTIONARY
360
1573
102
}
102
{ACAD_REACTORS
330
1502
102
}
330
1502
100
AcDbVisualStyle
  2
GouraudWithEdges
 70
     3
 71
     2
 72
     2
 73
     1
 90
        2
 40
-0.6
 41
30.0
 62
     5
 63
     7
 74
     1
 91
        4
 64
     7
 65
   257
 75
     1
175
     1
 42
1.0
 92
        0
 66
   257
 43
1.0
 76
     1
 77
     6
 78
     2
 67
     7
 79
     5
170
     0
171
     0
290
     0
174
     0
 93
       13
 44
0.0
173
     0
291
     1
 45
0.0
1001
ACAD
1000
AcDbSavedByObjectVersion
1070
     0
  0
VISUALSTYLE
  5
1513
102
{ACAD_XDICTIONARY
360
158D
102
}
102
{ACAD_REACTORS
330
1502
102
}
330
1502
100
AcDbVisualStyle
  2
JitterOff
 70
    20
 71
     2
 72
     2
 73
     0
 90
        0
 40
-0.6
 41
-30.0
 62
     5
 63
     7
 74
     1
 91
        4
 64
     7
 65
   257
 75
     1
175
     1
 42
1.0
 92
       10
 66
     7
 43
1.0
 76
     1
 77
     6
 78
     2
 67
     7
 79
     5
170
     0
171
     0
290
     0
174
     0
 93
        1
 44
0.0
173
     0
291
     1
 45
0.0
1001
ACAD
1000
AcDbSavedByObjectVersion
1070
     0
  0
VISUALSTYLE
  5
1510
102
{ACAD_XDICTIONARY
360
1587
102
}
102
{ACAD_REACTORS
330
1502
102
}
330
1502
100
AcDbVisualStyle
  2
Linepattern
 70
    14
 71
     2
 72
     2
 73
     0
 90
        0
 40
-0.6
 41
-30.0
 62
     5
 63
     7
 74
     1
 91
        4
 64
     7
 65
   257
 75
     7
175
     7
 42
1.0
 92
        8
 66
     7
 43
1.0
 76
     1
 77
     6
 78
     2
 67
     7
 79
     5
170
     0
171
     0
290
     0
174
     0
 93
        1
 44
0.0
173
     0
291
     1
 45
0.0
1001
ACAD
1000
AcDbSavedByObjectVersion
1070
     0
  0
VISUALSTYLE
  5
1514
102
{ACAD_XDICTIONARY
360
158F
102
}
102
{ACAD_REACTORS
330
1502
102
}
330
1502
100
AcDbVisualStyle
  2
OverhangOff
 70
    21
 71
     2
 72
     2
 73
     0
 90
        0
 40
-0.6
 41
-30.0
 62
     5
 63
     7
 74
     1
 91
        4
 64
     7
 65
   257
 75
     1
175
     1
 42
1.0
 92
        9
 66
     7
 43
1.0
 76
     1
 77
     6
 78
     2
 67
     7
 79
     5
170
     0
171
     0
290
     0
174
     0
 93
        1
 44
0.0
173
     0
291
     1
 45
0.0
1001
ACAD
1000
AcDbSavedByObjectVersion
1070
     0
  0
VISUALSTYLE
  5
150C
102
{ACAD_XDICTIONARY
360
157F
102
}
102
{ACAD_REACTORS
330
1502
102
}
330
1502
100
AcDbVisualStyle
  2
Realistic
 70
     8
 71
     2
 72
     2
 73
     0
 90
        0
 40
-0.6
 41
-30.0
 62
     5
 63
     7
 74
     1
 91
        0
 64
     7
 65
   257
 75
     1
175
     1
 42
1.0
 92
        8
 66
     8
 43
1.0
 76
     1
 77
     6
 78
     2
 67
     7
 79
     5
170
     0
171
     0
290
     0
174
     0
 93
       13
 44
0.0
173
     0
291
     0
 45
0.0
1001
ACAD
1000
AcDbSavedByObjectVersion
1070
     0
  0
VISUALSTYLE
  5
150F
102
{ACAD_XDICTIONARY
360
1585
102
}
102
{ACAD_REACTORS
330
1502
102
}
330
1502
100
AcDbVisualStyle
  2
Thicken
 70
    13
 71
     2
 72
     2
 73
     0
 90
        0
 40
-0.6
 41
-30.0
 62
     5
 63
     7
 74
     1
 91
        4
 64
     7
 65
   257
 75
     1
175
     1
 42
1.0
 92
       12
 66
     7
 43
1.0
 76
     1
 77
     6
 78
     2
 67
     7
 79
     5
170
     0
171
     0
290
     0
174
     0
 93
        1
 44
0.0
173
     0
291
     1
 45
0.0
1001
ACAD
1000
AcDbSavedByObjectVersion
1070
     0
  0
DICTIONARYVAR
  5
1554
102
{ACAD_REACTORS
330
3D
102
}
330
3D
100
DictionaryVariables
280
     0
  1
1:1
  0
DICTIONARYVAR
  5
1553
102
{ACAD_REACTORS
330
3D
102
}
330
3D
100
DictionaryVariables
280
     0
  1
STANDARD
  0
DICTIONARYVAR
  5
1552
102
{ACAD_REACTORS
330
3D
102
}
330
3D
100
DictionaryVariables
280
     0
  1
STANDARD
  0
DICTIONARYVAR
  5
3F
102
{ACAD_REACTORS
330
3D
102
}
330
3D
100
DictionaryVariables
280
     0
  1
2
  0
DICTIONARYVAR
  5
3E
102
{ACAD_REACTORS
330
3D
102
}
330
3D
100
DictionaryVariables
280
     0
  1
1
  0
DICTIONARYVAR
  5
1556
102
{ACAD_REACTORS
330
3D
102
}
330
3D
100
DictionaryVariables
280
     0
  1
0
  0
DICTIONARYVAR
  5
1555
102
{ACAD_REACTORS
330
3D
102
}
330
3D
100
DictionaryVariables
280
     0
  1
127
  0
DICTIONARYVAR
  5
1557
102
{ACAD_REACTORS
330
3D
102
}
330
3D
100
DictionaryVariables
280
     0
  1
2
  0
XRECORD
  5
14CF
102
{ACAD_REACTORS
330
14CE
102
}
330
14CE
100
AcDbXrecord
280
     1
  0
DICTIONARY
  5
155C
330
1E
100
AcDbDictionary
280
     1
281
     1
  3
ACAD_XREC_ROUNDTRIP
360
155D
  0
DICTIONARY
  5
1560
330
26
100
AcDbDictionary
280
     1
281
     1
  3
ACAD_XREC_ROUNDTRIP
360
1561
  0
DICTIONARY
  5
155E
330
22
100
AcDbDictionary
280
     1
281
     1
  3
ACAD_XREC_ROUNDTRIP
360
155F
  0
DICTIONARY
  5
14F3
330
14F2
100
AcDbDictionary
280
     1
281
     1
  3
ACAD_XREC_ROUNDTRIP
360
156B
  3
BUMPTILE
360
14F5
  3
DIFFUSETILE
360
14F4
  3
OPACITYTILE
360
14F8
  3
REFLECTIONTILE
360
14F7
  3
REFRACTIONTILE
360
14F9
  3
SPECULARTILE
360
14F6
  0
DICTIONARY
  5
14EB
330
14EA
100
AcDbDictionary
280
     1
281
     1
  3
ACAD_XREC_ROUNDTRIP
360
156A
  3
BUMPTILE
360
14ED
  3
DIFFUSETILE
360
14EC
  3
OPACITYTILE
360
14F0
  3
REFLECTIONTILE
360
14EF
  3
REFRACTIONTILE
360
14F1
  3
SPECULARTILE
360
14EE
  0
DICTIONARY
  5
14FB
330
14FA
100
AcDbDictionary
280
     1
281
     1
  3
ACAD_XREC_ROUNDTRIP
360
156C
  3
BUMPTILE
360
14FD
  3
DIFFUSETILE
360
14FC
  3
OPACITYTILE
360
1500
  3
REFLECTIONTILE
360
14FF
  3
REFRACTIONTILE
360
1501
  3
SPECULARTILE
360
14FE
  0
DICTIONARY
  5
1558
330
1518
100
AcDbDictionary
280
     1
281
     1
  3
ACAD_ROUNDTRIP_2008_TABLESTYLE_CELLSTYLEMAP
360
1559
  3
ACAD_XREC_ROUNDTRIP
360
1593
  0
DICTIONARY
  5
1577
330
1508
100
AcDbDictionary
280
     1
281
     1
  3
ACAD_XREC_ROUNDTRIP
360
1578
  0
DICTIONARY
  5
157B
330
150A
100
AcDbDictionary
280
     1
281
     1
  3
ACAD_XREC_ROUNDTRIP
360
157C
  0
DICTIONARY
  5
1579
330
1509
100
AcDbDictionary
280
     1
281
     1
  3
ACAD_XREC_ROUNDTRIP
360
157A
  0
DICTIONARY
  5
1575
330
1507
100
AcDbDictionary
280
     1
281
     1
  3
ACAD_XREC_ROUNDTRIP
360
1576
  0
DICTIONARY
  5
1583
330
150E
100
AcDbDictionary
280
     1
281
     1
  3
ACAD_XREC_ROUNDTRIP
360
1584
  0
DICTIONARY
  5
158B
330
1512
100
AcDbDictionary
280
     1
281
     1
  3
ACAD_XREC_ROUNDTRIP
360
158C
  0
DICTIONARY
  5
157D
330
150B
100
AcDbDictionary
280
     1
281
     1
  3
ACAD_XREC_ROUNDTRIP
360
157E
  0
DICTIONARY
  5
1581
330
150D
100
AcDbDictionary
280
     1
281
     1
  3
ACAD_XREC_ROUNDTRIP
360
1582
  0
DICTIONARY
  5
1591
330
1515
100
AcDbDictionary
280
     1
281
     1
  3
ACAD_XREC_ROUNDTRIP
360
1592
  0
DICTIONARY
  5
1589
330
1511
100
AcDbDictionary
280
     1
281
     1
  3
ACAD_XREC_ROUNDTRIP
360
158A
  0
DICTIONARY
  5
156D
330
1503
100
AcDbDictionary
280
     1
281
     1
  3
ACAD_XREC_ROUNDTRIP
360
156E
  0
DICTIONARY
  5
156F
330
1504
100
AcDbDictionary
280
     1
281
     1
  3
ACAD_XREC_ROUNDTRIP
360
1570
  0
DICTIONARY
  5
1571
330
1505
100
AcDbDictionary
280
     1
281
     1
  3
ACAD_XREC_ROUNDTRIP
360
1572
  0
DICTIONARY
  5
1573
330
1506
100
AcDbDictionary
280
     1
281
     1
  3
ACAD_XREC_ROUNDTRIP
360
1574
  0
DICTIONARY
  5
158D
330
1513
100
AcDbDictionary
280
     1
281
     1
  3
ACAD_XREC_ROUNDTRIP
360
158E
  0
DICTIONARY
  5
1587
330
1510
100
AcDbDictionary
280
     1
281
     1
  3
ACAD_XREC_ROUNDTRIP
360
1588
  0
DICTIONARY
  5
158F
330
1514
100
AcDbDictionary
280
     1
281
     1
  3
ACAD_XREC_ROUNDTRIP
360
1590
  0
DICTIONARY
  5
157F
330
150C
100
AcDbDictionary
280
     1
281
     1
  3
ACAD_XREC_ROUNDTRIP
360
1580
  0
DICTIONARY
  5
1585
330
150F
100
AcDbDictionary
280
     1
281
     1
  3
ACAD_XREC_ROUNDTRIP
360
1586
  0
XRECORD
  5
155D
102
{ACAD_REACTORS
330
155C
102
}
330
155C
100
AcDbXrecord
280
     1
102
SHADEPLOT
 70
     0
102
SHADEPLOTRESLEVEL
 70
     2
102
SHADEPLOTCUSTOMDPI
 70
   300
  0
XRECORD
  5
1561
102
{ACAD_REACTORS
330
1560
102
}
330
1560
100
AcDbXrecord
280
     1
102
SHADEPLOT
 70
     0
102
SHADEPLOTRESLEVEL
 70
     2
102
SHADEPLOTCUSTOMDPI
 70
   300
  0
XRECORD
  5
155F
102
{ACAD_REACTORS
330
155E
102
}
330
155E
100
AcDbXrecord
280
     1
102
SHADEPLOT
 70
     0
102
SHADEPLOTRESLEVEL
 70
     2
102
SHADEPLOTCUSTOMDPI
 70
   300
  0
XRECORD
  5
156B
102
{ACAD_REACTORS
330
14F3
102
}
330
14F3
100
AcDbXrecord
280
     1
102
MATERIAL
148
0.0
149
0.0
149
0.0
 93
        0
 94
      127
282
     0
 72
     0
 77
     0
171
     0
175
     0
179
     0
273
     0
  0
XRECORD
  5
14F5
102
{ACAD_REACTORS
330
14F3
102
}
330
14F3
100
AcDbXrecord
280
     1
270
     1
271
     1
  0
XRECORD
  5
14F4
102
{ACAD_REACTORS
330
14F3
102
}
330
14F3
100
AcDbXrecord
280
     1
270
     1
271
     1
  0
XRECORD
  5
14F8
102
{ACAD_REACTORS
330
14F3
102
}
330
14F3
100
AcDbXrecord
280
     1
270
     1
271
     1
  0
XRECORD
  5
14F7
102
{ACAD_REACTORS
330
14F3
102
}
330
14F3
100
AcDbXrecord
280
     1
270
     1
271
     1
  0
XRECORD
  5
14F9
102
{ACAD_REACTORS
330
14F3
102
}
330
14F3
100
AcDbXrecord
280
     1
270
     1
271
     1
  0
XRECORD
  5
14F6
102
{ACAD_REACTORS
330
14F3
102
}
330
14F3
100
AcDbXrecord
280
     1
270
     1
271
     1
  0
XRECORD
  5
156A
102
{ACAD_REACTORS
330
14EB
102
}
330
14EB
100
AcDbXrecord
280
     1
102
MATERIAL
148
0.0
149
0.0
149
0.0
 93
        0
 94
      127
282
     0
 72
     0
 77
     0
171
     0
175
     0
179
     0
273
     0
  0
XRECORD
  5
14ED
102
{ACAD_REACTORS
330
14EB
102
}
330
14EB
100
AcDbXrecord
280
     1
270
     1
271
     1
  0
XRECORD
  5
14EC
102
{ACAD_REACTORS
330
14EB
102
}
330
14EB
100
AcDbXrecord
280
     1
270
     1
271
     1
  0
XRECORD
  5
14F0
102
{ACAD_REACTORS
330
14EB
102
}
330
14EB
100
AcDbXrecord
280
     1
270
     1
271
     1
  0
XRECORD
  5
14EF
102
{ACAD_REACTORS
330
14EB
102
}
330
14EB
100
AcDbXrecord
280
     1
270
     1
271
     1
  0
XRECORD
  5
14F1
102
{ACAD_REACTORS
330
14EB
102
}
330
14EB
100
AcDbXrecord
280
     1
270
     1
271
     1
  0
XRECORD
  5
14EE
102
{ACAD_REACTORS
330
14EB
102
}
330
14EB
100
AcDbXrecord
280
     1
270
     1
271
     1
  0
XRECORD
  5
156C
102
{ACAD_REACTORS
330
14FB
102
}
330
14FB
100
AcDbXrecord
280
     1
102
MATERIAL
148
0.0
149
0.0
149
0.0
 93
        0
 94
      127
282
     0
 72
     0
 77
     0
171
     0
175
     0
179
     0
273
     0
  0
XRECORD
  5
14FD
102
{ACAD_REACTORS
330
14FB
102
}
330
14FB
100
AcDbXrecord
280
     1
270
     1
271
     1
  0
XRECORD
  5
14FC
102
{ACAD_REACTORS
330
14FB
102
}
330
14FB
100
AcDbXrecord
280
     1
270
     1
271
     1
  0
XRECORD
  5
1500
102
{ACAD_REACTORS
330
14FB
102
}
330
14FB
100
AcDbXrecord
280
     1
270
     1
271
     1
  0
XRECORD
  5
14FF
102
{ACAD_REACTORS
330
14FB
102
}
330
14FB
100
AcDbXrecord
280
     1
270
     1
271
     1
  0
XRECORD
  5
1501
102
{ACAD_REACTORS
330
14FB
102
}
330
14FB
100
AcDbXrecord
280
     1
270
     1
271
     1
  0
XRECORD
  5
14FE
102
{ACAD_REACTORS
330
14FB
102
}
330
14FB
100
AcDbXrecord
280
     1
270
     1
271
     1
  0
CELLSTYLEMAP
  5
1559
102
{ACAD_REACTORS
330
1558
102
}
330
1558
100
AcDbCellStyleMap
 90
        3
300
CELLSTYLE
  1
TABLEFORMAT_BEGIN
 90
        5
170
     1
 91
        0
 92
    32768
 62
   257
 93
        1
300
CONTENTFORMAT
  1
CONTENTFORMAT_BEGIN
 90
        0
 91
        0
 92
      512
 93
        0
300

 40
0.0
140
1.0
 94
        5
 62
     0
340
11
144
6.0
309
CONTENTFORMAT_END
171
     1
301
MARGIN
  1
CELLMARGIN_BEGIN
 40
1.5
 40
1.5
 40
1.5
 40
1.5
 40
4.5
 40
4.5
309
CELLMARGIN_END
 94
        6
 95
        1
302
GRIDFORMAT
  1
GRIDFORMAT_BEGIN
 90
        0
 91
        1
 62
     0
 92
       -2
340
0
 93
        0
 40
1.125
309
GRIDFORMAT_END
 95
        2
302
GRIDFORMAT
  1
GRIDFORMAT_BEGIN
 90
        0
 91
        1
 62
     0
 92
       -2
340
0
 93
        0
 40
1.125
309
GRIDFORMAT_END
 95
        4
302
GRIDFORMAT
  1
GRIDFORMAT_BEGIN
 90
        0
 91
        1
 62
     0
 92
       -2
340
0
 93
        0
 40
1.125
309
GRIDFORMAT_END
 95
        8
302
GRIDFORMAT
  1
GRIDFORMAT_BEGIN
 90
        0
 91
        1
 62
     0
 92
       -2
340
0
 93
        0
 40
1.125
309
GRIDFORMAT_END
 95
       16
302
GRIDFORMAT
  1
GRIDFORMAT_BEGIN
 90
        0
 91
        1
 62
     0
 92
       -2
340
0
 93
        0
 40
1.125
309
GRIDFORMAT_END
 95
       32
302
GRIDFORMAT
  1
GRIDFORMAT_BEGIN
 90
        0
 91
        1
 62
     0
 92
       -2
340
0
 93
        0
 40
1.125
309
GRIDFORMAT_END
309
TABLEFORMAT_END
  1
CELLSTYLE_BEGIN
 90
        1
 91
        1
300
_TITLE
309
CELLSTYLE_END
300
CELLSTYLE
  1
TABLEFORMAT_BEGIN
 90
        5
170
     1
 91
        0
 92
        0
 62
   257
 93
        1
300
CONTENTFORMAT
  1
CONTENTFORMAT_BEGIN
 90
        0
 91
        0
 92
      512
 93
        0
300

 40
0.0
140
1.0
 94
        5
 62
     0
340
11
144
4.5
309
CONTENTFORMAT_END
171
     1
301
MARGIN
  1
CELLMARGIN_BEGIN
 40
1.5
 40
1.5
 40
1.5
 40
1.5
 40
4.5
 40
4.5
309
CELLMARGIN_END
 94
        6
 95
        1
302
GRIDFORMAT
  1
GRIDFORMAT_BEGIN
 90
        0
 91
        1
 62
     0
 92
       -2
340
0
 93
        0
 40
1.125
309
GRIDFORMAT_END
 95
        2
302
GRIDFORMAT
  1
GRIDFORMAT_BEGIN
 90
        0
 91
        1
 62
     0
 92
       -2
340
0
 93
        0
 40
1.125
309
GRIDFORMAT_END
 95
        4
302
GRIDFORMAT
  1
GRIDFORMAT_BEGIN
 90
        0
 91
        1
 62
     0
 92
       -2
340
0
 93
        0
 40
1.125
309
GRIDFORMAT_END
 95
        8
302
GRIDFORMAT
  1
GRIDFORMAT_BEGIN
 90
        0
 91
        1
 62
     0
 92
       -2
340
0
 93
        0
 40
1.125
309
GRIDFORMAT_END
 95
       16
302
GRIDFORMAT
  1
GRIDFORMAT_BEGIN
 90
        0
 91
        1
 62
     0
 92
       -2
340
0
 93
        0
 40
1.125
309
GRIDFORMAT_END
 95
       32
302
GRIDFORMAT
  1
GRIDFORMAT_BEGIN
 90
        0
 91
        1
 62
     0
 92
       -2
340
0
 93
        0
 40
1.125
309
GRIDFORMAT_END
309
TABLEFORMAT_END
  1
CELLSTYLE_BEGIN
 90
        2
 91
        1
300
_HEADER
309
CELLSTYLE_END
300
CELLSTYLE
  1
TABLEFORMAT_BEGIN
 90
        5
170
     1
 91
        0
 92
        0
 62
   257
 93
        1
300
CONTENTFORMAT
  1
CONTENTFORMAT_BEGIN
 90
        0
 91
        0
 92
      512
 93
        0
300

 40
0.0
140
1.0
 94
        2
 62
     0
340
11
144
4.5
309
CONTENTFORMAT_END
171
     1
301
MARGIN
  1
CELLMARGIN_BEGIN
 40
1.5
 40
1.5
 40
1.5
 40
1.5
 40
4.5
 40
4.5
309
CELLMARGIN_END
 94
        6
 95
        1
302
GRIDFORMAT
  1
GRIDFORMAT_BEGIN
 90
        0
 91
        1
 62
     0
 92
       -2
340
0
 93
        0
 40
1.125
309
GRIDFORMAT_END
 95
        2
302
GRIDFORMAT
  1
GRIDFORMAT_BEGIN
 90
        0
 91
        1
 62
     0
 92
       -2
340
0
 93
        0
 40
1.125
309
GRIDFORMAT_END
 95
        4
302
GRIDFORMAT
  1
GRIDFORMAT_BEGIN
 90
        0
 91
        1
 62
     0
 92
       -2
340
0
 93
        0
 40
1.125
309
GRIDFORMAT_END
 95
        8
302
GRIDFORMAT
  1
GRIDFORMAT_BEGIN
 90
        0
 91
        1
 62
     0
 92
       -2
340
0
 93
        0
 40
1.125
309
GRIDFORMAT_END
 95
       16
302
GRIDFORMAT
  1
GRIDFORMAT_BEGIN
 90
        0
 91
        1
 62
     0
 92
       -2
340
0
 93
        0
 40
1.125
309
GRIDFORMAT_END
 95
       32
302
GRIDFORMAT
  1
GRIDFORMAT_BEGIN
 90
        0
 91
        1
 62
     0
 92
       -2
340
0
 93
        0
 40
1.125
309
GRIDFORMAT_END
309
TABLEFORMAT_END
  1
CELLSTYLE_BEGIN
 90
        3
 91
        2
300
_DATA
309
CELLSTYLE_END
  0
XRECORD
  5
1593
102
{ACAD_REACTORS
330
1558
102
}
330
1558
100
AcDbXrecord
280
     1
102
ACAD_ROUNDTRIP_PRE2007_TABLESTYLE
 90
      512
 91
        0
  1

 92
      512
 93
        0
  2

 94
      512
 95
        0
  3

  0
XRECORD
  5
1578
102
{ACAD_REACTORS
330
1577
102
}
330
1577
100
AcDbXrecord
280
     1
102
RTVSPropertyOp0
 70
     1
102
RTVSPropertyOp1
 70
     1
102
RTVSPropertyOp2
 70
     1
102
RTVSPropertyOp3
 70
     1
102
RTVSPropertyOp4
 70
     1
102
RTVSPropertyOp5
 70
     1
102
RTVSPropertyOp6
 70
     1
102
RTVSPropertyOp7
 70
     1
102
RTVSPropertyOp8
 70
     1
102
RTVSPropertyOp9
 70
     1
102
RTVSPropertyOp10
 70
     1
102
RTVSPropertyOp11
 70
     1
102
RTVSPropertyOp12
 70
     1
102
RTVSPropertyOp13
 70
     1
102
RTVSPropertyOp14
 70
     1
102
RTVSPropertyOp15
 70
     1
102
RTVSPropertyOp16
 70
     1
102
RTVSPropertyOp17
 70
     1
102
RTVSPropertyOp18
 70
     1
102
RTVSPropertyOp19
 70
     1
102
RTVSPropertyOp20
 70
     1
102
RTVSPropertyOp21
 70
     1
102
RTVSPropertyOp22
 70
     1
102
RTVSPropertyOp23
 70
     1
102
RTVSPropertyOp24
 70
     1
102
RTVSPropertyOp25
 70
     1
102
RTVSPropertyOp26
 70
     1
102
RTVSPropertyOp27
 70
     1
  0
XRECORD
  5
157C
102
{ACAD_REACTORS
330
157B
102
}
330
157B
100
AcDbXrecord
280
     1
102
RTVSPropertyOp0
 70
     1
102
RTVSPropertyOp1
 70
     1
102
RTVSPropertyOp2
 70
     1
102
RTVSPropertyOp3
 70
     1
102
RTVSPropertyOp4
 70
     1
102
RTVSPropertyOp5
 70
     1
102
RTVSPropertyOp6
 70
     1
102
RTVSPropertyOp7
 70
     1
102
RTVSPropertyOp8
 70
     1
102
RTVSPropertyOp9
 70
     1
102
RTVSPropertyOp10
 70
     1
102
RTVSPropertyOp11
 70
     1
102
RTVSPropertyOp12
 70
     1
102
RTVSPropertyOp13
 70
     1
102
RTVSPropertyOp14
 70
     1
102
RTVSPropertyOp15
 70
     1
102
RTVSPropertyOp16
 70
     1
102
RTVSPropertyOp17
 70
     1
102
RTVSPropertyOp18
 70
     1
102
RTVSPropertyOp19
 70
     1
102
RTVSPropertyOp20
 70
     1
102
RTVSPropertyOp21
 70
     1
102
RTVSPropertyOp22
 70
     1
102
RTVSPropertyOp23
 70
     1
102
RTVSPropertyOp24
 70
     1
102
RTVSPropertyOp25
 70
     1
102
RTVSPropertyOp26
 70
     1
102
RTVSPropertyOp27
 70
     1
  0
XRECORD
  5
157A
102
{ACAD_REACTORS
330
1579
102
}
330
1579
100
AcDbXrecord
280
     1
102
RTVSPropertyOp0
 70
     1
102
RTVSPropertyOp1
 70
     1
102
RTVSPropertyOp2
 70
     1
102
RTVSPropertyOp3
 70
     1
102
RTVSPropertyOp4
 70
     1
102
RTVSPropertyOp5
 70
     1
102
RTVSPropertyOp6
 70
     1
102
RTVSPropertyOp7
 70
     1
102
RTVSPropertyOp8
 70
     1
102
RTVSPropertyOp9
 70
     1
102
RTVSPropertyOp10
 70
     1
102
RTVSPropertyOp11
 70
     1
102
RTVSPropertyOp12
 70
     1
102
RTVSPropertyOp13
 70
     1
102
RTVSPropertyOp14
 70
     1
102
RTVSPropertyOp15
 70
     1
102
RTVSPropertyOp16
 70
     1
102
RTVSPropertyOp17
 70
     1
102
RTVSPropertyOp18
 70
     1
102
RTVSPropertyOp19
 70
     1
102
RTVSPropertyOp20
 70
     1
102
RTVSPropertyOp21
 70
     1
102
RTVSPropertyOp22
 70
     1
102
RTVSPropertyOp23
 70
     1
102
RTVSPropertyOp24
 70
     1
102
RTVSPropertyOp25
 70
     1
102
RTVSPropertyOp26
 70
     1
102
RTVSPropertyOp27
 70
     1
  0
XRECORD
  5
1576
102
{ACAD_REACTORS
330
1575
102
}
330
1575
100
AcDbXrecord
280
     1
102
RTVSPropertyOp0
 70
     1
102
RTVSPropertyOp1
 70
     1
102
RTVSPropertyOp2
 70
     1
102
RTVSPropertyOp3
 70
     1
102
RTVSPropertyOp4
 70
     1
102
RTVSPropertyOp5
 70
     1
102
RTVSPropertyOp6
 70
     1
102
RTVSPropertyOp7
 70
     1
102
RTVSPropertyOp8
 70
     1
102
RTVSPropertyOp9
 70
     1
102
RTVSPropertyOp10
 70
     1
102
RTVSPropertyOp11
 70
     1
102
RTVSPropertyOp12
 70
     1
102
RTVSPropertyOp13
 70
     1
102
RTVSPropertyOp14
 70
     1
102
RTVSPropertyOp15
 70
     1
102
RTVSPropertyOp16
 70
     1
102
RTVSPropertyOp17
 70
     1
102
RTVSPropertyOp18
 70
     1
102
RTVSPropertyOp19
 70
     1
102
RTVSPropertyOp20
 70
     1
102
RTVSPropertyOp21
 70
     1
102
RTVSPropertyOp22
 70
     1
102
RTVSPropertyOp23
 70
     1
102
RTVSPropertyOp24
 70
     1
102
RTVSPropertyOp25
 70
     1
102
RTVSPropertyOp26
 70
     1
102
RTVSPropertyOp27
 70
     1
  0
XRECORD
  5
1584
102
{ACAD_REACTORS
330
1583
102
}
330
1583
100
AcDbXrecord
280
     1
102
RTVSPropertyOp0
 70
     1
102
RTVSPropertyOp1
 70
     1
102
RTVSPropertyOp2
 70
     1
102
RTVSPropertyOp3
 70
     1
102
RTVSPropertyOp4
 70
     1
102
RTVSPropertyOp5
 70
     1
102
RTVSPropertyOp6
 70
     1
102
RTVSPropertyOp7
 70
     1
102
RTVSPropertyOp8
 70
     1
102
RTVSPropertyOp9
 70
     1
102
RTVSPropertyOp10
 70
     1
102
RTVSPropertyOp11
 70
     1
102
RTVSPropertyOp12
 70
     1
102
RTVSPropertyOp13
 70
     1
102
RTVSPropertyOp14
 70
     1
102
RTVSPropertyOp15
 70
     1
102
RTVSPropertyOp16
 70
     1
102
RTVSPropertyOp17
 70
     1
102
RTVSPropertyOp18
 70
     1
102
RTVSPropertyOp19
 70
     1
102
RTVSPropertyOp20
 70
     1
102
RTVSPropertyOp21
 70
     1
102
RTVSPropertyOp22
 70
     1
102
RTVSPropertyOp23
 70
     1
102
RTVSPropertyOp24
 70
     1
102
RTVSPropertyOp25
 70
     1
102
RTVSPropertyOp26
 70
     1
102
RTVSPropertyOp27
 70
     1
  0
XRECORD
  5
158C
102
{ACAD_REACTORS
330
158B
102
}
330
158B
100
AcDbXrecord
280
     1
102
RTVSPropertyOp0
 70
     1
102
RTVSPropertyOp1
 70
     1
102
RTVSPropertyOp2
 70
     1
102
RTVSPropertyOp3
 70
     1
102
RTVSPropertyOp4
 70
     1
102
RTVSPropertyOp5
 70
     1
102
RTVSPropertyOp6
 70
     1
102
RTVSPropertyOp7
 70
     1
102
RTVSPropertyOp8
 70
     1
102
RTVSPropertyOp9
 70
     1
102
RTVSPropertyOp10
 70
     1
102
RTVSPropertyOp11
 70
     1
102
RTVSPropertyOp12
 70
     1
102
RTVSPropertyOp13
 70
     1
102
RTVSPropertyOp14
 70
     1
102
RTVSPropertyOp15
 70
     1
102
RTVSPropertyOp16
 70
     1
102
RTVSPropertyOp17
 70
     1
102
RTVSPropertyOp18
 70
     1
102
RTVSPropertyOp19
 70
     1
102
RTVSPropertyOp20
 70
     1
102
RTVSPropertyOp21
 70
     1
102
RTVSPropertyOp22
 70
     1
102
RTVSPropertyOp23
 70
     1
102
RTVSPropertyOp24
 70
     1
102
RTVSPropertyOp25
 70
     1
102
RTVSPropertyOp26
 70
     1
102
RTVSPropertyOp27
 70
     1
  0
XRECORD
  5
157E
102
{ACAD_REACTORS
330
157D
102
}
330
157D
100
AcDbXrecord
280
     1
102
RTVSPropertyOp0
 70
     1
102
RTVSPropertyOp1
 70
     1
102
RTVSPropertyOp2
 70
     1
102
RTVSPropertyOp3
 70
     1
102
RTVSPropertyOp4
 70
     1
102
RTVSPropertyOp5
 70
     1
102
RTVSPropertyOp6
 70
     1
102
RTVSPropertyOp7
 70
     1
102
RTVSPropertyOp8
 70
     1
102
RTVSPropertyOp9
 70
     1
102
RTVSPropertyOp10
 70
     1
102
RTVSPropertyOp11
 70
     1
102
RTVSPropertyOp12
 70
     1
102
RTVSPropertyOp13
 70
     1
102
RTVSPropertyOp14
 70
     1
102
RTVSPropertyOp15
 70
     1
102
RTVSPropertyOp16
 70
     1
102
RTVSPropertyOp17
 70
     1
102
RTVSPropertyOp18
 70
     1
102
RTVSPropertyOp19
 70
     1
102
RTVSPropertyOp20
 70
     1
102
RTVSPropertyOp21
 70
     1
102
RTVSPropertyOp22
 70
     1
102
RTVSPropertyOp23
 70
     1
102
RTVSPropertyOp24
 70
     1
102
RTVSPropertyOp25
 70
     1
102
RTVSPropertyOp26
 70
     1
102
RTVSPropertyOp27
 70
     1
  0
XRECORD
  5
1582
102
{ACAD_REACTORS
330
1581
102
}
330
1581
100
AcDbXrecord
280
     1
102
RTVSPropertyOp0
 70
     1
102
RTVSPropertyOp1
 70
     1
102
RTVSPropertyOp2
 70
     1
102
RTVSPropertyOp3
 70
     1
102
RTVSPropertyOp4
 70
     1
102
RTVSPropertyOp5
 70
     1
102
RTVSPropertyOp6
 70
     1
102
RTVSPropertyOp7
 70
     1
102
RTVSPropertyOp8
 70
     1
102
RTVSPropertyOp9
 70
     1
102
RTVSPropertyOp10
 70
     1
102
RTVSPropertyOp11
 70
     1
102
RTVSPropertyOp12
 70
     1
102
RTVSPropertyOp13
 70
     1
102
RTVSPropertyOp14
 70
     1
102
RTVSPropertyOp15
 70
     1
102
RTVSPropertyOp16
 70
     1
102
RTVSPropertyOp17
 70
     1
102
RTVSPropertyOp18
 70
     1
102
RTVSPropertyOp19
 70
     1
102
RTVSPropertyOp20
 70
     1
102
RTVSPropertyOp21
 70
     1
102
RTVSPropertyOp22
 70
     1
102
RTVSPropertyOp23
 70
     1
102
RTVSPropertyOp24
 70
     1
102
RTVSPropertyOp25
 70
     1
102
RTVSPropertyOp26
 70
     1
102
RTVSPropertyOp27
 70
     1
  0
XRECORD
  5
1592
102
{ACAD_REACTORS
330
1591
102
}
330
1591
100
AcDbXrecord
280
     1
102
RTVSPropertyOp0
 70
     0
102
RTVSPropertyOp1
 70
     0
102
RTVSPropertyOp2
 70
     0
102
RTVSPropertyOp3
 70
     0
102
RTVSPropertyOp4
 70
     0
102
RTVSPropertyOp5
 70
     0
102
RTVSPropertyOp6
 70
     0
102
RTVSPropertyOp7
 70
     0
102
RTVSPropertyOp8
 70
     0
102
RTVSPropertyOp9
 70
     0
102
RTVSPropertyOp10
 70
     0
102
RTVSPropertyOp11
 70
     0
102
RTVSPropertyOp12
 70
     0
102
RTVSPropertyOp13
 70
     0
102
RTVSPropertyOp14
 70
     2
102
RTVSPropertyOp15
 70
     0
102
RTVSPropertyOp16
 70
     0
102
RTVSPropertyOp17
 70
     0
102
RTVSPropertyOp18
 70
     0
102
RTVSPropertyOp19
 70
     0
102
RTVSPropertyOp20
 70
     0
102
RTVSPropertyOp21
 70
     0
102
RTVSPropertyOp22
 70
     0
102
RTVSPropertyOp23
 70
     0
102
RTVSPropertyOp24
 70
     0
102
RTVSPropertyOp25
 70
     0
102
RTVSPropertyOp26
 70
     0
102
RTVSPropertyOp27
 70
     0
  0
XRECORD
  5
158A
102
{ACAD_REACTORS
330
1589
102
}
330
1589
100
AcDbXrecord
280
     1
102
RTVSPropertyOp0
 70
     1
102
RTVSPropertyOp1
 70
     1
102
RTVSPropertyOp2
 70
     1
102
RTVSPropertyOp3
 70
     1
102
RTVSPropertyOp4
 70
     1
102
RTVSPropertyOp5
 70
     1
102
RTVSPropertyOp6
 70
     1
102
RTVSPropertyOp7
 70
     1
102
RTVSPropertyOp8
 70
     1
102
RTVSPropertyOp9
 70
     1
102
RTVSPropertyOp10
 70
     1
102
RTVSPropertyOp11
 70
     1
102
RTVSPropertyOp12
 70
     1
102
RTVSPropertyOp13
 70
     1
102
RTVSPropertyOp14
 70
     1
102
RTVSPropertyOp15
 70
     1
102
RTVSPropertyOp16
 70
     1
102
RTVSPropertyOp17
 70
     1
102
RTVSPropertyOp18
 70
     1
102
RTVSPropertyOp19
 70
     1
102
RTVSPropertyOp20
 70
     1
102
RTVSPropertyOp21
 70
     1
102
RTVSPropertyOp22
 70
     1
102
RTVSPropertyOp23
 70
     1
102
RTVSPropertyOp24
 70
     1
102
RTVSPropertyOp25
 70
     1
102
RTVSPropertyOp26
 70
     1
102
RTVSPropertyOp27
 70
     1
  0
XRECORD
  5
156E
102
{ACAD_REACTORS
330
156D
102
}
330
156D
100
AcDbXrecord
280
     1
102
RTVSPropertyOp0
 70
     1
102
RTVSPropertyOp1
 70
     1
102
RTVSPropertyOp2
 70
     1
102
RTVSPropertyOp3
 70
     1
102
RTVSPropertyOp4
 70
     1
102
RTVSPropertyOp5
 70
     1
102
RTVSPropertyOp6
 70
     1
102
RTVSPropertyOp7
 70
     1
102
RTVSPropertyOp8
 70
     1
102
RTVSPropertyOp9
 70
     1
102
RTVSPropertyOp10
 70
     1
102
RTVSPropertyOp11
 70
     1
102
RTVSPropertyOp12
 70
     1
102
RTVSPropertyOp13
 70
     1
102
RTVSPropertyOp14
 70
     1
102
RTVSPropertyOp15
 70
     1
102
RTVSPropertyOp16
 70
     1
102
RTVSPropertyOp17
 70
     1
102
RTVSPropertyOp18
 70
     1
102
RTVSPropertyOp19
 70
     1
102
RTVSPropertyOp20
 70
     1
102
RTVSPropertyOp21
 70
     1
102
RTVSPropertyOp22
 70
     1
102
RTVSPropertyOp23
 70
     1
102
RTVSPropertyOp24
 70
     1
102
RTVSPropertyOp25
 70
     1
102
RTVSPropertyOp26
 70
     1
102
RTVSPropertyOp27
 70
     1
  0
XRECORD
  5
1570
102
{ACAD_REACTORS
330
156F
102
}
330
156F
100
AcDbXrecord
280
     1
102
RTVSPropertyOp0
 70
     1
102
RTVSPropertyOp1
 70
     1
102
RTVSPropertyOp2
 70
     1
102
RTVSPropertyOp3
 70
     1
102
RTVSPropertyOp4
 70
     1
102
RTVSPropertyOp5
 70
     1
102
RTVSPropertyOp6
 70
     1
102
RTVSPropertyOp7
 70
     1
102
RTVSPropertyOp8
 70
     1
102
RTVSPropertyOp9
 70
     1
102
RTVSPropertyOp10
 70
     1
102
RTVSPropertyOp11
 70
     1
102
RTVSPropertyOp12
 70
     1
102
RTVSPropertyOp13
 70
     1
102
RTVSPropertyOp14
 70
     1
102
RTVSPropertyOp15
 70
     1
102
RTVSPropertyOp16
 70
     1
102
RTVSPropertyOp17
 70
     1
102
RTVSPropertyOp18
 70
     1
102
RTVSPropertyOp19
 70
     1
102
RTVSPropertyOp20
 70
     1
102
RTVSPropertyOp21
 70
     1
102
RTVSPropertyOp22
 70
     1
102
RTVSPropertyOp23
 70
     1
102
RTVSPropertyOp24
 70
     1
102
RTVSPropertyOp25
 70
     1
102
RTVSPropertyOp26
 70
     1
102
RTVSPropertyOp27
 70
     1
  0
XRECORD
  5
1572
102
{ACAD_REACTORS
330
1571
102
}
330
1571
100
AcDbXrecord
280
     1
102
RTVSPropertyOp0
 70
     1
102
RTVSPropertyOp1
 70
     1
102
RTVSPropertyOp2
 70
     1
102
RTVSPropertyOp3
 70
     1
102
RTVSPropertyOp4
 70
     1
102
RTVSPropertyOp5
 70
     1
102
RTVSPropertyOp6
 70
     1
102
RTVSPropertyOp7
 70
     1
102
RTVSPropertyOp8
 70
     1
102
RTVSPropertyOp9
 70
     1
102
RTVSPropertyOp10
 70
     1
102
RTVSPropertyOp11
 70
     1
102
RTVSPropertyOp12
 70
     1
102
RTVSPropertyOp13
 70
     1
102
RTVSPropertyOp14
 70
     1
102
RTVSPropertyOp15
 70
     1
102
RTVSPropertyOp16
 70
     1
102
RTVSPropertyOp17
 70
     1
102
RTVSPropertyOp18
 70
     1
102
RTVSPropertyOp19
 70
     1
102
RTVSPropertyOp20
 70
     1
102
RTVSPropertyOp21
 70
     1
102
RTVSPropertyOp22
 70
     1
102
RTVSPropertyOp23
 70
     1
102
RTVSPropertyOp24
 70
     1
102
RTVSPropertyOp25
 70
     1
102
RTVSPropertyOp26
 70
     1
102
RTVSPropertyOp27
 70
     1
  0
XRECORD
  5
1574
102
{ACAD_REACTORS
330
1573
102
}
330
1573
100
AcDbXrecord
280
     1
102
RTVSPropertyOp0
 70
     1
102
RTVSPropertyOp1
 70
     1
102
RTVSPropertyOp2
 70
     1
102
RTVSPropertyOp3
 70
     1
102
RTVSPropertyOp4
 70
     1
102
RTVSPropertyOp5
 70
     1
102
RTVSPropertyOp6
 70
     1
102
RTVSPropertyOp7
 70
     1
102
RTVSPropertyOp8
 70
     1
102
RTVSPropertyOp9
 70
     1
102
RTVSPropertyOp10
 70
     1
102
RTVSPropertyOp11
 70
     1
102
RTVSPropertyOp12
 70
     1
102
RTVSPropertyOp13
 70
     1
102
RTVSPropertyOp14
 70
     1
102
RTVSPropertyOp15
 70
     1
102
RTVSPropertyOp16
 70
     1
102
RTVSPropertyOp17
 70
     1
102
RTVSPropertyOp18
 70
     1
102
RTVSPropertyOp19
 70
     1
102
RTVSPropertyOp20
 70
     1
102
RTVSPropertyOp21
 70
     1
102
RTVSPropertyOp22
 70
     1
102
RTVSPropertyOp23
 70
     1
102
RTVSPropertyOp24
 70
     1
102
RTVSPropertyOp25
 70
     1
102
RTVSPropertyOp26
 70
     1
102
RTVSPropertyOp27
 70
     1
  0
XRECORD
  5
158E
102
{ACAD_REACTORS
330
158D
102
}
330
158D
100
AcDbXrecord
280
     1
102
RTVSPropertyOp0
 70
     0
102
RTVSPropertyOp1
 70
     0
102
RTVSPropertyOp2
 70
     0
102
RTVSPropertyOp3
 70
     0
102
RTVSPropertyOp4
 70
     0
102
RTVSPropertyOp5
 70
     0
102
RTVSPropertyOp6
 70
     0
102
RTVSPropertyOp7
 70
     0
102
RTVSPropertyOp8
 70
     0
102
RTVSPropertyOp9
 70
     0
102
RTVSPropertyOp10
 70
     0
102
RTVSPropertyOp11
 70
     0
102
RTVSPropertyOp12
 70
     0
102
RTVSPropertyOp13
 70
     0
102
RTVSPropertyOp14
 70
     2
102
RTVSPropertyOp15
 70
     0
102
RTVSPropertyOp16
 70
     0
102
RTVSPropertyOp17
 70
     0
102
RTVSPropertyOp18
 70
     0
102
RTVSPropertyOp19
 70
     0
102
RTVSPropertyOp20
 70
     0
102
RTVSPropertyOp21
 70
     0
102
RTVSPropertyOp22
 70
     0
102
RTVSPropertyOp23
 70
     0
102
RTVSPropertyOp24
 70
     0
102
RTVSPropertyOp25
 70
     0
102
RTVSPropertyOp26
 70
     0
102
RTVSPropertyOp27
 70
     0
  0
XRECORD
  5
1588
102
{ACAD_REACTORS
330
1587
102
}
330
1587
100
AcDbXrecord
280
     1
102
RTVSPropertyOp0
 70
     1
102
RTVSPropertyOp1
 70
     1
102
RTVSPropertyOp2
 70
     1
102
RTVSPropertyOp3
 70
     1
102
RTVSPropertyOp4
 70
     1
102
RTVSPropertyOp5
 70
     1
102
RTVSPropertyOp6
 70
     1
102
RTVSPropertyOp7
 70
     1
102
RTVSPropertyOp8
 70
     1
102
RTVSPropertyOp9
 70
     1
102
RTVSPropertyOp10
 70
     1
102
RTVSPropertyOp11
 70
     1
102
RTVSPropertyOp12
 70
     1
102
RTVSPropertyOp13
 70
     1
102
RTVSPropertyOp14
 70
     1
102
RTVSPropertyOp15
 70
     1
102
RTVSPropertyOp16
 70
     1
102
RTVSPropertyOp17
 70
     1
102
RTVSPropertyOp18
 70
     1
102
RTVSPropertyOp19
 70
     1
102
RTVSPropertyOp20
 70
     1
102
RTVSPropertyOp21
 70
     1
102
RTVSPropertyOp22
 70
     1
102
RTVSPropertyOp23
 70
     1
102
RTVSPropertyOp24
 70
     1
102
RTVSPropertyOp25
 70
     1
102
RTVSPropertyOp26
 70
     1
102
RTVSPropertyOp27
 70
     1
  0
XRECORD
  5
1590
102
{ACAD_REACTORS
330
158F
102
}
330
158F
100
AcDbXrecord
280
     1
102
RTVSPropertyOp0
 70
     0
102
RTVSPropertyOp1
 70
     0
102
RTVSPropertyOp2
 70
     0
102
RTVSPropertyOp3
 70
     0
102
RTVSPropertyOp4
 70
     0
102
RTVSPropertyOp5
 70
     0
102
RTVSPropertyOp6
 70
     0
102
RTVSPropertyOp7
 70
     0
102
RTVSPropertyOp8
 70
     0
102
RTVSPropertyOp9
 70
     0
102
RTVSPropertyOp10
 70
     0
102
RTVSPropertyOp11
 70
     0
102
RTVSPropertyOp12
 70
     0
102
RTVSPropertyOp13
 70
     0
102
RTVSPropertyOp14
 70
     2
102
RTVSPropertyOp15
 70
     0
102
RTVSPropertyOp16
 70
     0
102
RTVSPropertyOp17
 70
     0
102
RTVSPropertyOp18
 70
     0
102
RTVSPropertyOp19
 70
     0
102
RTVSPropertyOp20
 70
     0
102
RTVSPropertyOp21
 70
     0
102
RTVSPropertyOp22
 70
     0
102
RTVSPropertyOp23
 70
     0
102
RTVSPropertyOp24
 70
     0
102
RTVSPropertyOp25
 70
     0
102
RTVSPropertyOp26
 70
     0
102
RTVSPropertyOp27
 70
     0
  0
XRECORD
  5
1580
102
{ACAD_REACTORS
330
157F
102
}
330
157F
100
AcDbXrecord
280
     1
102
RTVSPropertyOp0
 70
     1
102
RTVSPropertyOp1
 70
     1
102
RTVSPropertyOp2
 70
     1
102
RTVSPropertyOp3
 70
     1
102
RTVSPropertyOp4
 70
     1
102
RTVSPropertyOp5
 70
     1
102
RTVSPropertyOp6
 70
     1
102
RTVSPropertyOp7
 70
     1
102
RTVSPropertyOp8
 70
     1
102
RTVSPropertyOp9
 70
     1
102
RTVSPropertyOp10
 70
     1
102
RTVSPropertyOp11
 70
     1
102
RTVSPropertyOp12
 70
     1
102
RTVSPropertyOp13
 70
     1
102
RTVSPropertyOp14
 70
     1
102
RTVSPropertyOp15
 70
     1
102
RTVSPropertyOp16
 70
     1
102
RTVSPropertyOp17
 70
     1
102
RTVSPropertyOp18
 70
     1
102
RTVSPropertyOp19
 70
     1
102
RTVSPropertyOp20
 70
     1
102
RTVSPropertyOp21
 70
     1
102
RTVSPropertyOp22
 70
     1
102
RTVSPropertyOp23
 70
     1
102
RTVSPropertyOp24
 70
     1
102
RTVSPropertyOp25
 70
     1
102
RTVSPropertyOp26
 70
     1
102
RTVSPropertyOp27
 70
     1
  0
XRECORD
  5
1586
102
{ACAD_REACTORS
330
1585
102
}
330
1585
100
AcDbXrecord
280
     1
102
RTVSPropertyOp0
 70
     1
102
RTVSPropertyOp1
 70
     1
102
RTVSPropertyOp2
 70
     1
102
RTVSPropertyOp3
 70
     1
102
RTVSPropertyOp4
 70
     1
102
RTVSPropertyOp5
 70
     1
102
RTVSPropertyOp6
 70
     1
102
RTVSPropertyOp7
 70
     1
102
RTVSPropertyOp8
 70
     1
102
RTVSPropertyOp9
 70
     1
102
RTVSPropertyOp10
 70
     1
102
RTVSPropertyOp11
 70
     1
102
RTVSPropertyOp12
 70
     1
102
RTVSPropertyOp13
 70
     1
102
RTVSPropertyOp14
 70
     1
102
RTVSPropertyOp15
 70
     1
102
RTVSPropertyOp16
 70
     1
102
RTVSPropertyOp17
 70
     1
102
RTVSPropertyOp18
 70
     1
102
RTVSPropertyOp19
 70
     1
102
RTVSPropertyOp20
 70
     1
102
RTVSPropertyOp21
 70
     1
102
RTVSPropertyOp22
 70
     1
102
RTVSPropertyOp23
 70
     1
102
RTVSPropertyOp24
 70
     1
102
RTVSPropertyOp25
 70
     1
102
RTVSPropertyOp26
 70
     1
102
RTVSPropertyOp27
 70
     1
  0
ENDSEC
  0
EOF
