  0
SECTION
  2
HEADER
  9
$ACADVER
  1
AC1015
  9
$ACADMAINTVER
 70
    20
  9
$DWGCODEPAGE
  3
ANSI_1252
  9
$INSBASE
 10
0.0
 20
0.0
 30
0.0
  9
$EXTMIN
 10
4419.908536978929
 20
2367.592387669006
 30
0.0
  9
$EXTMAX
 10
4421.819693680705
 20
2368.033474834926
 30
0.0
  9
$LIMMIN
 10
0.0
 20
0.0
  9
$LIMMAX
 10
420.0
 20
297.0
  9
$ORTHOMODE
 70
     1
  9
$REGENMODE
 70
     1
  9
$FILLMODE
 70
     1
  9
$QTEXTMODE
 70
     0
  9
$MIRRTEXT
 70
     1
  9
$LTSCALE
 40
1.0
  9
$ATTMODE
 70
     1
  9
$TEXTSIZE
 40
2.5
  9
$TRACEWID
 40
1.0
  9
$TEXTSTYLE
  7
SANINDUSA
  9
$CLAYER
  8
cotas
  9
$CELTYPE
  6
ByLayer
  9
$CECOLOR
 62
   256
  9
$CELTSCALE
 40
1.0
  9
$DISPSILH
 70
     0
  9
$DIMSCALE
 40
1.0
  9
$DIMASZ
 40
2.0
  9
$DIMEXO
 40
1.0
  9
$DIMDLI
 40
1.0
  9
$DIMRND
 40
0.0
  9
$DIMDLE
 40
0.0
  9
$DIMEXE
 40
1.0
  9
$DIMTP
 40
0.0
  9
$DIMTM
 40
0.0
  9
$DIMTXT
 40
2.0
  9
$DIMCEN
 40
0.0
  9
$DIMTSZ
 40
0.0
  9
$DIMTOL
 70
     0
  9
$DIMLIM
 70
     0
  9
$DIMTIH
 70
     0
  9
$DIMTOH
 70
     0
  9
$DIMSE1
 70
     0
  9
$DIMSE2
 70
     0
  9
$DIMTAD
 70
     1
  9
$DIMZIN
 70
     8
  9
$DIMBLK
  1

  9
$DIMASO
 70
     1
  9
$DIMSHO
 70
     1
  9
$DIMPOST
  1

  9
$DIMAPOST
  1

  9
$DIMALT
 70
     0
  9
$DIMALTD
 70
     3
  9
$DIMALTF
 40
0.03937007874016
  9
$DIMLFAC
 40
1.0
  9
$DIMTOFL
 70
     1
  9
$DIMTVP
 40
0.0
  9
$DIMTIX
 70
     0
  9
$DIMSOXD
 70
     0
  9
$DIMSAH
 70
     0
  9
$DIMBLK1
  1

  9
$DIMBLK2
  1

  9
$DIMSTYLE
  2
SANINDUSA
  9
$DIMCLRD
 70
   256
  9
$DIMCLRE
 70
   256
  9
$DIMCLRT
 70
   256
  9
$DIMTFAC
 40
1.0
  9
$DIMGAP
 40
1.0
  9
$DIMJUST
 70
     0
  9
$DIMSD1
 70
     0
  9
$DIMSD2
 70
     0
  9
$DIMTOLJ
 70
     0
  9
$DIMTZIN
 70
     8
  9
$DIMALTZ
 70
     0
  9
$DIMALTTZ
 70
     0
  9
$DIMUPT
 70
     0
  9
$DIMDEC
 70
     1
  9
$DIMTDEC
 70
     1
  9
$DIMALTU
 70
     2
  9
$DIMALTTD
 70
     3
  9
$DIMTXSTY
  7
SANINDUSA
  9
$DIMAUNIT
 70
     0
  9
$DIMADEC
 70
     1
  9
$DIMALTRND
 40
0.0
  9
$DIMAZIN
 70
     0
  9
$DIMDSEP
 70
    44
  9
$DIMATFIT
 70
     3
  9
$DIMFRAC
 70
     0
  9
$DIMLDRBLK
  1

  9
$DIMLUNIT
 70
     2
  9
$DIMLWD
 70
    -1
  9
$DIMLWE
 70
    -1
  9
$DIMTMOVE
 70
     0
  9
$LUNITS
 70
     2
  9
$LUPREC
 70
     4
  9
$SKETCHINC
 40
1.0
  9
$FILLETRAD
 40
3.0
  9
$AUNITS
 70
     0
  9
$AUPREC
 70
     0
  9
$MENU
  1
.
  9
$ELEVATION
 40
0.0
  9
$PELEVATION
 40
0.0
  9
$THICKNESS
 40
0.0
  9
$LIMCHECK
 70
     0
  9
$CHAMFERA
 40
10.0
  9
$CHAMFERB
 40
10.0
  9
$CHAMFERC
 40
20.0
  9
$CHAMFERD
 40
0.0
  9
$SKPOLY
 70
     0
  9
$TDCREATE
 40
2454922.462144097
  9
$TDUCREATE
 40
2454922.420477430
  9
$TDUPDATE
 40
2454922.468980753
  9
$TDUUPDATE
 40
2454922.427314086
  9
$TDINDWG
 40
0.0068370255
  9
$TDUSRTIMER
 40
0.0068368403
  9
$USRTIMER
 70
     1
  9
$ANGBASE
 50
0.0
  9
$ANGDIR
 70
     0
  9
$PDMODE
 70
     0
  9
$PDSIZE
 40
0.0
  9
$PLINEWID
 40
0.0
  9
$SPLFRAME
 70
     0
  9
$SPLINETYPE
 70
     6
  9
$SPLINESEGS
 70
     8
  9
$HANDSEED
  5
18C4
  9
$SURFTAB1
 70
     6
  9
$SURFTAB2
 70
     6
  9
$SURFTYPE
 70
     6
  9
$SURFU
 70
     6
  9
$SURFV
 70
     6
  9
$UCSBASE
  2

  9
$UCSNAME
  2

  9
$UCSORG
 10
0.0
 20
0.0
 30
0.0
  9
$UCSXDIR
 10
1.0
 20
0.0
 30
0.0
  9
$UCSYDIR
 10
0.0
 20
1.0
 30
0.0
  9
$UCSORTHOREF
  2

  9
$UCSORTHOVIEW
 70
     0
  9
$UCSORGTOP
 10
0.0
 20
0.0
 30
0.0
  9
$UCSORGBOTTOM
 10
0.0
 20
0.0
 30
0.0
  9
$UCSORGLEFT
 10
0.0
 20
0.0
 30
0.0
  9
$UCSORGRIGHT
 10
0.0
 20
0.0
 30
0.0
  9
$UCSORGFRONT
 10
0.0
 20
0.0
 30
0.0
  9
$UCSORGBACK
 10
0.0
 20
0.0
 30
0.0
  9
$PUCSBASE
  2

  9
$PUCSNAME
  2

  9
$PUCSORG
 10
0.0
 20
0.0
 30
0.0
  9
$PUCSXDIR
 10
1.0
 20
0.0
 30
0.0
  9
$PUCSYDIR
 10
0.0
 20
1.0
 30
0.0
  9
$PUCSORTHOREF
  2

  9
$PUCSORTHOVIEW
 70
     0
  9
$PUCSORGTOP
 10
0.0
 20
0.0
 30
0.0
  9
$PUCSORGBOTTOM
 10
0.0
 20
0.0
 30
0.0
  9
$PUCSORGLEFT
 10
0.0
 20
0.0
 30
0.0
  9
$PUCSORGRIGHT
 10
0.0
 20
0.0
 30
0.0
  9
$PUCSORGFRONT
 10
0.0
 20
0.0
 30
0.0
  9
$PUCSORGBACK
 10
0.0
 20
0.0
 30
0.0
  9
$USERI1
 70
     0
  9
$USERI2
 70
     0
  9
$USERI3
 70
     0
  9
$USERI4
 70
     0
  9
$USERI5
 70
     0
  9
$USERR1
 40
0.0
  9
$USERR2
 40
0.0
  9
$USERR3
 40
0.0
  9
$USERR4
 40
0.0
  9
$USERR5
 40
0.0
  9
$WORLDVIEW
 70
     1
  9
$SHADEDGE
 70
     3
  9
$SHADEDIF
 70
    70
  9
$TILEMODE
 70
     1
  9
$MAXACTVP
 70
    64
  9
$PINSBASE
 10
0.0
 20
0.0
 30
0.0
  9
$PLIMCHECK
 70
     0
  9
$PEXTMIN
 10
1.000000000000000E+20
 20
1.000000000000000E+20
 30
1.000000000000000E+20
  9
$PEXTMAX
 10
-1.000000000000000E+20
 20
-1.000000000000000E+20
 30
-1.000000000000000E+20
  9
$PLIMMIN
 10
0.0
 20
0.0
  9
$PLIMMAX
 10
420.0
 20
297.0
  9
$UNITMODE
 70
     0
  9
$VISRETAIN
 70
     1
  9
$PLINEGEN
 70
     0
  9
$PSLTSCALE
 70
     1
  9
$TREEDEPTH
 70
  3020
  9
$CMLSTYLE
  2
Standard
  9
$CMLJUST
 70
     0
  9
$CMLSCALE
 40
20.0
  9
$PROXYGRAPHICS
 70
     1
  9
$MEASUREMENT
 70
     1
  9
$CELWEIGHT
370
    -1
  9
$ENDCAPS
280
     0
  9
$JOINSTYLE
280
     0
  9
$LWDISPLAY
290
     0
  9
$INSUNITS
 70
     4
  9
$HYPERLINKBASE
  1

  9
$STYLESHEET
  1
sanindusa.ctb
  9
$XEDIT
290
     1
  9
$CEPSNTYPE
380
     0
  9
$PSTYLEMODE
290
     1
  9
$FINGERPRINTGUID
  2
{0155D0B8-25E9-4090-89B8-155EC09193BD}
  9
$VERSIONGUID
  2
{6EB2C519-82B8-4A1D-BCE7-6980E9EC415F}
  9
$EXTNAMES
290
     1
  9
$PSVPSCALE
 40
0.0
  9
$OLESTARTUP
290
     0
  0
ENDSEC
  0
SECTION
  2
CLASSES
  0
CLASS
  1
ACDBDICTIONARYWDFLT
  2
AcDbDictionaryWithDefault
  3
ObjectDBX Classes
 90
        0
280
     0
281
     0
  0
CLASS
  1
ACDBPLACEHOLDER
  2
AcDbPlaceHolder
  3
ObjectDBX Classes
 90
        0
280
     0
281
     0
  0
CLASS
  1
LAYOUT
  2
AcDbLayout
  3
ObjectDBX Classes
 90
        0
280
     0
281
     0
  0
CLASS
  1
DICTIONARYVAR
  2
AcDbDictionaryVar
  3
ObjectDBX Classes
 90
        0
280
     0
281
     0
  0
CLASS
  1
DIMASSOC
  2
AcDbDimAssoc
  3
"AcDbDimAssoc|Product Desc:     AcDim ARX App For Dimension|Company:          Autodesk, Inc.|WEB Address:      www.autodesk.com"
 90
        0
280
     0
281
     0
  0
CLASS
  1
TABLESTYLE
  2
AcDbTableStyle
  3
ObjectDBX Classes
 90
     2047
280
     0
281
     0
  0
CLASS
  1
SORTENTSTABLE
  2
AcDbSortentsTable
  3
ObjectDBX Classes
 90
        0
280
     0
281
     0
  0
ENDSEC
  0
SECTION
  2
TABLES
  0
TABLE
  2
VPORT
  5
8
330
0
100
AcDbSymbolTable
 70
    11
  0
VPORT
  5
18BC
330
8
100
AcDbSymbolTableRecord
100
AcDbViewportTableRecord
  2
*Active
 70
     0
 10
0.0
 20
0.0
 11
1.0
 21
1.0
 12
4420.864115329816
 22
2367.812931251966
 13
0.0
 23
0.0
 14
10.0
 24
10.0
 15
10.0
 25
10.0
 16
0.0
 26
0.0
 36
1.0
 17
0.0
 27
0.0
 37
0.0
 40
1.197490396736769
 41
1.602030456852791
 42
50.0
 43
0.0
 44
0.0
 50
0.0
 51
0.0
 71
     0
 72
   100
 73
     1
 74
     2
 75
     0
 76
     0
 77
     0
 78
     0
281
     0
 65
     1
110
0.0
120
0.0
130
0.0
111
1.0
121
0.0
131
0.0
112
0.0
122
1.0
132
0.0
 79
     0
146
0.0
  0
ENDTAB
  0
TABLE
  2
LTYPE
  5
5
330
0
100
AcDbSymbolTable
 70
     5
  0
LTYPE
  5
14
330
5
100
AcDbSymbolTableRecord
100
AcDbLinetypeTableRecord
  2
ByBlock
 70
     0
  3

 72
    65
 73
     0
 40
0.0
  0
LTYPE
  5
15
330
5
100
AcDbSymbolTableRecord
100
AcDbLinetypeTableRecord
  2
ByLayer
 70
     0
  3

 72
    65
 73
     0
 40
0.0
  0
LTYPE
  5
16
330
5
100
AcDbSymbolTableRecord
100
AcDbLinetypeTableRecord
  2
Continuous
 70
     0
  3
Solid line
 72
    65
 73
     0
 40
0.0
  0
LTYPE
  5
2D
330
5
100
AcDbSymbolTableRecord
100
AcDbLinetypeTableRecord
  2
DASHDOT
 70
     0
  3
Dash dot __ . __ . __ . __ . __ . __ . __ . __
 72
    65
 73
     4
 40
25.4
 49
12.7
 74
     0
 49
-6.349999999999999
 74
     0
 49
0.0
 74
     0
 49
-6.349999999999999
 74
     0
  0
LTYPE
  5
2E
330
5
100
AcDbSymbolTableRecord
100
AcDbLinetypeTableRecord
  2
HIDDEN
 70
     0
  3
Hidden __ __ __ __ __ __ __ __ __ __ __ __ __ _
 72
    65
 73
     2
 40
9.524999999999998
 49
6.349999999999999
 74
     0
 49
-3.174999999999999
 74
     0
  0
LTYPE
  5
C75
330
5
100
AcDbSymbolTableRecord
100
AcDbLinetypeTableRecord
  2
AM_ISO02W050
 70
     0
  3
__ __ __ __ __ __ __ __ __ __ __ __ __ __ __
 72
    65
 73
     2
 40
7.5
 49
6.0
 74
     0
 49
-1.5
 74
     0
  0
LTYPE
  5
C76
330
5
100
AcDbSymbolTableRecord
100
AcDbLinetypeTableRecord
  2
AM_ISO08W050
 70
     0
  3
____ . ____ . ____ . ____ . ____ . ____ . ____
 72
    65
 73
     4
 40
18.0
 49
12.0
 74
     0
 49
-1.5
 74
     0
 49
3.0
 74
     0
 49
-1.5
 74
     0
  0
ENDTAB
  0
TABLE
  2
LAYER
  5
2
102
{ACAD_XDICTIONARY
360
1051
102
}
330
0
100
AcDbSymbolTable
 70
    17
  0
LAYER
  5
10
330
2
100
AcDbSymbolTableRecord
100
AcDbLayerTableRecord
  2
0
 70
     0
 62
     7
  6
Continuous
370
    -3
390
F
  0
LAYER
  5
2F
330
2
100
AcDbSymbolTableRecord
100
AcDbLayerTableRecord
  2
1
 70
     0
 62
     1
  6
Continuous
370
    -3
390
F
  0
LAYER
  5
30
330
2
100
AcDbSymbolTableRecord
100
AcDbLayerTableRecord
  2
2
 70
     0
 62
     2
  6
Continuous
370
    -3
390
F
  0
LAYER
  5
31
330
2
100
AcDbSymbolTableRecord
100
AcDbLayerTableRecord
  2
3
 70
     0
 62
     3
  6
Continuous
370
    -3
390
F
  0
LAYER
  5
32
330
2
100
AcDbSymbolTableRecord
100
AcDbLayerTableRecord
  2
4
 70
     0
 62
     4
  6
Continuous
370
    -3
390
F
  0
LAYER
  5
33
330
2
100
AcDbSymbolTableRecord
100
AcDbLayerTableRecord
  2
5
 70
     0
 62
     5
  6
Continuous
370
    -3
390
F
  0
LAYER
  5
34
330
2
100
AcDbSymbolTableRecord
100
AcDbLayerTableRecord
  2
6
 70
     0
 62
     6
  6
Continuous
370
    -3
390
F
  0
LAYER
  5
35
330
2
100
AcDbSymbolTableRecord
100
AcDbLayerTableRecord
  2
7
 70
     0
 62
     7
  6
Continuous
370
    -3
390
F
  0
LAYER
  5
36
330
2
100
AcDbSymbolTableRecord
100
AcDbLayerTableRecord
  2
cen
 70
     0
 62
     7
  6
DASHDOT
370
    -3
390
F
  0
LAYER
  5
37
330
2
100
AcDbSymbolTableRecord
100
AcDbLayerTableRecord
  2
hid
 70
     0
 62
     7
  6
HIDDEN
370
    -3
390
F
  0
LAYER
  5
5D6
330
2
100
AcDbSymbolTableRecord
100
AcDbLayerTableRecord
  2
hatch
 70
     0
 62
     9
  6
Continuous
370
    -3
390
F
  0
LAYER
  5
8AF
330
2
100
AcDbSymbolTableRecord
100
AcDbLayerTableRecord
  2
9
 70
     0
 62
     9
  6
Continuous
370
    -3
390
F
  0
LAYER
  5
8F8
330
2
100
AcDbSymbolTableRecord
100
AcDbLayerTableRecord
  2
leg fin
 70
     0
 62
     9
  6
Continuous
370
    -3
390
F
  0
LAYER
  5
91D
330
2
100
AcDbSymbolTableRecord
100
AcDbLayerTableRecord
  2
cotas
 70
     0
 62
     1
  6
Continuous
370
    -3
390
F
  0
LAYER
  5
92F
330
2
100
AcDbSymbolTableRecord
100
AcDbLayerTableRecord
  2
Defpoints
 70
     0
 62
     7
  6
Continuous
290
     0
370
    -3
390
F
  0
LAYER
  5
C7B
330
2
100
AcDbSymbolTableRecord
100
AcDbLayerTableRecord
  2
SANINDUSA
 70
     0
 62
     3
  6
Continuous
370
    -3
390
F
  0
LAYER
  5
1060
330
2
100
AcDbSymbolTableRecord
100
AcDbLayerTableRecord
  2
hid1
 70
     0
 62
     9
  6
HIDDEN
370
    -3
390
F
1001
AcAecLayerStandard
1000

1000

  0
ENDTAB
  0
TABLE
  2
STYLE
  5
3
330
0
100
AcDbSymbolTable
 70
     5
  0
STYLE
  5
11
330
3
100
AcDbSymbolTableRecord
100
AcDbTextStyleTableRecord
  2
Standard
 70
     0
 40
0.0
 41
1.0
 50
0.0
 71
     0
 42
2.5
  3
Avgardn.ttf
  4

1001
ACAD
1000
AvantGarde Bk BT
1071
       34
  0
STYLE
  5
2C
330
3
100
AcDbSymbolTableRecord
100
AcDbTextStyleTableRecord
  2

 70
     1
 40
0.0
 41
1.0
 50
0.0
 71
     0
 42
2.5
  3
ltypeshp.shx
  4

  0
STYLE
  5
91F
330
3
100
AcDbSymbolTableRecord
100
AcDbTextStyleTableRecord
  2
SANINDUSA
 70
     0
 40
0.0
 41
1.0
 50
0.0
 71
     0
 42
2.5
  3
verdana.TTF
  4

1001
ACAD
1000
Verdana
1071
       34
  0
STYLE
  5
C7C
330
3
100
AcDbSymbolTableRecord
100
AcDbTextStyleTableRecord
  2
futura
 70
     0
 40
0.0
 41
1.0
 50
0.0
 71
     0
 42
2.5
  3
ZURCHN.TTF
  4

1001
ACAD
1000
Zurich BT
1071
       34
  0
ENDTAB
  0
TABLE
  2
VIEW
  5
6
330
0
100
AcDbSymbolTable
 70
     0
  0
ENDTAB
  0
TABLE
  2
UCS
  5
7
330
0
100
AcDbSymbolTable
 70
     0
  0
ENDTAB
  0
TABLE
  2
APPID
  5
9
330
0
100
AcDbSymbolTable
 70
    11
  0
APPID
  5
12
330
9
100
AcDbSymbolTableRecord
100
AcDbRegAppTableRecord
  2
ACAD
 70
     0
  0
APPID
  5
3A
330
9
100
AcDbSymbolTableRecord
100
AcDbRegAppTableRecord
  2
DCO15
 70
     0
  0
APPID
  5
EEE
330
9
100
AcDbSymbolTableRecord
100
AcDbRegAppTableRecord
  2
ACAD_DSTYLE_DIMTEXT_FILL
 70
     0
  0
APPID
  5
EEF
330
9
100
AcDbSymbolTableRecord
100
AcDbRegAppTableRecord
  2
ACAD_DSTYLE_DIMEXT_LENGTH
 70
     0
  0
APPID
  5
EF0
330
9
100
AcDbSymbolTableRecord
100
AcDbRegAppTableRecord
  2
ACAD_DSTYLE_DIMEXT_ENABLED
 70
     0
  0
APPID
  5
EF1
330
9
100
AcDbSymbolTableRecord
100
AcDbRegAppTableRecord
  2
ACAD_DSTYLE_DIM_LINETYPE
 70
     0
  0
APPID
  5
EF2
330
9
100
AcDbSymbolTableRecord
100
AcDbRegAppTableRecord
  2
ACAD_DSTYLE_DIM_EXT1_LINETYPE
 70
     0
  0
APPID
  5
EF3
330
9
100
AcDbSymbolTableRecord
100
AcDbRegAppTableRecord
  2
ACAD_DSTYLE_DIM_EXT2_LINETYPE
 70
     0
  0
APPID
  5
FAF
330
9
100
AcDbSymbolTableRecord
100
AcDbRegAppTableRecord
  2
ACAD_DSTYLE_DIMJOGGED_JOGANGLE_SYMBOL
 70
     0
  0
APPID
  5
1013
330
9
100
AcDbSymbolTableRecord
100
AcDbRegAppTableRecord
  2
ACAD_DSTYLE_DIMARC_LENGTH_SYMBOL
 70
     0
  0
APPID
  5
1061
330
9
100
AcDbSymbolTableRecord
100
AcDbRegAppTableRecord
  2
AcAecLayerStandard
 70
     0
  0
ENDTAB
  0
TABLE
  2
DIMSTYLE
  5
A
330
0
100
AcDbSymbolTable
 70
     4
100
AcDbDimStyleTable
 71
     1
340
921
  0
DIMSTYLE
105
45
330
A
100
AcDbSymbolTableRecord
100
AcDbDimStyleTableRecord
  2
STANDARD
 70
     0
289
     0
340
11
  0
DIMSTYLE
105
921
330
A
100
AcDbSymbolTableRecord
100
AcDbDimStyleTableRecord
  2
SANINDUSA
 70
     0
 41
2.0
 42
1.0
 43
1.0
 44
1.0
 73
     0
 74
     0
 77
     1
 78
     8
140
2.0
141
0.0
143
0.03937007874016
147
1.0
171
     3
172
     1
176
   256
177
   256
178
   256
179
     1
271
     1
272
     1
274
     3
278
    44
283
     0
284
     8
340
91F
371
    -1
372
    -1
1001
ACAD_DSTYLE_DIMEXT_LENGTH
1070
   378
1040
1.0
1001
ACAD_DSTYLE_DIMEXT_ENABLED
1070
   383
1070
     0
1001
ACAD_DSTYLE_DIMARC_LENGTH_SYMBOL
1070
   379
1070
     0
1001
ACAD_DSTYLE_DIMJOGGED_JOGANGLE_SYMBOL
1070
   384
1040
1.570796326794896
  0
DIMSTYLE
105
C7D
330
A
100
AcDbSymbolTableRecord
100
AcDbDimStyleTableRecord
  2
AM_ISO
 70
     0
  4
"
 41
2.5
 42
1.0
 43
10.0
 44
1.0
 47
0.1
 48
0.1
 73
     0
 74
     0
 77
     1
 78
     8
 79
     2
140
3.5
141
0.0
143
0.0393701
146
0.71
147
1.5
172
     1
176
   256
177
   256
178
     2
271
     2
272
     3
274
     4
283
     0
284
     8
340
11
371
    -1
372
    -1
  0
ENDTAB
  0
TABLE
  2
BLOCK_RECORD
  5
1
330
0
100
AcDbSymbolTable
 70
    61
  0
BLOCK_RECORD
  5
1F
330
1
100
AcDbSymbolTableRecord
100
AcDbBlockTableRecord
  2
*Model_Space
340
22
  0
BLOCK_RECORD
  5
1B
330
1
100
AcDbSymbolTableRecord
100
AcDbBlockTableRecord
  2
*Paper_Space
340
1E
  0
BLOCK_RECORD
  5
23
330
1
100
AcDbSymbolTableRecord
100
AcDbBlockTableRecord
  2
*Paper_Space0
340
26
  0
BLOCK_RECORD
  5
919
330
1
100
AcDbSymbolTableRecord
100
AcDbBlockTableRecord
  2
_DotSmall
340
0
  0
BLOCK_RECORD
  5
922
330
1
100
AcDbSymbolTableRecord
100
AcDbBlockTableRecord
  2
base para cotas
340
0
310
2800000020000000200000000100080000000000000400000000000000000000000000000000000000000000000080000080000000808000800000008000800080800000C0C0C000C0DCC000F0CAA6000020400000206000002080000020A0000020C0000020E00000400000004020000040400000406000004080000040A0
310
000040C0000040E00000600000006020000060400000606000006080000060A0000060C0000060E00000800000008020000080400000806000008080000080A0000080C0000080E00000A0000000A0200000A0400000A0600000A0800000A0A00000A0C00000A0E00000C0000000C0200000C0400000C0600000C0800000C0
310
A00000C0C00000C0E00000E0000000E0200000E0400000E0600000E0800000E0A00000E0C00000E0E00040000000400020004000400040006000400080004000A0004000C0004000E00040200000402020004020400040206000402080004020A0004020C0004020E000404000004040200040404000404060004040800040
310
40A0004040C0004040E00040600000406020004060400040606000406080004060A0004060C0004060E00040800000408020004080400040806000408080004080A0004080C0004080E00040A0000040A0200040A0400040A0600040A0800040A0A00040A0C00040A0E00040C0000040C0200040C0400040C0600040C08000
310
40C0A00040C0C00040C0E00040E0000040E0200040E0400040E0600040E0800040E0A00040E0C00040E0E00080000000800020008000400080006000800080008000A0008000C0008000E00080200000802020008020400080206000802080008020A0008020C0008020E00080400000804020008040400080406000804080
310
008040A0008040C0008040E00080600000806020008060400080606000806080008060A0008060C0008060E00080800000808020008080400080806000808080008080A0008080C0008080E00080A0000080A0200080A0400080A0600080A0800080A0A00080A0C00080A0E00080C0000080C0200080C0400080C0600080C0
310
800080C0A00080C0C00080C0E00080E0000080E0200080E0400080E0600080E0800080E0A00080E0C00080E0E000C0000000C0002000C0004000C0006000C0008000C000A000C000C000C000E000C0200000C0202000C0204000C0206000C0208000C020A000C020C000C020E000C0400000C0402000C0404000C0406000C0
310
408000C040A000C040C000C040E000C0600000C0602000C0604000C0606000C0608000C060A000C060C000C060E000C0800000C0802000C0804000C0806000C0808000C080A000C080C000C080E000C0A00000C0A02000C0A04000C0A06000C0A08000C0A0A000C0A0C000C0A0E000C0C00000C0C02000C0C04000C0C06000
310
C0C08000C0C0A000F0FBFF00A4A0A000808080000000FF0000FF000000FFFF00FF000000FF00FF00FFFF0000FFFFFF00A4A4A4A4A4A4A4A4A4A4A4A4A4A4A4A4A4A4A4A4A4A4A4A4A4A4A4A4A4A4A4A4A4A4A4A4A4A4A4A4A4A4A4A4A4A4A4A4A4A4A4A4A4A4A4A4A4A4A4A4A4A4A4A4A4A4A4A4A4A4A4A4A4A4A4A4A4A4A4
310
A4A4A4A4A4A4A4A4A4A4A4A4A4A4A4A4A4A4A4A4A4A4A4A4A4A4A4A4A4A4A4A4A4A4A4A4A4A4A4A4A4A4A4A4A4A4A4A4A4A4A4A4A4A4A4A4A4A4A4A4A4A4A4A4A4A4A4A4A4A4A4A4A4A4A4A4A4A4A4A4A4A4A4A4A4A4A4A4A4A4A4A4A4A4A4A4A4A4A4A4A4A4A4A4A4A4A4A4A4A4A4A4A4A4A4A4A4A4A4A4A4A4A4A4A4A4A4
310
A4A4A4A4A4A4A4A4A4A4A4A4A4A4A4A4A4A4A4A4A4A4A4A4A4A4A4A4A4A4A4A4A4A4A4A4A4A4A4A4A4A4A4A4A4A4A4A4A4A4A4A4A4A4A4A4A4A4A4A4A4A4A4A4A4A4A4A4A4A4A4A4A4A4A4A4A4A4A4A4A4A4A4A4A4A4A4A4A4A4A4A4A4A4A4A4A4A4A4A4A4A4A4A4A4A4A4A4A4A4A4A4A4A4A4A4A4A4A4A4A4A4A4A4A4A4A4
310
A4A4A4A4A4A4A4A4A4A4A4A4A4A4A4A4A4A4A4A4A4A4A4A4A4A4A4A4A4A4A4A4A4A4A4A4A4A4A4A4A4A4A4A4A4A4A4A4A4A4A4A4A4A4A4A4A4A4A4A4A4A4A4A4A4A4A4A4A4A4A4A4A4A4A4A4A4A4A4A4A4A4A4A4A4A4A4A4A4A4A4A4A4A4A4A4A4A4A4A4A4A4A4A4A4A4A4A4A4A4A4A4A4A4A4A4F9F9F9F9F9F9F9F9F9F9F9
310
F9F9F9F9F9F9F9F9F9F9F9F9F9F9F9F9F9F9F9A4A4F9F9F9F9F9F9F9F9F9F9F9F9F9F9F9F9F9F9F9F9F9F9F9F9F9F9F9F9F9F9A4A4F9F9F9F9F9F9F9F9F9F9F9F9F9F9F9F9F9F9F9F9F9F9F9F9F9F9F9F9F9F9A4A4F9A4A4A4A4A4A4A4A4A4A4A4A4A4A4A4A4A4A4A4A4A4A4A4A4A4A4A4A4F9A4A4A4A4A4A4A4A4A4A4A4A4
310
A4A4A4A4A4A4A4A4A4A4A4A4A4A4A4A4A4A4A4A4A4A4A4A4A4A4A4A4A4A4A4A4A4A4A4A4A4A4A4A4A4A4A4A4A4A4A4A4A4A4A4A4A4A4A4A4A4A4A4A4A4A4A4A4A4A4A4A4A4A4A4A4A4A4A4A4A4A4A4A4A4A4A4A4A4A4A4A4A4A4A4A4A4A4A4A4A4A4A4A4A4A4A4A4A4A4A4A4A4A4A4A4A4A4A4A4A4A4A4A4A4A4A4A4A4A4A4
310
A4A4A4A4A4A4A4A4A4A4A4A4A4A4A4A4A4A4A4A4A4A4A4A4A4A4A4A4A4A4A4A4A4A4A4A4A4A4A4A4A4A4A4A4A4A4A4A4A4A4A4A4A4A4A4A4A4A4A4A4A4A4A4A4A4A4A4A4A4A4A4A4A4A4A4A4A4A4A4A4A4A4A4A4A4A4A4A4A4A4A4A4A4A4A4A4A4A4A4A4A4A4A4A4A4A4A4A4A4A4A4A4A4A4A4A4A4A4A4A4A4A4A4A4A4A4A4
310
A4A4A4A4A4A4A4A4A4A4A4A4A4A4A4A4A4A4A4A4A4A4A4A4A4A4A4A4A4A4A4A4A4A4A4A4A4A4A4A4A4A4A4A4A4A4A4A4A4A4A4A4A4A4A4A4A4A4A4A4A4A4A4A4A4A4A4A4A4A4A4A4A4A4A4A4A4A4A4A4A4A4A4A4A4A4A4A4A4A4A4A4A4A4A4A4A4A4A4A4A4A4A4A4A4A4A4A4A4A4A4A4A4A4A4A4A4A4A4A4A4A4A4A4A4A4A4
310
A4A4A4A4A4A4A4A4A4A4A4A4A4A4A4A4A4A4A4A4A4A4A4A4A4A4A4A4A4A4A4A4A4A4A4A4A4A4A4A4A4A4A4A4A4A4A4A4A4A4A4A4A4A4A4A4
1001
ACAD
1000
DesignCenter Data
1002
{
1070
     1
1070
     4
1002
}
  0
BLOCK_RECORD
  5
AA8
330
1
100
AcDbSymbolTableRecord
100
AcDbBlockTableRecord
  2
_CLOSED
340
0
  0
BLOCK_RECORD
  5
B79
330
1
100
AcDbSymbolTableRecord
100
AcDbBlockTableRecord
  2
nota revisoes
340
0
1001
ACAD
1000
DesignCenter Data
1002
{
1070
     1
1070
     4
1002
}
  0
BLOCK_RECORD
  5
B8E
330
1
100
AcDbSymbolTableRecord
100
AcDbBlockTableRecord
  2
a3l
340
0
1001
ACAD
1000
DesignCenter Data
1002
{
1070
     1
1070
     4
1002
}
  0
BLOCK_RECORD
  5
B9E
330
1
100
AcDbSymbolTableRecord
100
AcDbBlockTableRecord
  2
legenda desenvolvimento
340
0
1001
ACAD
1000
DesignCenter Data
1002
{
1070
     1
1070
     4
1002
}
  0
BLOCK_RECORD
  5
1070
330
1
100
AcDbSymbolTableRecord
100
AcDbBlockTableRecord
  2
SW_CENTERMARKSYMBOL_3
340
0
102
{BLKREFS
331
1301
102
}
  0
BLOCK_RECORD
  5
107B
330
1
100
AcDbSymbolTableRecord
100
AcDbBlockTableRecord
  2
*D8
340
0
  0
BLOCK_RECORD
  5
1087
330
1
100
AcDbSymbolTableRecord
100
AcDbBlockTableRecord
  2
*D9
340
0
  0
BLOCK_RECORD
  5
1095
330
1
100
AcDbSymbolTableRecord
100
AcDbBlockTableRecord
  2
*D10
340
0
  0
BLOCK_RECORD
  5
10A2
330
1
100
AcDbSymbolTableRecord
100
AcDbBlockTableRecord
  2
*D11
340
0
  0
BLOCK_RECORD
  5
10AE
330
1
100
AcDbSymbolTableRecord
100
AcDbBlockTableRecord
  2
*D12
340
0
  0
BLOCK_RECORD
  5
10BA
330
1
100
AcDbSymbolTableRecord
100
AcDbBlockTableRecord
  2
*D13
340
0
  0
BLOCK_RECORD
  5
10C8
330
1
100
AcDbSymbolTableRecord
100
AcDbBlockTableRecord
  2
*D14
340
0
  0
BLOCK_RECORD
  5
10D4
330
1
100
AcDbSymbolTableRecord
100
AcDbBlockTableRecord
  2
*D15
340
0
  0
BLOCK_RECORD
  5
10E0
330
1
100
AcDbSymbolTableRecord
100
AcDbBlockTableRecord
  2
*D16
340
0
  0
BLOCK_RECORD
  5
10EC
330
1
100
AcDbSymbolTableRecord
100
AcDbBlockTableRecord
  2
*D17
340
0
  0
BLOCK_RECORD
  5
10F8
330
1
100
AcDbSymbolTableRecord
100
AcDbBlockTableRecord
  2
*D18
340
0
  0
BLOCK_RECORD
  5
1104
330
1
100
AcDbSymbolTableRecord
100
AcDbBlockTableRecord
  2
*D19
340
0
  0
BLOCK_RECORD
  5
1110
330
1
100
AcDbSymbolTableRecord
100
AcDbBlockTableRecord
  2
*D20
340
0
  0
BLOCK_RECORD
  5
111D
330
1
100
AcDbSymbolTableRecord
100
AcDbBlockTableRecord
  2
*D21
340
0
  0
BLOCK_RECORD
  5
15E7
330
1
100
AcDbSymbolTableRecord
100
AcDbBlockTableRecord
  2
*D23
340
0
  0
BLOCK_RECORD
  5
15F3
330
1
100
AcDbSymbolTableRecord
100
AcDbBlockTableRecord
  2
*D24
340
0
  0
BLOCK_RECORD
  5
15FF
330
1
100
AcDbSymbolTableRecord
100
AcDbBlockTableRecord
  2
*D25
340
0
  0
BLOCK_RECORD
  5
160C
330
1
100
AcDbSymbolTableRecord
100
AcDbBlockTableRecord
  2
*D26
340
0
  0
BLOCK_RECORD
  5
1618
330
1
100
AcDbSymbolTableRecord
100
AcDbBlockTableRecord
  2
*D27
340
0
  0
BLOCK_RECORD
  5
1624
330
1
100
AcDbSymbolTableRecord
100
AcDbBlockTableRecord
  2
*D28
340
0
  0
BLOCK_RECORD
  5
1639
330
1
100
AcDbSymbolTableRecord
100
AcDbBlockTableRecord
  2
*D29
340
0
  0
BLOCK_RECORD
  5
1645
330
1
100
AcDbSymbolTableRecord
100
AcDbBlockTableRecord
  2
*D30
340
0
  0
BLOCK_RECORD
  5
1651
330
1
100
AcDbSymbolTableRecord
100
AcDbBlockTableRecord
  2
*D31
340
0
  0
BLOCK_RECORD
  5
1670
330
1
100
AcDbSymbolTableRecord
100
AcDbBlockTableRecord
  2
*D32
340
0
  0
BLOCK_RECORD
  5
167C
330
1
100
AcDbSymbolTableRecord
100
AcDbBlockTableRecord
  2
*D33
340
0
  0
BLOCK_RECORD
  5
1688
330
1
100
AcDbSymbolTableRecord
100
AcDbBlockTableRecord
  2
*D34
340
0
  0
BLOCK_RECORD
  5
1694
330
1
100
AcDbSymbolTableRecord
100
AcDbBlockTableRecord
  2
*D35
340
0
  0
BLOCK_RECORD
  5
16A1
330
1
100
AcDbSymbolTableRecord
100
AcDbBlockTableRecord
  2
*D36
340
0
  0
BLOCK_RECORD
  5
16AF
330
1
100
AcDbSymbolTableRecord
100
AcDbBlockTableRecord
  2
*D37
340
0
  0
BLOCK_RECORD
  5
16BB
330
1
100
AcDbSymbolTableRecord
100
AcDbBlockTableRecord
  2
*D38
340
0
  0
BLOCK_RECORD
  5
16C7
330
1
100
AcDbSymbolTableRecord
100
AcDbBlockTableRecord
  2
*D39
340
0
  0
BLOCK_RECORD
  5
16D3
330
1
100
AcDbSymbolTableRecord
100
AcDbBlockTableRecord
  2
*D40
340
0
  0
BLOCK_RECORD
  5
16DF
330
1
100
AcDbSymbolTableRecord
100
AcDbBlockTableRecord
  2
*D41
340
0
  0
BLOCK_RECORD
  5
16EB
330
1
100
AcDbSymbolTableRecord
100
AcDbBlockTableRecord
  2
*D42
340
0
  0
BLOCK_RECORD
  5
16F7
330
1
100
AcDbSymbolTableRecord
100
AcDbBlockTableRecord
  2
*D43
340
0
  0
BLOCK_RECORD
  5
1700
330
1
100
AcDbSymbolTableRecord
100
AcDbBlockTableRecord
  2
*D44
340
0
  0
BLOCK_RECORD
  5
170C
330
1
100
AcDbSymbolTableRecord
100
AcDbBlockTableRecord
  2
*D45
340
0
  0
BLOCK_RECORD
  5
1718
330
1
100
AcDbSymbolTableRecord
100
AcDbBlockTableRecord
  2
*D46
340
0
  0
BLOCK_RECORD
  5
1720
330
1
100
AcDbSymbolTableRecord
100
AcDbBlockTableRecord
  2
*D47
340
0
  0
BLOCK_RECORD
  5
1811
330
1
100
AcDbSymbolTableRecord
100
AcDbBlockTableRecord
  2
*D49
340
0
  0
BLOCK_RECORD
  5
181D
330
1
100
AcDbSymbolTableRecord
100
AcDbBlockTableRecord
  2
*D50
340
0
  0
BLOCK_RECORD
  5
1829
330
1
100
AcDbSymbolTableRecord
100
AcDbBlockTableRecord
  2
*D51
340
0
  0
BLOCK_RECORD
  5
1835
330
1
100
AcDbSymbolTableRecord
100
AcDbBlockTableRecord
  2
*D52
340
0
  0
BLOCK_RECORD
  5
1841
330
1
100
AcDbSymbolTableRecord
100
AcDbBlockTableRecord
  2
*D53
340
0
  0
BLOCK_RECORD
  5
184D
330
1
100
AcDbSymbolTableRecord
100
AcDbBlockTableRecord
  2
*D54
340
0
  0
BLOCK_RECORD
  5
1859
330
1
100
AcDbSymbolTableRecord
100
AcDbBlockTableRecord
  2
*D55
340
0
  0
BLOCK_RECORD
  5
1862
330
1
100
AcDbSymbolTableRecord
100
AcDbBlockTableRecord
  2
*D56
340
0
  0
BLOCK_RECORD
  5
186E
330
1
100
AcDbSymbolTableRecord
100
AcDbBlockTableRecord
  2
*D57
340
0
  0
BLOCK_RECORD
  5
187A
330
1
100
AcDbSymbolTableRecord
100
AcDbBlockTableRecord
  2
*D58
340
0
  0
BLOCK_RECORD
  5
1882
330
1
100
AcDbSymbolTableRecord
100
AcDbBlockTableRecord
  2
*D59
340
0
  0
ENDTAB
  0
ENDSEC
  0
SECTION
  2
BLOCKS
  0
BLOCK
  5
20
330
1F
100
AcDbEntity
  8
0
100
AcDbBlockBegin
  2
*Model_Space
 70
     0
 10
0.0
 20
0.0
 30
0.0
  3
*Model_Space
  1

  0
ENDBLK
  5
21
330
1F
100
AcDbEntity
  8
0
100
AcDbBlockEnd
  0
BLOCK
  5
1C
330
1B
100
AcDbEntity
 67
     1
  8
0
100
AcDbBlockBegin
  2
*Paper_Space
 70
     0
 10
0.0
 20
0.0
 30
0.0
  3
*Paper_Space
  1

  0
ENDBLK
  5
1D
330
1B
100
AcDbEntity
 67
     1
  8
0
100
AcDbBlockEnd
  0
BLOCK
  5
24
330
23
100
AcDbEntity
 67
     1
  8
0
100
AcDbBlockBegin
  2
*Paper_Space0
 70
     0
 10
0.0
 20
0.0
 30
0.0
  3
*Paper_Space0
  1

  0
ENDBLK
  5
25
330
23
100
AcDbEntity
 67
     1
  8
0
100
AcDbBlockEnd
  0
BLOCK
  5
91B
330
919
100
AcDbEntity
  8
0
100
AcDbBlockBegin
  2
_DotSmall
 70
     0
 10
0.0
 20
0.0
 30
0.0
  3
_DotSmall
  1

  0
LWPOLYLINE
  5
91A
330
919
100
AcDbEntity
  8
0
  6
ByBlock
 62
     0
100
AcDbPolyline
 90
        2
 70
     1
 43
0.5
 10
-0.0625
 20
0.0
 42
1.0
 10
0.0625
 20
0.0
 42
1.0
  0
ENDBLK
  5
91C
330
919
100
AcDbEntity
  8
0
100
AcDbBlockEnd
  0
BLOCK
  5
92A
330
922
100
AcDbEntity
  8
0
100
AcDbBlockBegin
  2
base para cotas
 70
     0
 10
0.0
 20
0.0
 30
0.0
  3
base para cotas
  1

  0
LINE
  5
B36
330
922
100
AcDbEntity
  8
cotas
100
AcDbLine
 10
0.0
 20
-30.0
 30
0.0
 11
327.1260136525398
 21
-30.0
 31
0.0
  0
LINE
  5
B37
330
922
100
AcDbEntity
  8
cotas
100
AcDbLine
 10
0.0
 20
-25.0
 30
0.0
 11
327.1260136525398
 21
-25.0
 31
0.0
  0
LINE
  5
B38
330
922
100
AcDbEntity
  8
cotas
100
AcDbLine
 10
0.0
 20
-20.0
 30
0.0
 11
327.1260136525398
 21
-20.0
 31
0.0
  0
LINE
  5
B39
330
922
100
AcDbEntity
  8
cotas
100
AcDbLine
 10
0.0
 20
-15.0
 30
0.0
 11
327.1260136525398
 21
-15.0
 31
0.0
  0
LINE
  5
B3A
330
922
100
AcDbEntity
  8
cotas
100
AcDbLine
 10
0.0
 20
-10.0
 30
0.0
 11
327.1260136525398
 21
-10.0
 31
0.0
  0
LINE
  5
B3B
330
922
100
AcDbEntity
  8
cotas
100
AcDbLine
 10
0.0
 20
0.0
 30
0.0
 11
0.0
 21
-30.0
 31
0.0
  0
LINE
  5
B3C
330
922
100
AcDbEntity
  8
cotas
100
AcDbLine
 10
327.1260136525398
 20
-30.0
 30
0.0
 11
327.1260136525398
 21
0.0
 31
0.0
  0
ENDBLK
  5
92B
330
922
100
AcDbEntity
  8
0
100
AcDbBlockEnd
  0
BLOCK
  5
AAD
330
AA8
100
AcDbEntity
  8
0
100
AcDbBlockBegin
  2
_CLOSED
 70
     0
 10
0.0
 20
0.0
 30
0.0
  3
_CLOSED
  1

  0
LINE
  5
AA9
330
AA8
100
AcDbEntity
  8
0
100
AcDbLine
 10
-1.0
 20
0.166667
 30
0.0
 11
0.0
 21
0.0
 31
0.0
  0
LINE
  5
AAA
330
AA8
100
AcDbEntity
  8
0
100
AcDbLine
 10
0.0
 20
0.0
 30
0.0
 11
-1.0
 21
-0.166667
 31
0.0
  0
LINE
  5
AAB
330
AA8
100
AcDbEntity
  8
0
100
AcDbLine
 10
-1.0
 20
0.166667
 30
0.0
 11
-1.0
 21
-0.166667
 31
0.0
  0
LINE
  5
AAC
330
AA8
100
AcDbEntity
  8
0
100
AcDbLine
 10
0.0
 20
0.0
 30
0.0
 11
-1.0
 21
0.0
 31
0.0
  0
ENDBLK
  5
AAE
330
AA8
100
AcDbEntity
  8
0
100
AcDbBlockEnd
  0
BLOCK
  5
B7C
330
B79
100
AcDbEntity
  8
0
100
AcDbBlockBegin
  2
nota revisoes
 70
     0
 10
0.0
 20
0.0
 30
0.0
  3
nota revisoes
  1

  0
CIRCLE
  5
B7A
330
B79
100
AcDbEntity
  8
4
100
AcDbCircle
 10
0.0
 20
0.0
 30
0.0
 40
13.69426055101189
  0
TEXT
  5
B7B
330
B79
100
AcDbEntity
  8
4
100
AcDbText
 10
-5.496248358154345
 20
-5.354545554066362
 30
0.0
 40
12.0
  1
1
  7
SANINDUSA
 72
     1
 11
-0.249774214433728
 21
-5.354545554066362
 31
0.0
100
AcDbText
  0
ENDBLK
  5
B7D
330
B79
100
AcDbEntity
  8
0
100
AcDbBlockEnd
  0
BLOCK
  5
B9C
330
B8E
100
AcDbEntity
  8
0
100
AcDbBlockBegin
  2
a3l
 70
     0
 10
0.0
 20
0.0
 30
0.0
  3
a3l
  1

  0
LINE
  5
B8F
330
B8E
100
AcDbEntity
  8
1
100
AcDbLine
 10
-364.2925296599447
 20
-362.1188951399395
 30
0.0
 11
-364.2925296599447
 21
-65.11889513993946
 31
0.0
  0
LINE
  5
B90
330
B8E
100
AcDbEntity
  8
4
100
AcDbLine
 10
-369.2925296599447
 20
-357.1188951399395
 30
0.0
 11
-369.2925296599447
 21
-70.11889513993946
 31
0.0
  0
LINE
  5
B91
330
B8E
100
AcDbEntity
  8
1
100
AcDbLine
 10
-784.2925296599446
 20
-65.11889513993946
 30
0.0
 11
-784.2925296599446
 21
-362.1188951399395
 31
0.0
  0
LINE
  5
B92
330
B8E
100
AcDbEntity
  8
4
100
AcDbLine
 10
-759.2925296599446
 20
-357.1188951399395
 30
0.0
 11
-759.2925296599446
 21
-70.11889513993946
 31
0.0
  0
LINE
  5
B93
330
B8E
100
AcDbEntity
  8
1
100
AcDbLine
 10
-784.2925296599446
 20
-362.1188951399395
 30
0.0
 11
-364.2925296599447
 21
-362.1188951399395
 31
0.0
  0
LINE
  5
B94
330
B8E
100
AcDbEntity
  8
4
100
AcDbLine
 10
-759.2925296599446
 20
-357.1188951399395
 30
0.0
 11
-369.2925296599447
 21
-357.1188951399395
 31
0.0
  0
LINE
  5
B95
330
B8E
100
AcDbEntity
  8
1
100
AcDbLine
 10
-654.2925296599446
 20
-357.1188951399395
 30
0.0
 11
-654.2925296599446
 21
-362.1188951399395
 31
0.0
  0
LINE
  5
B96
330
B8E
100
AcDbEntity
  8
1
100
AcDbLine
 10
-364.2925296599447
 20
-65.11889513993946
 30
0.0
 11
-784.2925296599446
 21
-65.11889513993946
 31
0.0
  0
LINE
  5
B97
330
B8E
100
AcDbEntity
  8
4
100
AcDbLine
 10
-369.2925296599447
 20
-70.11889513993946
 30
0.0
 11
-759.2925296599446
 21
-70.11889513993946
 31
0.0
  0
LINE
  5
B98
330
B8E
100
AcDbEntity
  8
1
100
AcDbLine
 10
-654.2925296599446
 20
-65.11889513993946
 30
0.0
 11
-654.2925296599446
 21
-70.11889513993946
 31
0.0
  0
LINE
  5
B99
330
B8E
100
AcDbEntity
  8
1
100
AcDbLine
 10
-549.2925296599446
 20
-70.11889513993946
 30
0.0
 11
-549.2925296599446
 21
-65.11889513993946
 31
0.0
  0
LINE
  5
B9A
330
B8E
100
AcDbEntity
  8
1
100
AcDbLine
 10
-369.2925296599447
 20
-65.11889513993946
 30
0.0
 11
-364.2925296599447
 21
-65.11889513993946
 31
0.0
  0
LINE
  5
B9B
330
B8E
100
AcDbEntity
  8
1
100
AcDbLine
 10
-549.2925296599446
 20
-357.1188951399395
 30
0.0
 11
-549.2925296599446
 21
-362.1188951399395
 31
0.0
  0
ENDBLK
  5
B9D
330
B8E
100
AcDbEntity
  8
0
100
AcDbBlockEnd
  0
BLOCK
  5
C13
330
B9E
100
AcDbEntity
  8
0
100
AcDbBlockBegin
  2
legenda desenvolvimento
 70
     2
 10
0.0
 20
0.0
 30
0.0
  3
legenda desenvolvimento
  1

  0
ATTDEF
  5
B9F
330
B9E
100
AcDbEntity
  8
1
100
AcDbText
 10
-108.606245802552
 20
55.5
 30
0.0
 40
4.0
  1
XXXXXXXXXXXXXX
 41
0.8
  7
SANINDUSA
 72
     4
 11
-87.5
 21
57.5
 31
0.0
100
AcDbAttributeDefinition
  3
Nome do Produto:
  2
PRODUTO
 70
     0
  0
ATTDEF
  5
BA0
330
B9E
100
AcDbEntity
  8
1
100
AcDbText
 10
-97.9997966101695
 20
41.25
 30
0.0
 40
3.0
  1
XXXXXXXXX
 41
0.8
  7
futura
 72
     4
 11
-87.5
 21
42.75
 31
0.0
100
AcDbAttributeDefinition
  3
Nome da Peça:
  2
PECA
 70
     0
  0
ATTDEF
  5
BA1
330
B9E
100
AcDbEntity
  8
1
100
AcDbText
 10
-133.4422431161853
 20
21.11745296763252
 30
0.0
 40
2.5
  1
X
 41
0.8
  7
SANINDUSA
 72
     4
 11
-132.5
 21
22.36745296763252
 31
0.0
100
AcDbAttributeDefinition
  3
Cod. TESTE:
  2
TESTE
 70
     0
  0
ATTDEF
  5
BA2
330
B9E
100
AcDbEntity
  8
1
100
AcDbText
 10
-124.3844862323707
 20
21.11745296763252
 30
0.0
 40
2.5
  1
XX
 41
0.8
  7
SANINDUSA
 72
     4
 11
-122.5
 21
22.36745296763252
 31
0.0
100
AcDbAttributeDefinition
  3
Cod. Ano:
  2
ANO
 70
     0
  0
ATTDEF
  5
BA3
330
B9E
100
AcDbEntity
  8
1
100
AcDbText
 10
-112.526889953052
 20
21.11745296763252
 30
0.0
 40
2.5
  1
XXX
 41
0.8
  7
SANINDUSA
 72
     4
 11
-109.700160604496
 21
22.36745296763252
 31
0.0
100
AcDbAttributeDefinition
  3
Cod. Sequência:
  2
SEQUENCIA
 70
     0
  0
ATTDEF
  5
BA4
330
B9E
100
AcDbEntity
  8
1
100
AcDbText
 10
-99.35382430979316
 20
21.11745296763252
 30
0.0
 40
2.5
  1
XX
 41
0.8
  7
SANINDUSA
 72
     4
 11
-97.46933807742244
 21
22.36745296763252
 31
0.0
100
AcDbAttributeDefinition
  3
Cod. Tipo:
  2
TIPO
 70
     0
  0
ATTDEF
  5
BA5
330
B9E
100
AcDbEntity
  8
1
100
AcDbText
 10
-87.42035911468438
 20
21.11745296763252
 30
0.0
 40
2.5
  1
XXX
 41
0.8
  7
SANINDUSA
 72
     4
 11
-84.59362976612828
 21
22.36745296763252
 31
0.0
100
AcDbAttributeDefinition
  3
Cod. Produto:
  2
PRODUTO
 70
     0
  0
ATTDEF
  5
BA6
330
B9E
100
AcDbEntity
  8
1
100
AcDbText
 10
-74.62051971917853
 20
21.11745296763252
 30
0.0
 40
2.5
  1
XXX
 41
0.8
  7
SANINDUSA
 72
     4
 11
-71.79379037062244
 21
22.36745296763252
 31
0.0
100
AcDbAttributeDefinition
  3
Cod. Peça:
  2
PECA
 70
     0
  0
ATTDEF
  5
BA7
330
B9E
100
AcDbEntity
  8
1
100
AcDbText
 10
-61.10603446650329
 20
21.11745296763252
 30
0.0
 40
2.5
  1
XX
 41
0.8
  7
SANINDUSA
 72
     4
 11
-59.22154823413257
 21
22.36745296763252
 31
0.0
100
AcDbAttributeDefinition
  3
Cod. Revisão:
  2
REV
 70
     0
  0
ATTDEF
  5
BA8
330
B9E
100
AcDbEntity
  8
1
100
AcDbText
 10
-48.43615325006194
 20
21.11745296763252
 30
0.0
 40
2.5
  1
XX
 41
0.8
  7
SANINDUSA
 72
     4
 11
-46.55166701769121
 21
22.36745296763252
 31
0.0
100
AcDbAttributeDefinition
  3
Cod. Alteração:
  2
ALT
 70
     0
  0
ATTDEF
  5
BA9
330
B9E
100
AcDbEntity
  8
1
100
AcDbText
 10
-35.19086635325722
 20
23.98875083948959
 30
0.0
 40
3.0
  1
1/XXX
 41
0.8
  7
SANINDUSA
 72
     4
 11
-30.0
 21
25.25
 31
0.0
100
AcDbAttributeDefinition
  3
Escala geral:
  2
ESCALA
 70
     0
  0
ATTDEF
  5
BAA
330
B9E
100
AcDbEntity
  8
1
100
AcDbText
 10
-15.65345869711215
 20
23.75
 30
0.0
 40
3.0
  1
XXXXX
 41
0.8
  7
SANINDUSA
 72
     4
 11
-10.0
 21
25.25
 31
0.0
100
AcDbAttributeDefinition
  3
Folha:
  2
FOLHA
 70
     0
  0
ATTDEF
  5
BAB
330
B9E
100
AcDbEntity
  8
1
100
AcDbText
 10
-178.5146998822042
 20
56.9531347542807
 30
0.0
 40
2.0
  1
xx
 41
0.8
  7
SANINDUSA
 72
     4
 11
-177.2123493113513
 21
57.70330265219877
 31
0.0
100
AcDbAttributeDefinition
  3
revisão
  2
REV.
 70
     0
  0
ATTDEF
  5
BAC
330
B9E
100
AcDbEntity
  8
1
100
AcDbText
 10
-172.7849640077129
 20
56.9531347542807
 30
0.0
 40
2.0
  1
xx
 41
0.8
  7
SANINDUSA
 72
     4
 11
-171.48261343686
 21
57.70330265219877
 31
0.0
100
AcDbAttributeDefinition
  3
alteração
  2
ALT.
 70
     0
  0
ATTDEF
  5
BAD
330
B9E
100
AcDbEntity
  8
1
100
AcDbText
 10
-168.007199951307
 20
56.70330265219877
 30
0.0
 40
2.0
  1
xx/xx/xxxx
 41
0.8
  7
SANINDUSA
 11
-168.007199951307
 21
57.70330265219877
 31
0.0
100
AcDbAttributeDefinition
  3
data
  2
DATA
 70
     0
 74
     2
  0
ATTDEF
  5
BAE
330
B9E
100
AcDbEntity
  8
1
100
AcDbText
 10
-168.5396372253371
 20
13.15916722632639
 30
0.0
 40
2.0
  1
XX/XX/XXXX
 41
0.8
  7
SANINDUSA
 72
     4
 11
-161.5099528734231
 21
14.0
 31
0.0
100
AcDbAttributeDefinition
  3
Data projecto
  2
DATA_PROJ
 70
     0
  0
ATTDEF
  5
BAF
330
B9E
100
AcDbEntity
  8
1
100
AcDbText
 10
-150.8658110728766
 20
13.24983210208193
 30
0.0
 40
2.0
  1
xxxxxxxx
 41
0.8
  7
SANINDUSA
 72
     4
 11
-145.6564087894649
 21
14.0
 31
0.0
100
AcDbAttributeDefinition
  3
nome de quem projectou
  2
NOME
 70
     0
  0
ATTDEF
  5
BB0
330
B9E
100
AcDbEntity
  8
1
100
AcDbText
 10
-168.5396372253371
 20
9.159167226326394
 30
0.0
 40
2.0
  1
XX/XX/XXXX
 41
0.8
  7
SANINDUSA
 72
     4
 11
-161.5099528734231
 21
10.0
 31
0.0
100
AcDbAttributeDefinition
  3
Data desenhou
  2
DATA_DES
 70
     0
  0
ATTDEF
  5
BB1
330
B9E
100
AcDbEntity
  8
1
100
AcDbText
 10
-151.516986358303
 20
9.249832102081933
 30
0.0
 40
2.0
  1
xxxxxxxxx
 41
0.8
  7
SANINDUSA
 72
     4
 11
-145.6564087894649
 21
10.0
 31
0.0
100
AcDbAttributeDefinition
  3
nome
  2
NOME
 70
     0
  0
ATTDEF
  5
BB2
330
B9E
100
AcDbEntity
  8
1
100
AcDbText
 10
-127.2924214135946
 20
14.1979876583216
 30
0.0
 40
2.0
  1
Vitreous China
 41
0.8
  7
SANINDUSA
 72
     4
 11
-119.231709526422
 21
15.22216495852308
 31
0.0
100
AcDbAttributeDefinition
  3
Nome do Material:
  2
MATERIAL
 70
     0
  0
ATTDEF
  5
BB3
330
B9E
100
AcDbEntity
  8
1
100
AcDbText
 10
-103.1563452122093
 20
14.38019043949261
 30
0.0
 40
2.0
  1
Branco
 41
0.8
  7
SANINDUSA
 72
     4
 11
-99.33418268702462
 21
15.35937109765245
 31
0.0
100
AcDbAttributeDefinition
  3
cor da peça
  2
COR
 70
     0
  0
ATTDEF
  5
BB4
330
B9E
100
AcDbEntity
  8
1
100
AcDbText
 10
-116.7235057085292
 20
5.975822699798522
 30
0.0
 40
2.0
  1
Vidrado
 41
0.8
  7
SANINDUSA
 72
     4
 11
-112.5
 21
7.0
 31
0.0
100
AcDbAttributeDefinition
  3
Tipo de acabamento:
  2
ACABAMENTO
 70
     0
  0
ATTDEF
  5
BB5
330
B9E
100
AcDbEntity
  8
1
100
AcDbText
 10
-79.18527869967246
 20
16.65066409850533
 30
0.0
 40
2.0
  1
XXXXXXX
 41
0.8
  7
SANINDUSA
 72
     4
 11
-73.90871724903445
 21
17.65066409850533
 31
0.0
100
AcDbAttributeDefinition
  3
Normas
  2
NORMAS
 70
     0
  0
ATTDEF
  5
BB6
330
B9E
100
AcDbEntity
  8
1
100
AcDbText
 10
-30.55312290127603
 20
14.0
 30
0.0
 40
2.0
  1
XXXXXXXXXXXXXX
 41
0.8
  7
SANINDUSA
 72
     4
 11
-20.0
 21
15.0
 31
0.0
100
AcDbAttributeDefinition
  3
Substitui o desenho:
  2
SUBSTITUI
 70
     0
  0
ATTDEF
  5
BB7
330
B9E
100
AcDbEntity
  8
1
100
AcDbText
 10
-31.30691739422431
 20
6.0
 30
0.0
 40
2.0
  1
XXXXXXXXXXXXXXX
 41
0.8
  7
SANINDUSA
 72
     4
 11
-20.0
 21
7.0
 31
0.0
100
AcDbAttributeDefinition
  3
Substituido por:
  2
SUBSTITUIDO
 70
     0
  0
ATTDEF
  5
BB8
330
B9E
100
AcDbEntity
  8
1
100
AcDbText
 10
-110.0220608548302
 20
1.478208457928303
 30
0.0
 40
2.0
  1
XXXXXXXXXXXXXXXXXXXXXXXXXXXXXXXXXX
 41
0.8
  7
SANINDUSA
 11
-110.0220608548302
 21
2.478208457928303
 31
0.0
100
AcDbAttributeDefinition
  3
Localização do desenho:
  2
LOC-DWG
 70
     0
 74
     2
  0
LINE
  5
BB9
330
B9E
100
AcDbEntity
  8
3
100
AcDbLine
 10
-135.0
 20
4.0
 30
0.0
 11
0.0000000000004547
 21
4.0
 31
0.0
  0
LINE
  5
BBA
330
B9E
100
AcDbEntity
  8
3
100
AcDbLine
 10
-90.00000000000046
 20
12.0
 30
0.0
 11
-135.0
 21
12.0
 31
0.0
  0
LINE
  5
BBB
330
B9E
100
AcDbEntity
  8
3
100
AcDbLine
 10
-135.0
 20
32.5
 30
0.0
 11
-40.0
 21
32.5
 31
0.0
  0
TEXT
  5
BBC
330
B9E
100
AcDbEntity
  8
1
100
AcDbText
 10
-134.0
 20
1.25
 30
0.0
 40
2.0
  1
Localização do des.:
 41
0.8
  7
SANINDUSA
 11
-134.0
 21
2.25
 31
0.0
100
AcDbText
 73
     2
  0
LINE
  5
BBD
330
B9E
100
AcDbEntity
  8
3
100
AcDbLine
 10
-180.0
 20
65.0
 30
0.0
 11
0.0
 21
65.0
 31
0.0
  0
LINE
  5
BBE
330
B9E
100
AcDbEntity
  8
leg fin
100
AcDbLine
 10
-40.0
 20
25.05956924886846
 30
0.0
 11
-135.0
 21
25.05956924886846
 31
0.0
  0
LINE
  5
BBF
330
B9E
100
AcDbEntity
  8
leg fin
100
AcDbLine
 10
-40.0
 20
28.5
 30
0.0
 11
-135.0
 21
28.5
 31
0.0
  0
LINE
  5
BC0
330
B9E
100
AcDbEntity
  8
3
100
AcDbLine
 10
-135.0
 20
50.0
 30
0.0
 11
-40.0
 21
50.0
 31
0.0
  0
TEXT
  5
BC1
330
B9E
100
AcDbEntity
  8
1
100
AcDbText
 10
-134.0
 20
29.75
 30
0.0
 40
2.0
  1
Desenho nº:
 41
0.8
  7
SANINDUSA
 11
-134.0
 21
30.75
 31
0.0
100
AcDbText
 73
     2
  0
TEXT
  5
BC2
330
B9E
100
AcDbEntity
  8
1
100
AcDbText
 10
-134.0
 20
9.25
 30
0.0
 40
2.0
  1
Acabamento:
 41
0.8
  7
SANINDUSA
 11
-134.0
 21
10.25
 31
0.0
100
AcDbText
 73
     2
  0
LINE
  5
BC3
330
B9E
100
AcDbEntity
  8
3
100
AcDbLine
 10
-180.0
 20
20.0
 30
0.0
 11
0.0
 21
20.0
 31
0.0
  0
LINE
  5
BC4
330
B9E
100
AcDbEntity
  8
1
100
AcDbLine
 10
-174.5810776056337
 20
55.5
 30
0.0
 11
-174.5810776056337
 21
65.0
 31
0.0
  0
LINE
  5
BC5
330
B9E
100
AcDbEntity
  8
1
100
AcDbLine
 10
-168.9210461879161
 20
55.5
 30
0.0
 11
-168.9210461879161
 21
65.0
 31
0.0
  0
LINE
  5
BC6
330
B9E
100
AcDbEntity
  8
1
100
AcDbLine
 10
-154.0988595589306
 20
55.5
 30
0.0
 11
-154.0988595589306
 21
65.0
 31
0.0
  0
LINE
  5
BC7
330
B9E
100
AcDbEntity
  8
3
100
AcDbLine
 10
-180.0
 20
65.0
 30
0.0
 11
-180.0
 21
0.0
 31
0.0
  0
LINE
  5
BC8
330
B9E
100
AcDbEntity
  8
3
100
AcDbLine
 10
-135.0
 20
0.0
 30
0.0
 11
-135.0
 21
65.0
 31
0.0
  0
TEXT
  5
BC9
330
B9E
100
AcDbEntity
  8
1
100
AcDbText
 10
-179.0
 20
9.75
 30
0.0
 40
1.5
  1
Des.
 41
0.8
  7
SANINDUSA
 11
-179.0
 21
10.5
 31
0.0
100
AcDbText
 73
     2
  0
LINE
  5
BCA
330
B9E
100
AcDbEntity
  8
1
100
AcDbLine
 10
-168.9210461879161
 20
20.0
 30
0.0
 11
-168.9210461879161
 21
0.0
 31
0.0
  0
LINE
  5
BCB
330
B9E
100
AcDbEntity
  8
1
100
AcDbLine
 10
-154.0988595589306
 20
20.0
 30
0.0
 11
-154.0988595589306
 21
0.0
 31
0.0
  0
LINE
  5
BCC
330
B9E
100
AcDbEntity
  8
1
100
AcDbLine
 10
-180.0
 20
4.0
 30
0.0
 11
-135.0
 21
4.0
 31
0.0
  0
LINE
  5
BCD
330
B9E
100
AcDbEntity
  8
1
100
AcDbLine
 10
-180.0
 20
8.0
 30
0.0
 11
-135.0
 21
8.0
 31
0.0
  0
TEXT
  5
BCE
330
B9E
100
AcDbEntity
  8
1
100
AcDbText
 10
-179.0
 20
1.73257823687436
 30
0.0
 40
1.5
  1
Aprov.
 41
0.8
  7
SANINDUSA
 11
-179.0
 21
2.48257823687436
 31
0.0
100
AcDbText
 73
     2
  0
TEXT
  5
BCF
330
B9E
100
AcDbEntity
  8
1
100
AcDbText
 10
-179.0
 20
5.75
 30
0.0
 40
1.5
  1
Ver.
 41
0.8
  7
SANINDUSA
 11
-179.0
 21
6.5
 31
0.0
100
AcDbText
 73
     2
  0
LINE
  5
BD0
330
B9E
100
AcDbEntity
  8
1
100
AcDbLine
 10
-180.0
 20
16.0
 30
0.0
 11
-135.0
 21
16.0
 31
0.0
  0
LINE
  5
BD1
330
B9E
100
AcDbEntity
  8
1
100
AcDbLine
 10
-180.0
 20
12.0
 30
0.0
 11
-135.0
 21
12.0
 31
0.0
  0
TEXT
  5
BD2
330
B9E
100
AcDbEntity
  8
1
100
AcDbText
 10
-179.0
 20
13.75
 30
0.0
 40
1.5
  1
Proj.
 41
0.8
  7
SANINDUSA
 11
-179.0
 21
14.5
 31
0.0
100
AcDbText
 73
     2
  0
TEXT
  5
BD3
330
B9E
100
AcDbEntity
  8
1
100
AcDbText
 10
-167.9210461879161
 20
17.75
 30
0.0
 40
1.5
  1
Data
 41
0.8
  7
SANINDUSA
 11
-167.9210461879161
 21
18.5
 31
0.0
100
AcDbText
 73
     2
  0
TEXT
  5
BD4
330
B9E
100
AcDbEntity
  8
1
100
AcDbText
 10
-153.0988595589306
 20
17.75
 30
0.0
 40
1.5
  1
Nome
 41
0.8
  7
SANINDUSA
 11
-153.0988595589306
 21
18.5
 31
0.0
100
AcDbText
 73
     2
  0
LINE
  5
BD5
330
B9E
100
AcDbEntity
  8
leg fin
100
AcDbLine
 10
-130.0
 20
20.0
 30
0.0
 11
-130.0
 21
28.5
 31
0.0
  0
TEXT
  5
BD6
330
B9E
100
AcDbEntity
  8
1
100
AcDbText
 10
-134.0
 20
17.25
 30
0.0
 40
2.0
  1
Material:
 41
0.8
  7
SANINDUSA
 11
-134.0
 21
18.25
 31
0.0
100
AcDbText
 73
     2
  0
TEXT
  5
BD7
330
B9E
100
AcDbEntity
  8
1
100
AcDbText
 10
-129.0
 20
26.43288406845113
 30
0.0
 40
1.5
  1
Ano:
 41
0.8
  7
SANINDUSA
 11
-129.0
 21
27.18288406845113
 31
0.0
100
AcDbText
 73
     2
  0
LINE
  5
BD8
330
B9E
100
AcDbEntity
  8
1
100
AcDbLine
 10
-180.0
 20
55.5
 30
0.0
 11
-135.0
 21
55.5
 31
0.0
  0
TEXT
  5
BD9
330
B9E
100
AcDbEntity
  8
1
100
AcDbText
 10
-179.0
 20
52.67772246885193
 30
0.0
 40
1.5
  1
descrição
 41
0.8
  7
SANINDUSA
 11
-179.0
 21
53.42772246885193
 31
0.0
100
AcDbText
 73
     2
  0
TEXT
  5
BDA
330
B9E
100
AcDbEntity
  8
1
100
AcDbText
 10
-134.0
 20
47.25
 30
0.0
 40
2.0
  1
Peça:
 41
0.8
  7
SANINDUSA
 11
-134.0
 21
48.25
 31
0.0
100
AcDbText
 73
     2
  0
LINE
  5
BDB
330
B9E
100
AcDbEntity
  8
1
100
AcDbLine
 10
-180.0
 20
59.5
 30
0.0
 11
-135.0
 21
59.5
 31
0.0
  0
TEXT
  5
BDC
330
B9E
100
AcDbEntity
  8
1
100
AcDbText
 10
-173.5810776056337
 20
62.75
 30
0.0
 40
1.5
  1
Alt.
 41
0.8
  7
SANINDUSA
 11
-173.5810776056337
 21
63.5
 31
0.0
100
AcDbText
 73
     2
  0
TEXT
  5
BDD
330
B9E
100
AcDbEntity
  8
1
100
AcDbText
 10
-179.0
 20
62.75
 30
0.0
 40
1.5
  1
Rev.
 41
0.8
  7
SANINDUSA
 11
-179.0
 21
63.5
 31
0.0
100
AcDbText
 73
     2
  0
TEXT
  5
BDE
330
B9E
100
AcDbEntity
  8
1
100
AcDbText
 10
-167.9210461879161
 20
62.75
 30
0.0
 40
1.5
  1
Data
 41
0.8
  7
SANINDUSA
 11
-167.9210461879161
 21
63.5
 31
0.0
100
AcDbText
 73
     2
  0
TEXT
  5
BDF
330
B9E
100
AcDbEntity
  8
1
100
AcDbText
 10
-153.0988595589306
 20
62.75
 30
0.0
 40
1.5
  1
Nome
 41
0.8
  7
SANINDUSA
 11
-153.0988595589306
 21
63.5
 31
0.0
100
AcDbText
 73
     2
  0
TEXT
  5
BE0
330
B9E
100
AcDbEntity
  8
1
100
AcDbText
 10
-134.0
 20
62.25
 30
0.0
 40
2.0
  1
Produto:
 41
0.8
  7
SANINDUSA
 11
-134.0
 21
63.25
 31
0.0
100
AcDbText
 73
     2
  0
LINE
  5
BE1
330
B9E
100
AcDbEntity
  8
3
100
AcDbLine
 10
-40.0
 20
4.0
 30
0.0
 11
-40.0
 21
65.0
 31
0.0
  0
LWPOLYLINE
  5
BE2
102
{ACAD_REACTORS
330
BEC
102
}
330
B9E
100
AcDbEntity
  8
9
100
AcDbPolyline
 90
       12
 70
     1
 43
0.0
 10
-3.038714600644652
 20
58.90010174665076
 10
-5.726962862472191
 20
58.90010174665076
 10
-5.726962862472191
 20
58.5001017466509
 10
-3.038748516195028
 20
58.5001017466509
 42
-0.4142135623731731
 10
-2.638748516194482
 20
58.1001017466508
 10
-2.638748516194482
 20
57.42799728675596
 10
-5.21497371544865
 20
57.42799728675596
 42
0.4142135623731289
 10
-6.014973715448377
 20
56.627997286756
 10
-6.014973715448377
 20
55.92380871629643
 42
0.4142135623731132
 10
-5.21497371544865
 20
55.12380871629648
 10
-2.23871460064447
 20
55.12380871629648
 10
-2.23871460064447
 20
58.10010174665103
 42
0.4142135623730717
  0
LWPOLYLINE
  5
BE3
102
{ACAD_REACTORS
330
BEC
102
}
330
B9E
100
AcDbEntity
  8
9
100
AcDbPolyline
 90
       20
 70
     1
 43
0.0
 10
-10.01531287095122
 20
57.82799728675581
 10
-10.01531287095122
 20
58.10010174665103
 42
-0.4142135623730744
 10
-9.615312870951584
 20
58.5001017466509
 10
-6.92703069357276
 20
58.5001017466509
 10
-6.92703069357276
 20
58.90010174665076
 10
-9.615346786501959
 20
58.90010174665076
 42
0.4142135623730883
 10
-10.41534678650168
 20
58.1001017466508
 10
-10.41534678650168
 20
57.82796337120567
 42
0.4142135623730717
 10
-9.615346786501959
 20
57.02796337120571
 10
-7.423079531965413
 20
57.02796337120571
 42
-0.4142135623730847
 10
-7.023079531965322
 20
56.62796337120562
 10
-7.023079531965322
 20
55.90786840766487
 42
-0.4142135623730744
 10
-7.423079531965413
 20
55.507868407665
 10
-10.41534678650168
 20
55.507868407665
 10
-10.41534678650168
 20
55.12380871629648
 10
-7.445787917283723
 20
55.12380871629648
 42
0.4114777732064574
 10
-6.645822882998345
 20
55.9163291493976
 10
-6.639238813324936
 20
56.62051771985716
 42
0.4169546541682913
 10
-7.439203847610315
 20
57.42799728675596
 10
-9.615312870951584
 20
57.42799728675596
 42
-0.4142135623731576
  0
LWPOLYLINE
  5
BE4
102
{ACAD_REACTORS
330
BEC
102
}
330
B9E
100
AcDbEntity
  8
9
100
AcDbPolyline
 90
       12
 70
     1
 43
0.0
 10
-14.41561811090378
 20
58.90010174665076
 10
-14.79964388672215
 20
58.90010174665076
 10
-14.79964388672215
 20
55.92380871629643
 42
0.4142135623731133
 10
-13.99964388672242
 20
55.12380871629648
 10
-11.8233508563676
 20
55.12380871629648
 42
0.4142135623730872
 10
-11.02335085636741
 20
55.92380871629643
 10
-11.02335085636741
 20
58.90010174665076
 10
-11.42338477191788
 20
58.90010174665076
 10
-11.42338477191788
 20
55.91567577726095
 42
-0.4131711701795318
 10
-11.82196067063523
 20
55.51567831234956
 10
-14.0141940096214
 20
55.50787335710947
 42
-0.4152567234624407
 10
-14.41561811090378
 20
55.90787082202087
  0
LWPOLYLINE
  5
BE5
102
{ACAD_REACTORS
330
BEC
102
}
330
B9E
100
AcDbEntity
  8
9
100
AcDbPolyline
 90
        6
 70
     1
 43
0.0
 10
-15.80771578768872
 20
55.507868407665
 10
-18.39994912667453
 20
55.507868407665
 42
-0.4142135623731731
 10
-18.79994912667462
 20
55.90786840766487
 10
-18.79994912667462
 20
58.10010174665103
 42
-0.4142135623730744
 10
-18.39994912667453
 20
58.5001017466509
 10
-15.80771578768872
 20
58.5001017466509
  0
LWPOLYLINE
  5
BE6
102
{ACAD_REACTORS
330
BEC
102
}
330
B9E
100
AcDbEntity
  8
9
100
AcDbPolyline
 90
        8
 70
     1
 43
0.0
 10
-15.4236900118708
 20
59.87619128370352
 10
-15.80771578768872
 20
59.87619128370352
 10
-15.80771578768872
 20
58.90010174665076
 10
-18.39176256411201
 20
58.90010174665076
 42
0.4131164467977967
 10
-19.19175694739761
 20
58.1030995310698
 10
-19.1999120763262
 20
55.92680650071542
 42
0.4153115297271718
 10
-18.39991769304061
 20
55.12380871629648
 10
-15.4236900118708
 20
55.12380871629648
  0
LWPOLYLINE
  5
BE7
102
{ACAD_REACTORS
330
BEC
102
}
330
B9E
100
AcDbEntity
  8
9
100
AcDbPolyline
 90
       10
 70
     1
 43
0.0
 10
-20.59201288790928
 20
58.90010174665076
 10
-23.56830591826338
 20
58.90010174665076
 10
-23.56830591826338
 20
55.12380871629648
 10
-23.18424622689509
 20
55.12380871629648
 10
-23.18424622689509
 20
58.5001017466509
 10
-20.59204680345965
 20
58.5001017466509
 42
-0.4142135623730898
 10
-20.19204680345956
 20
58.1001017466508
 10
-20.19204680345956
 20
55.12380871629648
 10
-19.79201288790909
 20
55.12380871629648
 10
-19.79201288790909
 20
58.10010174665103
 42
0.4142135623731132
  0
LWPOLYLINE
  5
BE8
102
{ACAD_REACTORS
330
BEC
102
}
330
B9E
100
AcDbEntity
  8
9
100
AcDbPolyline
 90
        4
 70
     1
 43
0.0
 10
-24.19231812786165
 20
58.90010174665076
 10
-24.57637781922995
 20
58.90010174665076
 10
-24.57637781922995
 20
55.12380871629648
 10
-24.19231812786165
 20
55.12380871629648
  0
LWPOLYLINE
  5
BE9
102
{ACAD_REACTORS
330
BEC
102
}
330
B9E
100
AcDbEntity
  8
9
100
AcDbPolyline
 90
       10
 70
     1
 43
0.0
 10
-28.57661522808212
 20
58.5001017466509
 10
-25.98444972019706
 20
58.5001017466509
 42
-0.4142135623731731
 10
-25.58444972019652
 20
58.1001017466508
 10
-25.58444972019652
 20
55.12380871629648
 10
-25.2004239443786
 20
55.12380871629648
 10
-25.2004239443786
 20
58.10010174665103
 42
0.4142135623730717
 10
-26.00042394437833
 20
58.90010174665076
 10
-28.97664914363259
 20
58.90010174665076
 10
-28.97664914363259
 20
55.12380871629648
 10
-28.57661522808212
 20
55.12380871629648
  0
LWPOLYLINE
  5
BEA
102
{ACAD_REACTORS
330
BEC
102
}
330
B9E
100
AcDbEntity
  8
9
100
AcDbPolyline
 90
       12
 70
     1
 43
0.0
 10
-29.58465321349832
 20
58.10010174665103
 42
0.4142135623730716
 10
-30.3846532134985
 20
58.90010174665076
 10
-33.07296930642724
 20
58.90010174665076
 10
-33.07296930642724
 20
58.5001017466509
 10
-30.38468712904842
 20
58.5001017466509
 42
-0.4142135623730067
 10
-29.98468712904878
 20
58.1001017466508
 10
-29.98468712904878
 20
57.42799728675618
 10
-32.56098015940324
 20
57.42799728675596
 42
0.4142135623731289
 10
-33.36098015940343
 20
56.627997286756
 10
-33.36098015940343
 20
55.92380871629643
 42
0.4142135623731132
 10
-32.56098015940324
 20
55.12380871629648
 10
-29.58465321349832
 20
55.12380871629648
  0
LWPOLYLINE
  5
BEB
102
{ACAD_REACTORS
330
BEC
102
}
330
B9E
100
AcDbEntity
  8
9
100
AcDbPolyline
 90
       20
 70
     1
 43
0.0
 10
-34.7850262845518
 20
57.42799728675596
 10
-36.96125148380543
 20
57.42799728675596
 42
-0.4142135623730898
 10
-37.36125148380552
 20
57.82799728675604
 10
-37.36125148380552
 20
58.10010174665103
 42
-0.4142135623730744
 10
-36.96125148380543
 20
58.5001017466509
 10
-34.27303713752781
 20
58.50010174665067
 10
-34.27303713752781
 20
58.90010174665076
 10
-36.96128539935535
 20
58.90010174665076
 42
0.4142135623731289
 10
-37.76128539935553
 20
58.1001017466508
 10
-37.76128539935553
 20
57.82796337120567
 42
0.4142135623730716
 10
-36.9612853993558
 20
57.02796337120571
 10
-34.76901814481926
 20
57.02796337120571
 42
-0.414213562373168
 10
-34.36901814481962
 20
56.62796337120562
 10
-34.36901814481962
 20
55.90786840766487
 42
-0.4142135623730744
 10
-34.76901814481926
 20
55.507868407665
 10
-37.76128539935553
 20
55.507868407665
 10
-37.76128539935553
 20
55.12380871629648
 10
-34.7850262845518
 20
55.12380871629648
 42
0.4142135623731289
 10
-33.98502628455162
 20
55.92380871629643
 10
-33.98502628455162
 20
56.627997286756
 42
0.4142135623731132
  0
HATCH
  5
BEC
330
B9E
100
AcDbEntity
  8
9
100
AcDbHatch
 10
0.0
 20
0.0
 30
0.0
210
0.0
220
0.0
230
1.0
  2
SOLID
 70
     1
 71
     1
 91
       13
 92
        7
 72
     1
 73
     1
 93
       20
 10
-34.36901814481962
 20
55.90786840766487
 42
-0.414213562372991
 10
-34.76901814481926
 20
55.507868407665
 42
0.0
 10
-37.76128539935553
 20
55.507868407665
 42
0.0
 10
-37.76128539935553
 20
55.12380871629648
 42
0.0
 10
-34.7850262845518
 20
55.12380871629648
 42
0.4142135623731705
 10
-33.98502628455162
 20
55.92380871629666
 42
0.0
 10
-33.98502628455162
 20
56.627997286756
 42
0.4142135623731547
 10
-34.7850262845518
 20
57.42799728675596
 42
0.0
 10
-36.96125148380543
 20
57.42799728675596
 42
-0.4142135623730898
 10
-37.36125148380552
 20
57.82799728675604
 42
0.0
 10
-37.36125148380552
 20
58.1001017466508
 42
-0.4142135623731575
 10
-36.96125148380543
 20
58.5001017466509
 42
0.0
 10
-34.27303713752781
 20
58.50010174665067
 42
0.0
 10
-34.27303713752781
 20
58.90010174665076
 42
0.0
 10
-36.96128539935535
 20
58.90010174665076
 42
0.4142135623731705
 10
-37.76128539935553
 20
58.10010174665058
 42
0.0
 10
-37.76128539935553
 20
57.82796337120544
 42
0.4142135623730299
 10
-36.9612853993558
 20
57.02796337120571
 42
0.0
 10
-34.76901814481926
 20
57.02796337120571
 42
-0.4142135623730015
 10
-34.36901814481962
 20
56.62796337120608
 42
0.0
 97
        1
330
BEB
 92
        7
 72
     1
 73
     1
 93
       12
 10
-33.36098015940343
 20
55.92380871629666
 42
0.4142135623731547
 10
-32.56098015940324
 20
55.12380871629648
 42
0.0
 10
-29.58465321349877
 20
55.12380871629648
 42
0.0
 10
-29.58465321349832
 20
58.10010174665058
 42
0.4142135623731964
 10
-30.3846532134985
 20
58.90010174665076
 42
0.0
 10
-33.07296930642724
 20
58.90010174665076
 42
0.0
 10
-33.07296930642724
 20
58.50010174665067
 42
0.0
 10
-30.38468712904887
 20
58.5001017466509
 42
-0.4142135623732564
 10
-29.98468712904878
 20
58.10010174665103
 42
0.0
 10
-29.98468712904923
 20
57.42799728675596
 42
0.0
 10
-32.56098015940324
 20
57.42799728675596
 42
0.4142135623731705
 10
-33.36098015940343
 20
56.627997286756
 42
0.0
 97
        1
330
BEA
 92
       22
 72
     1
 73
     1
 93
        6
 10
-32.97692046803468
 20
56.62796337120562
 42
-0.4142135623731576
 10
-32.57692046803459
 20
57.02796337120571
 42
0.0
 10
-29.98468712904878
 20
57.02796337120571
 42
0.0
 10
-29.98468712904878
 20
55.507868407665
 42
0.0
 10
-32.57692046803459
 20
55.507868407665
 42
-0.4142135623731731
 10
-32.97692046803468
 20
55.90786840766487
 42
0.0
 97
        1
330
C11
 92
        7
 72
     1
 73
     1
 93
       10
 10
-28.57661522808212
 20
58.5001017466509
 42
0.0
 10
-25.98444972019661
 20
58.5001017466509
 42
-0.4142135623730067
 10
-25.58444972019652
 20
58.10010174665058
 42
0.0
 10
-25.58444972019606
 20
55.12380871629648
 42
0.0
 10
-25.20042394437906
 20
55.12380871629648
 42
0.0
 10
-25.2004239443786
 20
58.1001017466508
 42
0.4142135623731134
 10
-26.00042394437833
 20
58.90010174665076
 42
0.0
 10
-28.97664914363259
 20
58.90010174665076
 42
0.0
 10
-28.97664914363259
 20
55.12380871629648
 42
0.0
 10
-28.57661522808212
 20
55.12380871629648
 42
0.0
 97
        1
330
BE9
 92
        7
 72
     0
 73
     1
 93
        4
 10
-24.57637781922995
 20
55.12380871629648
 10
-24.19231812786165
 20
55.12380871629648
 10
-24.19231812786165
 20
58.90010174665076
 10
-24.57637781922995
 20
58.90010174665076
 97
        1
330
BE8
 92
        7
 72
     0
 73
     1
 93
        4
 10
-24.19231812786165
 20
59.87619128370352
 10
-24.5763778192304
 20
59.87619128370352
 10
-24.5763778192304
 20
59.28412752246913
 10
-24.1923181278612
 20
59.28412752246913
 97
        1
330
C12
 92
        7
 72
     1
 73
     1
 93
       10
 10
-23.18424622689509
 20
58.5001017466509
 42
0.0
 10
-20.59204680345965
 20
58.5001017466509
 42
-0.4142135623730898
 10
-20.19204680345956
 20
58.1001017466508
 42
0.0
 10
-20.19204680345956
 20
55.12380871629648
 42
0.0
 10
-19.79201288790909
 20
55.12380871629648
 42
0.0
 10
-19.79201288790909
 20
58.1001017466508
 42
0.4142135623731547
 10
-20.59201288790928
 20
58.90010174665076
 42
0.0
 10
-23.56830591826338
 20
58.90010174665076
 42
0.0
 10
-23.56830591826338
 20
55.12380871629648
 42
0.0
 10
-23.18424622689463
 20
55.12380871629648
 42
0.0
 97
        1
330
BE7
 92
        7
 72
     1
 73
     1
 93
        8
 10
-19.1999120763262
 20
55.92680650071542
 42
0.4153115297271299
 10
-18.39991769304061
 20
55.12380871629648
 42
0.0
 10
-15.4236900118708
 20
55.12380871629648
 42
0.0
 10
-15.4236900118708
 20
59.87619128370352
 42
0.0
 10
-15.80771578768872
 20
59.87619128370352
 42
0.0
 10
-15.80771578768872
 20
58.90010174665076
 42
0.0
 10
-18.39176256411201
 20
58.90010174665076
 42
0.4131164467977965
 10
-19.19175694739761
 20
58.1030995310698
 42
0.0
 97
        1
330
BE6
 92
       22
 72
     1
 73
     1
 93
        6
 10
-18.79994912667462
 20
58.1001017466508
 42
-0.4142135623731575
 10
-18.39994912667453
 20
58.5001017466509
 42
0.0
 10
-15.80771578768872
 20
58.50010174665067
 42
0.0
 10
-15.80771578768827
 20
55.507868407665
 42
0.0
 10
-18.39994912667453
 20
55.507868407665
 42
-0.4142135623731731
 10
-18.79994912667462
 20
55.90786840766487
 42
0.0
 97
        1
330
BE5
 92
        7
 72
     1
 73
     1
 93
       12
 10
-14.79964388672215
 20
55.92380871629621
 42
0.4142135623729885
 10
-13.99964388672242
 20
55.12380871629648
 42
0.0
 10
-11.8233508563676
 20
55.12380871629648
 42
0.4142135623731289
 10
-11.02335085636741
 20
55.92380871629666
 42
0.0
 10
-11.02335085636741
 20
58.90010174665076
 42
0.0
 10
-11.42338477191788
 20
58.90010174665076
 42
0.0
 10
-11.42338477191788
 20
55.91567577726095
 42
-0.4131711701795319
 10
-11.82196067063523
 20
55.51567831234956
 42
0.0
 10
-14.01419400962095
 20
55.50787335710947
 42
-0.4152567234626918
 10
-14.41561811090378
 20
55.90787082202087
 42
0.0
 10
-14.41561811090378
 20
58.90010174665076
 42
0.0
 10
-14.7996438867226
 20
58.90010174665076
 42
0.0
 97
        1
330
BE4
 92
        7
 72
     1
 73
     1
 93
       20
 10
-7.423079531965413
 20
57.02796337120571
 42
-0.414213562373168
 10
-7.023079531965322
 20
56.62796337120562
 42
0.0
 10
-7.023079531965322
 20
55.90786840766487
 42
-0.4142135623731575
 10
-7.423079531965413
 20
55.507868407665
 42
0.0
 10
-10.41534678650168
 20
55.507868407665
 42
0.0
 10
-10.41534678650168
 20
55.12380871629648
 42
0.0
 10
-7.445787917283723
 20
55.12380871629648
 42
0.4114777732065809
 10
-6.645822882998345
 20
55.91632914939783
 42
0.0
 10
-6.639238813324936
 20
56.62051771985716
 42
0.4169546541682913
 10
-7.439203847610315
 20
57.42799728675596
 42
0.0
 10
-9.615312870951584
 20
57.42799728675596
 42
-0.4142135623729911
 10
-10.01531287095122
 20
57.82799728675581
 42
0.0
 10
-10.01531287095122
 20
58.10010174665103
 42
-0.414213562372991
 10
-9.615312870951584
 20
58.5001017466509
 42
0.0
 10
-6.92703069357276
 20
58.50010174665067
 42
0.0
 10
-6.927030693572305
 20
58.90010174665076
 42
0.0
 10
-9.615346786501959
 20
58.90010174665076
 42
0.4142135623730467
 10
-10.41534678650168
 20
58.10010174665103
 42
0.0
 10
-10.41534678650168
 20
57.82796337120544
 42
0.4142135623730301
 10
-9.615346786501959
 20
57.02796337120571
 42
0.0
 97
        1
330
BE3
 92
        7
 72
     1
 73
     1
 93
       12
 10
-5.21497371544865
 20
57.42799728675596
 42
0.4142135623730871
 10
-6.014973715448377
 20
56.627997286756
 42
0.0
 10
-6.014973715448377
 20
55.92380871629621
 42
0.4142135623730715
 10
-5.21497371544865
 20
55.12380871629648
 42
0.0
 10
-2.23871460064447
 20
55.12380871629648
 42
0.0
 10
-2.23871460064447
 20
58.10010174665058
 42
0.414213562373155
 10
-3.038714600644652
 20
58.90010174665076
 42
0.0
 10
-5.726962862471737
 20
58.90010174665076
 42
0.0
 10
-5.726962862472191
 20
58.5001017466509
 42
0.0
 10
-3.038748516194573
 20
58.5001017466509
 42
-0.4142135623730067
 10
-2.638748516194482
 20
58.10010174665058
 42
0.0
 10
-2.638748516194482
 20
57.42799728675596
 42
0.0
 97
        1
330
BE2
 92
       22
 72
     1
 73
     1
 93
        6
 10
-2.638748516194937
 20
57.02796337120571
 42
0.0
 10
-2.638748516194482
 20
55.50786840766477
 42
0.0
 10
-5.21497371544865
 20
55.507868407665
 42
-0.4142135623731731
 10
-5.614973715448741
 20
55.90786840766509
 42
0.0
 10
-5.614973715448741
 20
56.62796337120562
 42
-0.4142135623731576
 10
-5.21497371544865
 20
57.02796337120571
 42
0.0
 97
        1
330
C0D
 75
     0
 76
     1
 47
0.0407044778999864
 98
       13
 10
-34.18710075113677
 20
56.16907953933765
 10
-33.12851374392494
 20
56.49471602641233
 10
-33.12851374392494
 20
56.49471602641233
 10
-28.77202873835904
 20
57.51232930166111
 10
-24.41554807250941
 20
57.91937341678636
 10
-24.41554807250941
 20
59.384734621186
 10
-23.31624584658039
 20
58.3264175319116
 10
-19.04119127844888
 20
57.75655517324913
 10
-19.04119127844888
 20
57.75655517324913
 10
-14.64399105416578
 20
57.43091868617466
 10
-8.048195057457178
 20
57.22739662861204
 10
-4.017427461911665
 20
57.18669281458665
 10
-4.017427461911665
 20
57.18669281458665
  0
TEXT
  5
BED
330
B9E
100
AcDbEntity
  8
leg fin
100
AcDbText
 10
3.391127401597259
 20
2.107634911895729
 30
0.0
 40
1.5
  1
Este desenho é propriedade da Sanindusa, S.A., e não pode ser copiado nem divulgado sem nossa autorização.
 50
90.0
 41
0.8
  7
SANINDUSA
100
AcDbText
  0
LINE
  5
BEE
330
B9E
100
AcDbEntity
  8
3
100
AcDbLine
 10
-90.0
 20
4.0
 30
0.0
 11
-90.0
 21
12.0
 31
0.0
  0
TEXT
  5
BEF
330
B9E
100
AcDbEntity
  8
1
100
AcDbText
 10
-39.0
 20
9.25
 30
0.0
 40
2.0
  1
Substituido por:
 41
0.8
  7
SANINDUSA
 11
-39.0
 21
10.25
 31
0.0
100
AcDbText
 73
     2
  0
POINT
  5
BF0
330
B9E
100
AcDbEntity
  8
SANINDUSA
100
AcDbPoint
 10
0.0
 20
0.0
 30
0.0
  0
TEXT
  5
BF1
330
B9E
100
AcDbEntity
  8
1
100
AcDbText
 10
-89.0
 20
16.74927010445663
 30
0.0
 40
2.0
  1
Normas:
 41
0.8
  7
SANINDUSA
 11
-89.0
 21
17.74927010445663
 31
0.0
100
AcDbText
 73
     2
  0
LINE
  5
BF2
330
B9E
100
AcDbEntity
  8
3
100
AcDbLine
 10
-90.0
 20
12.0
 30
0.0
 11
-90.0
 21
20.0
 31
0.0
  0
LINE
  5
BF3
330
B9E
100
AcDbEntity
  8
3
100
AcDbLine
 10
-110.546019464768
 20
12.0
 30
0.0
 11
-110.546019464768
 21
20.0
 31
0.0
  0
TEXT
  5
BF4
330
B9E
100
AcDbEntity
  8
1
100
AcDbText
 10
-109.6177520618648
 20
17.25
 30
0.0
 40
2.0
  1
Cor:
 41
0.8
  7
SANINDUSA
 11
-109.6177520618648
 21
18.25
 31
0.0
100
AcDbText
 73
     2
  0
LINE
  5
BF5
330
B9E
100
AcDbEntity
  8
leg fin
100
AcDbLine
 10
-91.42857142857156
 20
20.0
 30
0.0
 11
-91.42857142857156
 21
28.5
 31
0.0
  0
LINE
  5
BF6
330
B9E
100
AcDbEntity
  8
leg fin
100
AcDbLine
 10
-104.2857142857142
 20
20.0
 30
0.0
 11
-104.2857142857142
 21
28.5
 31
0.0
  0
LINE
  5
BF7
330
B9E
100
AcDbEntity
  8
leg fin
100
AcDbLine
 10
-117.1428571428573
 20
20.0
 30
0.0
 11
-117.1428571428573
 21
28.5
 31
0.0
  0
POINT
  5
BF8
330
B9E
100
AcDbEntity
  8
SANINDUSA
100
AcDbPoint
 10
-117.1428571428573
 20
28.5
 30
0.0
  0
POINT
  5
BF9
330
B9E
100
AcDbEntity
  8
SANINDUSA
100
AcDbPoint
 10
-104.2857142857142
 20
28.5
 30
0.0
  0
POINT
  5
BFA
330
B9E
100
AcDbEntity
  8
SANINDUSA
100
AcDbPoint
 10
-91.42857142857156
 20
28.5
 30
0.0
  0
TEXT
  5
BFB
330
B9E
100
AcDbEntity
  8
1
100
AcDbText
 10
-116.200160604496
 20
26.43288406845113
 30
0.0
 40
1.5
  1
Nº Seq.:
 41
0.8
  7
SANINDUSA
 11
-116.200160604496
 21
27.18288406845113
 31
0.0
100
AcDbText
 73
     2
  0
TEXT
  5
BFC
330
B9E
100
AcDbEntity
  8
1
100
AcDbText
 10
-103.2106584078738
 20
26.43288406845113
 30
0.0
 40
1.5
  1
Tipo:
 41
0.8
  7
SANINDUSA
 11
-103.2106584078738
 21
27.18288406845113
 31
0.0
100
AcDbText
 73
     2
  0
TEXT
  5
BFD
330
B9E
100
AcDbEntity
  8
1
100
AcDbText
 10
-90.22114672289353
 20
26.43288406845113
 30
0.0
 40
1.5
  1
Prod.:
 41
0.8
  7
SANINDUSA
 11
-90.22114672289353
 21
27.18288406845113
 31
0.0
100
AcDbText
 73
     2
  0
TEXT
  5
BFE
330
B9E
100
AcDbEntity
  8
1
100
AcDbText
 10
-64.77320576346574
 20
26.43288406845113
 30
0.0
 40
1.5
  1
Rev.:
 41
0.8
  7
SANINDUSA
 11
-64.77320576346574
 21
27.18288406845113
 31
0.0
100
AcDbText
 73
     2
  0
LINE
  5
BFF
330
B9E
100
AcDbEntity
  8
leg fin
100
AcDbLine
 10
-52.85714285714266
 20
20.0
 30
0.0
 11
-52.85714285714266
 21
28.5
 31
0.0
  0
LINE
  5
C00
330
B9E
100
AcDbEntity
  8
leg fin
100
AcDbLine
 10
-65.71428571428578
 20
20.0
 30
0.0
 11
-65.71428571428578
 21
28.5
 31
0.0
  0
LINE
  5
C01
330
B9E
100
AcDbEntity
  8
leg fin
100
AcDbLine
 10
-78.57142857142844
 20
20.0
 30
0.0
 11
-78.57142857142844
 21
28.5
 31
0.0
  0
POINT
  5
C02
330
B9E
100
AcDbEntity
  8
SANINDUSA
100
AcDbPoint
 10
-78.57142857142844
 20
28.5
 30
0.0
  0
POINT
  5
C03
330
B9E
100
AcDbEntity
  8
SANINDUSA
100
AcDbPoint
 10
-65.71428571428578
 20
28.5
 30
0.0
  0
POINT
  5
C04
330
B9E
100
AcDbEntity
  8
SANINDUSA
100
AcDbPoint
 10
-52.85714285714266
 20
28.5
 30
0.0
  0
TEXT
  5
C05
330
B9E
100
AcDbEntity
  8
1
100
AcDbText
 10
-77.61097961686573
 20
26.43288406845113
 30
0.0
 40
1.5
  1
Peça:
 41
0.8
  7
SANINDUSA
 11
-77.61097961686573
 21
27.18288406845113
 31
0.0
100
AcDbText
 73
     2
  0
TEXT
  5
C06
330
B9E
100
AcDbEntity
  8
1
100
AcDbText
 10
-52.06538060077036
 20
26.43288406845113
 30
0.0
 40
1.5
  1
Alt.:
 41
0.8
  7
SANINDUSA
 11
-52.06538060077036
 21
27.18288406845113
 31
0.0
100
AcDbText
 73
     2
  0
LINE
  5
C07
330
B9E
100
AcDbEntity
  8
3
100
AcDbLine
 10
0.0
 20
12.0
 30
0.0
 11
-40.0
 21
12.0
 31
0.0
  0
LINE
  5
C08
330
B9E
100
AcDbEntity
  8
3
100
AcDbLine
 10
-40.0
 20
32.5
 30
0.0
 11
0.0
 21
32.5
 31
0.0
  0
TEXT
  5
C09
330
B9E
100
AcDbEntity
  8
1
100
AcDbText
 10
-19.0
 20
29.75
 30
0.0
 40
2.0
  1
Folha:
 41
0.8
  7
SANINDUSA
 11
-19.0
 21
30.75
 31
0.0
100
AcDbText
 73
     2
  0
LINE
  5
C0A
330
B9E
100
AcDbEntity
  8
3
100
AcDbLine
 10
-20.0
 20
32.5
 30
0.0
 11
-20.0
 21
20.0
 31
0.0
  0
TEXT
  5
C0B
330
B9E
100
AcDbEntity
  8
1
100
AcDbText
 10
-39.0
 20
29.75
 30
0.0
 40
2.0
  1
Escala:
 41
0.8
  7
SANINDUSA
 11
-39.0
 21
30.75
 31
0.0
100
AcDbText
 73
     2
  0
TEXT
  5
C0C
330
B9E
100
AcDbEntity
  8
1
100
AcDbText
 10
-39.0
 20
17.25
 30
0.0
 40
2.0
  1
Substitui:
 41
0.8
  7
SANINDUSA
 11
-39.0
 21
18.25
 31
0.0
100
AcDbText
 73
     2
  0
LWPOLYLINE
  5
C0D
102
{ACAD_REACTORS
330
BEC
102
}
330
B9E
100
AcDbEntity
  8
9
100
AcDbPolyline
 90
        6
 70
     1
 43
0.0
 10
-2.638748516194482
 20
57.02796337120571
 10
-2.638748516194482
 20
55.50786840766477
 10
-5.21497371544865
 20
55.507868407665
 42
-0.4142135623730898
 10
-5.614973715448741
 20
55.90786840766487
 10
-5.614973715448741
 20
56.62796337120562
 42
-0.4142135623731576
 10
-5.21497371544865
 20
57.02796337120571
  0
LINE
  5
C0E
330
B9E
100
AcDbEntity
  8
3
100
AcDbLine
 10
-40.0
 20
50.0
 30
0.0
 11
0.0
 21
50.0
 31
0.0
  0
ATTDEF
  5
C0F
330
B9E
100
AcDbEntity
  8
1
100
AcDbText
 10
-31.30691739422431
 20
40.25
 30
0.0
 40
2.0
  1
XXXXXXXXXXXXXXX
 41
0.8
  7
SANINDUSA
 72
     4
 11
-20.0
 21
41.25
 31
0.0
100
AcDbAttributeDefinition
  3
Observações:
  2
OBS
 70
     0
  0
TEXT
  5
C10
330
B9E
100
AcDbEntity
  8
1
100
AcDbText
 10
-39.0
 20
47.25
 30
0.0
 40
2.0
  1
Observações:
 41
0.8
  7
SANINDUSA
 11
-39.0
 21
48.25
 31
0.0
100
AcDbText
 73
     2
  0
LWPOLYLINE
  5
C11
102
{ACAD_REACTORS
330
BEC
102
}
330
B9E
100
AcDbEntity
  8
9
100
AcDbPolyline
 90
        6
 70
     1
 43
0.0
 10
-29.98468712904878
 20
57.02796337120571
 10
-29.98468712904878
 20
55.507868407665
 10
-32.57692046803459
 20
55.507868407665
 42
-0.4142135623731731
 10
-32.97692046803468
 20
55.90786840766487
 10
-32.97692046803468
 20
56.62796337120562
 42
-0.4142135623731576
 10
-32.57692046803459
 20
57.02796337120571
  0
LWPOLYLINE
  5
C12
102
{ACAD_REACTORS
330
BEC
102
}
330
B9E
100
AcDbEntity
  8
9
100
AcDbPolyline
 90
        4
 70
     1
 43
0.0
 10
-24.19231812786165
 20
59.87619128370352
 10
-24.57637781922995
 20
59.87619128370352
 10
-24.57637781922995
 20
59.28412752246913
 10
-24.19231812786165
 20
59.28412752246913
  0
ENDBLK
  5
C14
330
B9E
100
AcDbEntity
  8
0
100
AcDbBlockEnd
  0
BLOCK
  5
1071
330
1070
100
AcDbEntity
  8
0
100
AcDbBlockBegin
  2
SW_CENTERMARKSYMBOL_3
 70
     0
 10
0.0
 20
0.0
 30
0.0
  3
SW_CENTERMARKSYMBOL_3
  1

  0
LINE
  5
1072
330
1070
100
AcDbEntity
  8
0
  6
Continuous
 62
     0
370
     0
100
AcDbLine
 10
0.0
 20
0.0
 30
0.0
 11
0.0
 21
0.2500000000000002
 31
0.0
  0
LINE
  5
1073
330
1070
100
AcDbEntity
  8
0
  6
Continuous
 62
     0
370
     0
100
AcDbLine
 10
0.0
 20
0.0
 30
0.0
 11
-0.2499999999999725
 21
0.0
 31
0.0
  0
LINE
  5
1074
330
1070
100
AcDbEntity
  8
0
  6
Continuous
 62
     0
370
     0
100
AcDbLine
 10
0.0
 20
0.0
 30
0.0
 11
0.0
 21
-0.2500000000000002
 31
0.0
  0
LINE
  5
1075
330
1070
100
AcDbEntity
  8
0
  6
Continuous
 62
     0
370
     0
100
AcDbLine
 10
0.0
 20
0.0
 30
0.0
 11
0.250000000000028
 21
0.0
 31
0.0
  0
LINE
  5
1076
330
1070
100
AcDbEntity
  8
0
  6
Continuous
 62
     0
370
     0
100
AcDbLine
 10
0.0
 20
0.5000000000000005
 30
0.0
 11
0.0
 21
0.8499999999999964
 31
0.0
  0
LINE
  5
1077
330
1070
100
AcDbEntity
  8
0
  6
Continuous
 62
     0
370
     0
100
AcDbLine
 10
-0.5000000000000005
 20
0.0
 30
0.0
 11
-0.8499999999999896
 21
0.0
 31
0.0
  0
LINE
  5
1078
330
1070
100
AcDbEntity
  8
0
  6
Continuous
 62
     0
370
     0
100
AcDbLine
 10
0.0
 20
-0.5000000000000005
 30
0.0
 11
0.0
 21
-0.8500000000000035
 31
0.0
  0
LINE
  5
1079
330
1070
100
AcDbEntity
  8
0
  6
Continuous
 62
     0
370
     0
100
AcDbLine
 10
0.5000000000000005
 20
0.0
 30
0.0
 11
0.8500000000000174
 21
0.0
 31
0.0
  0
ENDBLK
  5
107A
330
1070
100
AcDbEntity
  8
0
100
AcDbBlockEnd
  0
BLOCK
  5
107C
330
107B
100
AcDbEntity
  8
0
100
AcDbBlockBegin
  2
*D8
 70
     1
 10
0.0
 20
0.0
 30
0.0
  3
*D8
  1

  0
LINE
  5
107D
330
107B
100
AcDbEntity
  8
0
100
AcDbLine
 10
3964.394931543117
 20
1900.256797291024
 30
0.0
 11
4038.364339609301
 21
1900.256797291024
 31
0.0
  0
LINE
  5
107E
330
107B
100
AcDbEntity
  8
0
100
AcDbLine
 10
3939.753369419955
 20
1780.256797291025
 30
0.0
 11
4038.364339609301
 21
1780.256797291025
 31
0.0
  0
LINE
  5
107F
330
107B
100
AcDbEntity
  8
0
100
AcDbLine
 10
4033.3643396093
 20
1890.256797291025
 30
0.0
 11
4033.3643396093
 21
1790.256797291025
 31
0.0
  0
SOLID
  5
1080
330
107B
100
AcDbEntity
  8
0
100
AcDbTrace
 10
4031.697672942633
 20
1890.256797291025
 30
0.0
 11
4035.031006275967
 21
1890.256797291025
 31
0.0
 12
4033.3643396093
 22
1900.256797291024
 32
0.0
 13
4033.3643396093
 23
1900.256797291024
 33
0.0
  0
SOLID
  5
1081
330
107B
100
AcDbEntity
  8
0
100
AcDbTrace
 10
4031.697672942633
 20
1790.256797291025
 30
0.0
 11
4035.031006275967
 21
1790.256797291025
 31
0.0
 12
4033.3643396093
 22
1780.256797291025
 32
0.0
 13
4033.3643396093
 23
1780.256797291025
 33
0.0
  0
MTEXT
  5
1082
330
107B
100
AcDbEntity
  8
0
100
AcDbMText
 10
4023.156146190898
 20
1840.256797291025
 30
0.0
 40
10.0
 41
0.0
 71
     5
 72
     1
  1
120
  7
SANINDUSA
 11
0.0000000000000001
 21
1.0
 31
0.0
 73
     1
 44
1.0
1001
ACAD
1000
MTEXTBEGIN
1070
    73
1070
     1
1070
    44
1040
1.0
1070
    74
1070
     0
1000
MTEXTEND
  0
POINT
  5
1083
330
107B
100
AcDbEntity
  8
Defpoints
 62
     0
100
AcDbPoint
 10
3959.394931543118
 20
1900.256797291024
 30
0.0
  0
POINT
  5
1084
330
107B
100
AcDbEntity
  8
Defpoints
 62
     0
100
AcDbPoint
 10
3934.753369419955
 20
1780.256797291025
 30
0.0
  0
POINT
  5
1085
330
107B
100
AcDbEntity
  8
Defpoints
 62
     0
100
AcDbPoint
 10
4033.3643396093
 20
1780.256797291025
 30
0.0
  0
ENDBLK
  5
1086
330
107B
100
AcDbEntity
  8
0
100
AcDbBlockEnd
  0
BLOCK
  5
1088
330
1087
100
AcDbEntity
  8
0
100
AcDbBlockBegin
  2
*D9
 70
     1
 10
0.0
 20
0.0
 30
0.0
  3
*D9
  1

  0
LINE
  5
1089
330
1087
100
AcDbEntity
  8
0
100
AcDbLine
 10
4145.031994729067
 20
2443.096715530927
 30
0.0
 11
4145.031994729067
 21
2475.096678058787
 31
0.0
  0
LINE
  5
108A
330
1087
100
AcDbEntity
  8
0
100
AcDbLine
 10
4170.031991152788
 20
2434.955770320762
 30
0.0
 11
4170.031991152788
 21
2475.096678058787
 31
0.0
  0
LINE
  5
108B
330
1087
100
AcDbEntity
  8
0
100
AcDbLine
 10
4135.031994729067
 20
2470.096678058787
 30
0.0
 11
4125.031994729067
 21
2470.096678058787
 31
0.0
  0
LINE
  5
108C
330
1087
100
AcDbEntity
  8
0
100
AcDbLine
 10
4180.031991152788
 20
2470.096678058787
 30
0.0
 11
4215.465167781398
 21
2470.096678058787
 31
0.0
  0
LINE
  5
108D
330
1087
100
AcDbEntity
  8
0
100
AcDbLine
 10
4145.031994729067
 20
2470.096678058787
 30
0.0
 11
4170.031991152788
 21
2470.096678058787
 31
0.0
  0
SOLID
  5
108E
330
1087
100
AcDbEntity
  8
0
100
AcDbTrace
 10
4135.031994729067
 20
2471.763344725454
 30
0.0
 11
4135.031994729067
 21
2468.430011392121
 31
0.0
 12
4145.031994729067
 22
2470.096678058787
 32
0.0
 13
4145.031994729067
 23
2470.096678058787
 33
0.0
  0
SOLID
  5
108F
330
1087
100
AcDbEntity
  8
0
100
AcDbTrace
 10
4180.031991152788
 20
2471.763344725454
 30
0.0
 11
4180.031991152788
 21
2468.430011392121
 31
0.0
 12
4170.031991152788
 22
2470.096678058787
 32
0.0
 13
4170.031991152788
 23
2470.096678058787
 33
0.0
  0
MTEXT
  5
1090
330
1087
100
AcDbEntity
  8
0
100
AcDbMText
 10
4202.748579467093
 20
2480.304871477189
 30
0.0
 40
10.0
 41
0.0
 71
     5
 72
     1
  1
25
  7
SANINDUSA
 73
     1
 44
1.0
1001
ACAD
1000
MTEXTBEGIN
1070
    73
1070
     1
1070
    44
1040
1.0
1070
    74
1070
     0
1000
MTEXTEND
  0
POINT
  5
1091
330
1087
100
AcDbEntity
  8
Defpoints
 62
     0
100
AcDbPoint
 10
4145.031994729067
 20
2438.096715530927
 30
0.0
  0
POINT
  5
1092
330
1087
100
AcDbEntity
  8
Defpoints
 62
     0
100
AcDbPoint
 10
4170.031991152788
 20
2429.955770320762
 30
0.0
  0
POINT
  5
1093
330
1087
100
AcDbEntity
  8
Defpoints
 62
     0
100
AcDbPoint
 10
4170.031991152788
 20
2470.096678058787
 30
0.0
  0
ENDBLK
  5
1094
330
1087
100
AcDbEntity
  8
0
100
AcDbBlockEnd
  0
BLOCK
  5
1096
330
1095
100
AcDbEntity
  8
0
100
AcDbBlockBegin
  2
*D10
 70
     1
 10
0.0
 20
0.0
 30
0.0
  3
*D10
  1

  0
LINE
  5
1097
330
1095
100
AcDbEntity
  8
0
100
AcDbLine
 10
4165.031994729059
 20
2428.377125855109
 30
0.0
 11
4110.031994729067
 21
2428.377125855109
 31
0.0
  0
LINE
  5
1098
330
1095
100
AcDbEntity
  8
0
100
AcDbLine
 10
4165.031994729059
 20
2373.377125855109
 30
0.0
 11
4110.031994729067
 21
2373.377125855109
 31
0.0
  0
LINE
  5
1099
330
1095
100
AcDbEntity
  8
0
100
AcDbLine
 10
4115.031994729068
 20
2383.377125855109
 30
0.0
 11
4115.031994729068
 21
2418.377125855109
 31
0.0
  0
LINE
  5
109A
330
1095
100
AcDbEntity
  8
0
100
AcDbLine
 10
4115.031994729068
 20
2428.377125855109
 30
0.0
 11
4115.031994729068
 21
2472.61486930709
 31
0.0
  0
SOLID
  5
109B
330
1095
100
AcDbEntity
  8
0
100
AcDbTrace
 10
4113.3653280624
 20
2383.377125855109
 30
0.0
 11
4116.698661395734
 21
2383.377125855109
 31
0.0
 12
4115.031994729068
 22
2373.377125855109
 32
0.0
 13
4115.031994729068
 23
2373.377125855109
 33
0.0
  0
SOLID
  5
109C
330
1095
100
AcDbEntity
  8
0
100
AcDbTrace
 10
4113.3653280624
 20
2418.377125855109
 30
0.0
 11
4116.698661395734
 21
2418.377125855109
 31
0.0
 12
4115.031994729068
 22
2428.377125855109
 32
0.0
 13
4115.031994729068
 23
2428.377125855109
 33
0.0
  0
MTEXT
  5
109D
330
1095
100
AcDbEntity
  8
0
100
AcDbMText
 10
4104.535016891591
 20
2455.4959975811
 30
0.0
 40
10.0
 41
0.0
 71
     5
 72
     1
  1
ø55
  7
SANINDUSA
 11
0.0000000000000001
 21
1.0
 31
0.0
 73
     1
 44
1.0
1001
ACAD
1000
MTEXTBEGIN
1070
    73
1070
     1
1070
    44
1040
1.0
1070
    74
1070
     0
1000
MTEXTEND
  0
POINT
  5
109E
330
1095
100
AcDbEntity
  8
Defpoints
 62
     0
100
AcDbPoint
 10
4170.03199472906
 20
2428.377125855109
 30
0.0
  0
POINT
  5
109F
330
1095
100
AcDbEntity
  8
Defpoints
 62
     0
100
AcDbPoint
 10
4170.03199472906
 20
2373.377125855109
 30
0.0
  0
POINT
  5
10A0
330
1095
100
AcDbEntity
  8
Defpoints
 62
     0
100
AcDbPoint
 10
4115.031994729068
 20
2373.377125855109
 30
0.0
  0
ENDBLK
  5
10A1
330
1095
100
AcDbEntity
  8
0
100
AcDbBlockEnd
  0
BLOCK
  5
10A3
330
10A2
100
AcDbEntity
  8
0
100
AcDbBlockBegin
  2
*D11
 70
     1
 10
0.0
 20
0.0
 30
0.0
  3
*D11
  1

  0
LINE
  5
10A4
330
10A2
100
AcDbEntity
  8
0
100
AcDbLine
 10
3770.334241302988
 20
2134.341868317064
 30
0.0
 11
3770.334241302988
 21
2102.342002804403
 31
0.0
  0
LINE
  5
10A5
330
10A2
100
AcDbEntity
  8
0
100
AcDbLine
 10
3961.394437915615
 20
2134.394367054704
 30
0.0
 11
3961.394437915615
 21
2102.342002804403
 31
0.0
  0
LINE
  5
10A6
330
10A2
100
AcDbEntity
  8
0
100
AcDbLine
 10
3780.334241302988
 20
2107.342002804403
 30
0.0
 11
3951.394437915615
 21
2107.342002804403
 31
0.0
  0
SOLID
  5
10A7
330
10A2
100
AcDbEntity
  8
0
100
AcDbTrace
 10
3780.334241302988
 20
2109.00866947107
 30
0.0
 11
3780.334241302988
 21
2105.675336137737
 31
0.0
 12
3770.334241302988
 22
2107.342002804403
 32
0.0
 13
3770.334241302988
 23
2107.342002804403
 33
0.0
  0
SOLID
  5
10A8
330
10A2
100
AcDbEntity
  8
0
100
AcDbTrace
 10
3951.394437915615
 20
2109.00866947107
 30
0.0
 11
3951.394437915615
 21
2105.675336137737
 31
0.0
 12
3961.394437915615
 22
2107.342002804403
 32
0.0
 13
3961.394437915615
 23
2107.342002804403
 33
0.0
  0
MTEXT
  5
10A9
330
10A2
100
AcDbEntity
  8
0
100
AcDbMText
 10
3865.864339609302
 20
2117.540122347721
 30
0.0
 40
10.0
 41
0.0
 71
     5
 72
     1
  1
191
  7
SANINDUSA
 73
     1
 44
1.0
1001
ACAD
1000
MTEXTBEGIN
1070
    73
1070
     1
1070
    44
1040
1.0
1070
    74
1070
     0
1000
MTEXTEND
  0
POINT
  5
10AA
330
10A2
100
AcDbEntity
  8
Defpoints
 62
     0
100
AcDbPoint
 10
3770.334241302988
 20
2139.341868317063
 30
0.0
  0
POINT
  5
10AB
330
10A2
100
AcDbEntity
  8
Defpoints
 62
     0
100
AcDbPoint
 10
3961.394437915615
 20
2139.394367054704
 30
0.0
  0
POINT
  5
10AC
330
10A2
100
AcDbEntity
  8
Defpoints
 62
     0
100
AcDbPoint
 10
3961.394437915615
 20
2107.342002804403
 30
0.0
  0
ENDBLK
  5
10AD
330
10A2
100
AcDbEntity
  8
0
100
AcDbBlockEnd
  0
BLOCK
  5
10AF
330
10AE
100
AcDbEntity
  8
0
100
AcDbBlockBegin
  2
*D12
 70
     1
 10
0.0
 20
0.0
 30
0.0
  3
*D12
  1

  0
LINE
  5
10B0
330
10AE
100
AcDbEntity
  8
0
100
AcDbLine
 10
3964.395126843135
 20
2137.342002804404
 30
0.0
 11
4038.364531540556
 21
2137.342002804404
 31
0.0
  0
LINE
  5
10B1
330
10AE
100
AcDbEntity
  8
0
100
AcDbLine
 10
4003.464531540553
 20
2447.342005188588
 30
0.0
 11
4038.364531540556
 21
2447.342005188588
 31
0.0
  0
LINE
  5
10B2
330
10AE
100
AcDbEntity
  8
0
100
AcDbLine
 10
4033.364531540555
 20
2147.342002804404
 30
0.0
 11
4033.364531540555
 21
2437.342005188587
 31
0.0
  0
SOLID
  5
10B3
330
10AE
100
AcDbEntity
  8
0
100
AcDbTrace
 10
4031.697864873889
 20
2147.342002804404
 30
0.0
 11
4035.031198207222
 21
2147.342002804404
 31
0.0
 12
4033.364531540555
 22
2137.342002804404
 32
0.0
 13
4033.364531540555
 23
2137.342002804404
 33
0.0
  0
SOLID
  5
10B4
330
10AE
100
AcDbEntity
  8
0
100
AcDbTrace
 10
4031.697864873889
 20
2437.342005188587
 30
0.0
 11
4035.031198207222
 21
2437.342005188587
 31
0.0
 12
4033.364531540555
 22
2447.342005188588
 32
0.0
 13
4033.364531540555
 23
2447.342005188588
 33
0.0
  0
MTEXT
  5
10B5
330
10AE
100
AcDbEntity
  8
0
100
AcDbMText
 10
4023.156338122153
 20
2292.342003996497
 30
0.0
 40
10.0
 41
0.0
 71
     5
 72
     1
  1
312
  7
SANINDUSA
 11
0.0000000000000001
 21
1.0
 31
0.0
 73
     1
 44
1.0
1001
ACAD
1000
MTEXTBEGIN
1070
    73
1070
     1
1070
    44
1040
1.0
1070
    74
1070
     0
1000
MTEXTEND
  0
POINT
  5
10B6
330
10AE
100
AcDbEntity
  8
Defpoints
 62
     0
100
AcDbPoint
 10
3959.395126843135
 20
2137.342002804404
 30
0.0
  0
POINT
  5
10B7
330
10AE
100
AcDbEntity
  8
Defpoints
 62
     0
100
AcDbPoint
 10
3998.464531540554
 20
2447.342005188588
 30
0.0
  0
POINT
  5
10B8
330
10AE
100
AcDbEntity
  8
Defpoints
 62
     0
100
AcDbPoint
 10
4033.364531540555
 20
2447.342005188588
 30
0.0
  0
ENDBLK
  5
10B9
330
10AE
100
AcDbEntity
  8
0
100
AcDbBlockEnd
  0
BLOCK
  5
10BB
330
10BA
100
AcDbEntity
  8
0
100
AcDbBlockBegin
  2
*D13
 70
     1
 10
0.0
 20
0.0
 30
0.0
  3
*D13
  1

  0
LINE
  5
10BC
330
10BA
100
AcDbEntity
  8
0
100
AcDbLine
 10
4003.464531540553
 20
2447.342005188588
 30
0.0
 11
4038.364531540555
 21
2447.342005188588
 31
0.0
  0
LINE
  5
10BD
330
10BA
100
AcDbEntity
  8
0
100
AcDbLine
 10
3870.864531540556
 20
2459.561464715632
 30
0.0
 11
4038.364531540555
 21
2459.561464715632
 31
0.0
  0
LINE
  5
10BE
330
10BA
100
AcDbEntity
  8
0
100
AcDbLine
 10
4033.364531540555
 20
2437.342005188587
 30
0.0
 11
4033.364531540555
 21
2427.342005188588
 31
0.0
  0
LINE
  5
10BF
330
10BA
100
AcDbEntity
  8
0
100
AcDbLine
 10
4033.364531540555
 20
2469.561464715632
 30
0.0
 11
4033.364531540555
 21
2504.148435837191
 31
0.0
  0
LINE
  5
10C0
330
10BA
100
AcDbEntity
  8
0
100
AcDbLine
 10
4033.364531540555
 20
2447.342005188588
 30
0.0
 11
4033.364531540555
 21
2459.561464715632
 31
0.0
  0
SOLID
  5
10C1
330
10BA
100
AcDbEntity
  8
0
100
AcDbTrace
 10
4031.697864873889
 20
2437.342005188587
 30
0.0
 11
4035.031198207222
 21
2437.342005188587
 31
0.0
 12
4033.364531540555
 22
2447.342005188588
 32
0.0
 13
4033.364531540555
 23
2447.342005188588
 33
0.0
  0
SOLID
  5
10C2
330
10BA
100
AcDbEntity
  8
0
100
AcDbTrace
 10
4031.697864873889
 20
2469.561464715632
 30
0.0
 11
4035.031198207222
 21
2469.561464715632
 31
0.0
 12
4033.364531540555
 22
2459.561464715632
 32
0.0
 13
4033.364531540555
 23
2459.561464715632
 33
0.0
  0
MTEXT
  5
10C3
330
10BA
100
AcDbEntity
  8
0
100
AcDbMText
 10
4023.156338122153
 20
2491.854950276412
 30
0.0
 40
10.0
 41
0.0
 71
     5
 72
     1
  1
13
  7
SANINDUSA
 11
0.0000000000000001
 21
1.0
 31
0.0
 73
     1
 44
1.0
1001
ACAD
1000
MTEXTBEGIN
1070
    73
1070
     1
1070
    44
1040
1.0
1070
    74
1070
     0
1000
MTEXTEND
  0
POINT
  5
10C4
330
10BA
100
AcDbEntity
  8
Defpoints
 62
     0
100
AcDbPoint
 10
3998.464531540554
 20
2447.342005188588
 30
0.0
  0
POINT
  5
10C5
330
10BA
100
AcDbEntity
  8
Defpoints
 62
     0
100
AcDbPoint
 10
3865.864531540555
 20
2459.561464715632
 30
0.0
  0
POINT
  5
10C6
330
10BA
100
AcDbEntity
  8
Defpoints
 62
     0
100
AcDbPoint
 10
4033.364531540555
 20
2459.561464715632
 30
0.0
  0
ENDBLK
  5
10C7
330
10BA
100
AcDbEntity
  8
0
100
AcDbBlockEnd
  0
BLOCK
  5
10C9
330
10C8
100
AcDbEntity
  8
0
100
AcDbBlockBegin
  2
*D14
 70
     1
 10
0.0
 20
0.0
 30
0.0
  3
*D14
  1

  0
LINE
  5
10CA
330
10C8
100
AcDbEntity
  8
0
100
AcDbLine
 10
3939.753369419955
 20
1780.256797291025
 30
0.0
 11
4038.364339609301
 21
1780.256797291025
 31
0.0
  0
LINE
  5
10CB
330
10C8
100
AcDbEntity
  8
0
100
AcDbLine
 10
3870.8643396093
 20
1480.256797291024
 30
0.0
 11
4038.364339609301
 21
1480.256797291024
 31
0.0
  0
LINE
  5
10CC
330
10C8
100
AcDbEntity
  8
0
100
AcDbLine
 10
4033.3643396093
 20
1770.256797291025
 30
0.0
 11
4033.3643396093
 21
1490.256797291024
 31
0.0
  0
SOLID
  5
10CD
330
10C8
100
AcDbEntity
  8
0
100
AcDbTrace
 10
4031.697672942633
 20
1770.256797291025
 30
0.0
 11
4035.031006275967
 21
1770.256797291025
 31
0.0
 12
4033.3643396093
 22
1780.256797291025
 32
0.0
 13
4033.3643396093
 23
1780.256797291025
 33
0.0
  0
SOLID
  5
10CE
330
10C8
100
AcDbEntity
  8
0
100
AcDbTrace
 10
4031.697672942633
 20
1490.256797291024
 30
0.0
 11
4035.031006275967
 21
1490.256797291024
 31
0.0
 12
4033.3643396093
 22
1480.256797291024
 32
0.0
 13
4033.3643396093
 23
1480.256797291024
 33
0.0
  0
MTEXT
  5
10CF
330
10C8
100
AcDbEntity
  8
0
100
AcDbMText
 10
4023.156146190898
 20
1630.256797291025
 30
0.0
 40
10.0
 41
0.0
 71
     5
 72
     1
  1
300
  7
SANINDUSA
 11
0.0000000000000001
 21
1.0
 31
0.0
 73
     1
 44
1.0
1001
ACAD
1000
MTEXTBEGIN
1070
    73
1070
     1
1070
    44
1040
1.0
1070
    74
1070
     0
1000
MTEXTEND
  0
POINT
  5
10D0
330
10C8
100
AcDbEntity
  8
Defpoints
 62
     0
100
AcDbPoint
 10
3934.753369419955
 20
1780.256797291025
 30
0.0
  0
POINT
  5
10D1
330
10C8
100
AcDbEntity
  8
Defpoints
 62
     0
100
AcDbPoint
 10
3865.864339609301
 20
1480.256797291024
 30
0.0
  0
POINT
  5
10D2
330
10C8
100
AcDbEntity
  8
Defpoints
 62
     0
100
AcDbPoint
 10
4033.3643396093
 20
1480.256797291024
 30
0.0
  0
ENDBLK
  5
10D3
330
10C8
100
AcDbEntity
  8
0
100
AcDbBlockEnd
  0
BLOCK
  5
10D5
330
10D4
100
AcDbEntity
  8
0
100
AcDbBlockBegin
  2
*D15
 70
     1
 10
0.0
 20
0.0
 30
0.0
  3
*D15
  1

  0
LINE
  5
10D6
330
10D4
100
AcDbEntity
  8
0
100
AcDbLine
 10
3921.864339609302
 20
1798.145827101677
 30
0.0
 11
3921.864339609302
 21
1935.256797291024
 31
0.0
  0
LINE
  5
10D7
330
10D4
100
AcDbEntity
  8
0
100
AcDbLine
 10
3809.864339609303
 20
1798.145827101677
 30
0.0
 11
3809.864339609303
 21
1935.256797291024
 31
0.0
  0
LINE
  5
10D8
330
10D4
100
AcDbEntity
  8
0
100
AcDbLine
 10
3911.864339609302
 20
1930.256797291024
 30
0.0
 11
3819.864339609302
 21
1930.256797291024
 31
0.0
  0
SOLID
  5
10D9
330
10D4
100
AcDbEntity
  8
0
100
AcDbTrace
 10
3911.864339609302
 20
1931.92346395769
 30
0.0
 11
3911.864339609302
 21
1928.590130624357
 31
0.0
 12
3921.864339609302
 22
1930.256797291024
 32
0.0
 13
3921.864339609302
 23
1930.256797291024
 33
0.0
  0
SOLID
  5
10DA
330
10D4
100
AcDbEntity
  8
0
100
AcDbTrace
 10
3819.864339609302
 20
1931.92346395769
 30
0.0
 11
3819.864339609302
 21
1928.590130624357
 31
0.0
 12
3809.864339609303
 22
1930.256797291024
 32
0.0
 13
3809.864339609303
 23
1930.256797291024
 33
0.0
  0
MTEXT
  5
10DB
330
10D4
100
AcDbEntity
  8
0
100
AcDbMText
 10
3865.864339609302
 20
1940.360894000225
 30
0.0
 40
10.0
 41
0.0
 71
     5
 72
     1
  1
112
  7
SANINDUSA
 73
     1
 44
1.0
1001
ACAD
1000
MTEXTBEGIN
1070
    73
1070
     1
1070
    44
1040
1.0
1070
    74
1070
     0
1000
MTEXTEND
  0
POINT
  5
10DC
330
10D4
100
AcDbEntity
  8
Defpoints
 62
     0
100
AcDbPoint
 10
3921.864339609302
 20
1793.145827101677
 30
0.0
  0
POINT
  5
10DD
330
10D4
100
AcDbEntity
  8
Defpoints
 62
     0
100
AcDbPoint
 10
3809.864339609303
 20
1793.145827101677
 30
0.0
  0
POINT
  5
10DE
330
10D4
100
AcDbEntity
  8
Defpoints
 62
     0
100
AcDbPoint
 10
3809.864339609303
 20
1930.256797291024
 30
0.0
  0
ENDBLK
  5
10DF
330
10D4
100
AcDbEntity
  8
0
100
AcDbBlockEnd
  0
BLOCK
  5
10E1
330
10E0
100
AcDbEntity
  8
0
100
AcDbBlockBegin
  2
*D16
 70
     1
 10
0.0
 20
0.0
 30
0.0
  3
*D16
  1

  0
LINE
  5
10E2
330
10E0
100
AcDbEntity
  8
0
100
AcDbLine
 10
3728.364531540555
 20
2447.442005188586
 30
0.0
 11
3728.364531540555
 21
2494.561464715632
 31
0.0
  0
LINE
  5
10E3
330
10E0
100
AcDbEntity
  8
0
100
AcDbLine
 10
4003.364531540555
 20
2447.442005188586
 30
0.0
 11
4003.364531540555
 21
2494.561464715632
 31
0.0
  0
LINE
  5
10E4
330
10E0
100
AcDbEntity
  8
0
100
AcDbLine
 10
3738.364531540555
 20
2489.561464715632
 30
0.0
 11
3993.364531540555
 21
2489.561464715632
 31
0.0
  0
SOLID
  5
10E5
330
10E0
100
AcDbEntity
  8
0
100
AcDbTrace
 10
3738.364531540555
 20
2491.228131382299
 30
0.0
 11
3738.364531540555
 21
2487.894798048966
 31
0.0
 12
3728.364531540555
 22
2489.561464715632
 32
0.0
 13
3728.364531540555
 23
2489.561464715632
 33
0.0
  0
SOLID
  5
10E6
330
10E0
100
AcDbEntity
  8
0
100
AcDbTrace
 10
3993.364531540555
 20
2491.228131382299
 30
0.0
 11
3993.364531540555
 21
2487.894798048966
 31
0.0
 12
4003.364531540555
 22
2489.561464715632
 32
0.0
 13
4003.364531540555
 23
2489.561464715632
 33
0.0
  0
MTEXT
  5
10E7
330
10E0
100
AcDbEntity
  8
0
100
AcDbMText
 10
3865.864531540555
 20
2499.769658134034
 30
0.0
 40
10.0
 41
0.0
 71
     5
 72
     1
  1
273
  7
SANINDUSA
 73
     1
 44
1.0
1001
ACAD
1000
MTEXTBEGIN
1070
    73
1070
     1
1070
    44
1040
1.0
1070
    74
1070
     0
1000
MTEXTEND
  0
POINT
  5
10E8
330
10E0
100
AcDbEntity
  8
Defpoints
 62
     0
100
AcDbPoint
 10
3728.364531540555
 20
2442.442005188586
 30
0.0
  0
POINT
  5
10E9
330
10E0
100
AcDbEntity
  8
Defpoints
 62
     0
100
AcDbPoint
 10
4003.364531540555
 20
2442.442005188586
 30
0.0
  0
POINT
  5
10EA
330
10E0
100
AcDbEntity
  8
Defpoints
 62
     0
100
AcDbPoint
 10
4003.364531540555
 20
2489.561464715632
 30
0.0
  0
ENDBLK
  5
10EB
330
10E0
100
AcDbEntity
  8
0
100
AcDbBlockEnd
  0
BLOCK
  5
10ED
330
10EC
100
AcDbEntity
  8
0
100
AcDbBlockBegin
  2
*D17
 70
     1
 10
0.0
 20
0.0
 30
0.0
  3
*D17
  1

  0
LINE
  5
10EE
330
10EC
100
AcDbEntity
  8
0
100
AcDbLine
 10
4145.031994729067
 20
2443.096715530929
 30
0.0
 11
4145.031994729067
 21
2504.825511729897
 31
0.0
  0
LINE
  5
10EF
330
10EC
100
AcDbEntity
  8
0
100
AcDbLine
 10
4565.031994729067
 20
2427.977125855107
 30
0.0
 11
4565.031994729067
 21
2504.825511729897
 31
0.0
  0
LINE
  5
10F0
330
10EC
100
AcDbEntity
  8
0
100
AcDbLine
 10
4155.031994729067
 20
2499.825511729897
 30
0.0
 11
4555.031994729067
 21
2499.825511729897
 31
0.0
  0
SOLID
  5
10F1
330
10EC
100
AcDbEntity
  8
0
100
AcDbTrace
 10
4155.031994729067
 20
2501.492178396564
 30
0.0
 11
4155.031994729067
 21
2498.15884506323
 31
0.0
 12
4145.031994729067
 22
2499.825511729897
 32
0.0
 13
4145.031994729067
 23
2499.825511729897
 33
0.0
  0
SOLID
  5
10F2
330
10EC
100
AcDbEntity
  8
0
100
AcDbTrace
 10
4555.031994729067
 20
2501.492178396564
 30
0.0
 11
4555.031994729067
 21
2498.15884506323
 31
0.0
 12
4565.031994729067
 22
2499.825511729897
 32
0.0
 13
4565.031994729067
 23
2499.825511729897
 33
0.0
  0
MTEXT
  5
10F3
330
10EC
100
AcDbEntity
  8
0
100
AcDbMText
 10
4355.031994729067
 20
2510.033705148299
 30
0.0
 40
10.0
 41
0.0
 71
     5
 72
     1
  1
420
  7
SANINDUSA
 73
     1
 44
1.0
1001
ACAD
1000
MTEXTBEGIN
1070
    73
1070
     1
1070
    44
1040
1.0
1070
    74
1070
     0
1000
MTEXTEND
  0
POINT
  5
10F4
330
10EC
100
AcDbEntity
  8
Defpoints
 62
     0
100
AcDbPoint
 10
4145.031994729067
 20
2438.096715530929
 30
0.0
  0
POINT
  5
10F5
330
10EC
100
AcDbEntity
  8
Defpoints
 62
     0
100
AcDbPoint
 10
4565.031994729067
 20
2422.977125855107
 30
0.0
  0
POINT
  5
10F6
330
10EC
100
AcDbEntity
  8
Defpoints
 62
     0
100
AcDbPoint
 10
4565.031994729067
 20
2499.825511729897
 30
0.0
  0
ENDBLK
  5
10F7
330
10EC
100
AcDbEntity
  8
0
100
AcDbBlockEnd
  0
BLOCK
  5
10F9
330
10F8
100
AcDbEntity
  8
0
100
AcDbBlockBegin
  2
*D18
 70
     1
 10
0.0
 20
0.0
 30
0.0
  3
*D18
  1

  0
LINE
  5
10FA
330
10F8
100
AcDbEntity
  8
7
100
AcDbLine
 10
4148.667925587146
 20
2400.877125855107
 30
0.0
 11
4080.031994729067
 21
2400.877125855107
 31
0.0
  0
LINE
  5
10FB
330
10F8
100
AcDbEntity
  8
7
100
AcDbLine
 10
4142.031989245437
 20
2117.877123470922
 30
0.0
 11
4080.031994729067
 21
2117.877123470922
 31
0.0
  0
LINE
  5
10FC
330
10F8
100
AcDbEntity
  8
7
100
AcDbLine
 10
4085.031994729066
 20
2390.877125855107
 30
0.0
 11
4085.031994729066
 21
2127.877123470922
 31
0.0
  0
SOLID
  5
10FD
330
10F8
100
AcDbEntity
  8
7
100
AcDbTrace
 10
4083.3653280624
 20
2390.877125855107
 30
0.0
 11
4086.698661395733
 21
2390.877125855107
 31
0.0
 12
4085.031994729066
 22
2400.877125855107
 32
0.0
 13
4085.031994729066
 23
2400.877125855107
 33
0.0
  0
SOLID
  5
10FE
330
10F8
100
AcDbEntity
  8
7
100
AcDbTrace
 10
4083.3653280624
 20
2127.877123470922
 30
0.0
 11
4086.698661395733
 21
2127.877123470922
 31
0.0
 12
4085.031994729066
 22
2117.877123470922
 32
0.0
 13
4085.031994729066
 23
2117.877123470922
 33
0.0
  0
MTEXT
  5
10FF
330
10F8
100
AcDbEntity
  8
7
100
AcDbMText
 10
4074.803653560497
 20
2259.377124663014
 30
0.0
 40
10.0
 41
0.0
 71
     5
 72
     1
  1
282
  7
SANINDUSA
 11
0.0000000000000001
 21
1.0
 31
0.0
 73
     1
 44
1.0
1001
ACAD
1000
MTEXTBEGIN
1070
    73
1070
     1
1070
    44
1040
1.0
1070
    74
1070
     0
1000
MTEXTEND
  0
POINT
  5
1100
330
10F8
100
AcDbEntity
  8
Defpoints
 62
     0
100
AcDbPoint
 10
4153.667925587146
 20
2400.877125855107
 30
0.0
  0
POINT
  5
1101
330
10F8
100
AcDbEntity
  8
Defpoints
 62
     0
100
AcDbPoint
 10
4147.031989245438
 20
2117.877123470922
 30
0.0
  0
POINT
  5
1102
330
10F8
100
AcDbEntity
  8
Defpoints
 62
     0
100
AcDbPoint
 10
4085.031994729066
 20
2117.877123470922
 30
0.0
  0
ENDBLK
  5
1103
330
10F8
100
AcDbEntity
  8
0
100
AcDbBlockEnd
  0
BLOCK
  5
1105
330
1104
100
AcDbEntity
  8
0
100
AcDbBlockBegin
  2
*D19
 70
     1
 10
0.0
 20
0.0
 30
0.0
  3
*D19
  1

  0
LINE
  5
1106
330
1104
100
AcDbEntity
  8
7
100
AcDbLine
 10
4145.033332880916
 20
2114.803950617847
 30
0.0
 11
4145.033332880916
 21
1936.852710091975
 31
0.0
  0
LINE
  5
1107
330
1104
100
AcDbEntity
  8
7
100
AcDbLine
 10
4513.096572987383
 20
2114.877125855107
 30
0.0
 11
4513.096572987383
 21
1936.852710091975
 31
0.0
  0
LINE
  5
1108
330
1104
100
AcDbEntity
  8
7
100
AcDbLine
 10
4155.033332880916
 20
1941.852710091976
 30
0.0
 11
4503.096572987383
 21
1941.852710091976
 31
0.0
  0
SOLID
  5
1109
330
1104
100
AcDbEntity
  8
7
100
AcDbTrace
 10
4155.033332880916
 20
1943.519376758642
 30
0.0
 11
4155.033332880916
 21
1940.186043425309
 31
0.0
 12
4145.033332880916
 22
1941.852710091976
 32
0.0
 13
4145.033332880916
 23
1941.852710091976
 33
0.0
  0
SOLID
  5
110A
330
1104
100
AcDbEntity
  8
7
100
AcDbTrace
 10
4503.096572987383
 20
1943.519376758642
 30
0.0
 11
4503.096572987383
 21
1940.186043425309
 31
0.0
 12
4513.096572987383
 22
1941.852710091976
 32
0.0
 13
4513.096572987383
 23
1941.852710091976
 33
0.0
  0
MTEXT
  5
110B
330
1104
100
AcDbEntity
  8
7
100
AcDbMText
 10
4329.06495293415
 20
1952.081051260545
 30
0.0
 40
10.0
 41
0.0
 71
     5
 72
     1
  1
368
  7
SANINDUSA
 73
     1
 44
1.0
1001
ACAD
1000
MTEXTBEGIN
1070
    73
1070
     1
1070
    44
1040
1.0
1070
    74
1070
     0
1000
MTEXTEND
  0
POINT
  5
110C
330
1104
100
AcDbEntity
  8
Defpoints
 62
     0
100
AcDbPoint
 10
4145.033332880916
 20
2119.803950617848
 30
0.0
  0
POINT
  5
110D
330
1104
100
AcDbEntity
  8
Defpoints
 62
     0
100
AcDbPoint
 10
4513.096572987383
 20
2119.877125855107
 30
0.0
  0
POINT
  5
110E
330
1104
100
AcDbEntity
  8
Defpoints
 62
     0
100
AcDbPoint
 10
4513.096572987383
 20
1941.852710091976
 30
0.0
  0
ENDBLK
  5
110F
330
1104
100
AcDbEntity
  8
0
100
AcDbBlockEnd
  0
BLOCK
  5
1111
330
1110
100
AcDbEntity
  8
0
100
AcDbBlockBegin
  2
*D20
 70
     1
 10
0.0
 20
0.0
 30
0.0
  3
*D20
  1

  0
LINE
  5
1112
330
1110
100
AcDbEntity
  8
7
100
AcDbLine
 10
4190.031764855588
 20
2043.109176662671
 30
0.0
 11
4190.031764855588
 21
1996.852710091975
 31
0.0
  0
LINE
  5
1113
330
1110
100
AcDbEntity
  8
7
100
AcDbLine
 10
4280.031764856054
 20
2043.109176662671
 30
0.0
 11
4280.031764856054
 21
1996.852710091975
 31
0.0
  0
LINE
  5
1114
330
1110
100
AcDbEntity
  8
7
100
AcDbLine
 10
4200.031764855588
 20
2001.852710091975
 30
0.0
 11
4270.031764856054
 21
2001.852710091975
 31
0.0
  0
LINE
  5
1115
330
1110
100
AcDbEntity
  8
7
100
AcDbLine
 10
4280.031764856054
 20
2001.852710091975
 30
0.0
 11
4324.336667475261
 21
2001.852710091975
 31
0.0
  0
SOLID
  5
1116
330
1110
100
AcDbEntity
  8
7
100
AcDbTrace
 10
4200.031764855588
 20
2003.519376758642
 30
0.0
 11
4200.031764855588
 21
2000.186043425309
 31
0.0
 12
4190.031764855588
 22
2001.852710091975
 32
0.0
 13
4190.031764855588
 23
2001.852710091975
 33
0.0
  0
SOLID
  5
1117
330
1110
100
AcDbEntity
  8
7
100
AcDbTrace
 10
4270.031764856054
 20
2003.519376758642
 30
0.0
 11
4270.031764856054
 21
2000.186043425309
 31
0.0
 12
4280.031764856054
 22
2001.852710091975
 32
0.0
 13
4280.031764856054
 23
2001.852710091975
 33
0.0
  0
MTEXT
  5
1118
330
1110
100
AcDbEntity
  8
7
100
AcDbMText
 10
4307.184216165658
 20
2012.45042668029
 30
0.0
 40
10.0
 41
0.0
 71
     5
 72
     1
  1
ø90
  7
SANINDUSA
 73
     1
 44
1.0
1001
ACAD
1000
MTEXTBEGIN
1070
    73
1070
     1
1070
    44
1040
1.0
1070
    74
1070
     0
1000
MTEXTEND
  0
POINT
  5
1119
330
1110
100
AcDbEntity
  8
Defpoints
 62
     0
100
AcDbPoint
 10
4190.031764855588
 20
2048.109176662672
 30
0.0
  0
POINT
  5
111A
330
1110
100
AcDbEntity
  8
Defpoints
 62
     0
100
AcDbPoint
 10
4280.031764856054
 20
2048.109176662672
 30
0.0
  0
POINT
  5
111B
330
1110
100
AcDbEntity
  8
Defpoints
 62
     0
100
AcDbPoint
 10
4280.031764856054
 20
2001.852710091975
 30
0.0
  0
ENDBLK
  5
111C
330
1110
100
AcDbEntity
  8
0
100
AcDbBlockEnd
  0
BLOCK
  5
111E
330
111D
100
AcDbEntity
  8
0
100
AcDbBlockBegin
  2
*D21
 70
     1
 10
0.0
 20
0.0
 30
0.0
  3
*D21
  1

  0
LINE
  5
111F
330
111D
100
AcDbEntity
  8
7
100
AcDbLine
 10
4145.033332880916
 20
2114.803950617847
 30
0.0
 11
4145.033332880916
 21
1966.852710091975
 31
0.0
  0
LINE
  5
1120
330
111D
100
AcDbEntity
  8
7
100
AcDbLine
 10
4235.031764856286
 20
2026.852710091976
 30
0.0
 11
4235.031764856286
 21
1966.852710091975
 31
0.0
  0
LINE
  5
1121
330
111D
100
AcDbEntity
  8
7
100
AcDbLine
 10
4155.033332880916
 20
1971.852710091975
 30
0.0
 11
4225.031764856287
 21
1971.852710091975
 31
0.0
  0
SOLID
  5
1122
330
111D
100
AcDbEntity
  8
7
100
AcDbTrace
 10
4155.033332880916
 20
1973.519376758642
 30
0.0
 11
4155.033332880916
 21
1970.186043425309
 31
0.0
 12
4145.033332880916
 22
1971.852710091975
 32
0.0
 13
4145.033332880916
 23
1971.852710091975
 33
0.0
  0
SOLID
  5
1123
330
111D
100
AcDbEntity
  8
7
100
AcDbTrace
 10
4225.031764856287
 20
1973.519376758642
 30
0.0
 11
4225.031764856287
 21
1970.186043425309
 31
0.0
 12
4235.031764856286
 22
1971.852710091975
 32
0.0
 13
4235.031764856286
 23
1971.852710091975
 33
0.0
  0
MTEXT
  5
1124
330
111D
100
AcDbEntity
  8
7
100
AcDbMText
 10
4190.032548868601
 20
1982.057545552016
 30
0.0
 40
10.0
 41
0.0
 71
     5
 72
     1
  1
95
  7
SANINDUSA
 73
     1
 44
1.0
1001
ACAD
1000
MTEXTBEGIN
1070
    73
1070
     1
1070
    44
1040
1.0
1070
    74
1070
     0
1000
MTEXTEND
  0
POINT
  5
1125
330
111D
100
AcDbEntity
  8
Defpoints
 62
     0
100
AcDbPoint
 10
4145.033332880916
 20
2119.803950617848
 30
0.0
  0
POINT
  5
1126
330
111D
100
AcDbEntity
  8
Defpoints
 62
     0
100
AcDbPoint
 10
4235.031764856286
 20
2031.852710091976
 30
0.0
  0
POINT
  5
1127
330
111D
100
AcDbEntity
  8
Defpoints
 62
     0
100
AcDbPoint
 10
4235.031764856286
 20
1971.852710091975
 30
0.0
  0
ENDBLK
  5
1128
330
111D
100
AcDbEntity
  8
0
100
AcDbBlockEnd
  0
BLOCK
  5
15F1
330
15E7
100
AcDbEntity
  8
0
100
AcDbBlockBegin
  2
*D23
 70
     1
 10
0.0
 20
0.0
 30
0.0
  3
*D23
  1

  0
LINE
  5
1630
330
15E7
100
AcDbEntity
  8
0
100
AcDbLine
 10
4171.816678198582
 20
1974.267572763968
 30
0.0
 11
4245.786086264764
 21
1974.267572763968
 31
0.0
  0
LINE
  5
1631
330
15E7
100
AcDbEntity
  8
0
100
AcDbLine
 10
4147.175116075419
 20
1854.267572763968
 30
0.0
 11
4245.786086264764
 21
1854.267572763968
 31
0.0
  0
LINE
  5
1632
330
15E7
100
AcDbEntity
  8
0
100
AcDbLine
 10
4244.786086264765
 20
1972.267572763968
 30
0.0
 11
4244.786086264765
 21
1856.267572763968
 31
0.0
  0
SOLID
  5
1633
330
15E7
100
AcDbEntity
  8
0
100
AcDbTrace
 10
4244.452752931432
 20
1972.267572763968
 30
0.0
 11
4245.119419598098
 21
1972.267572763968
 31
0.0
 12
4244.786086264765
 22
1974.267572763968
 32
0.0
 13
4244.786086264765
 23
1974.267572763968
 33
0.0
  0
SOLID
  5
1634
330
15E7
100
AcDbEntity
  8
0
100
AcDbTrace
 10
4244.452752931432
 20
1856.267572763968
 30
0.0
 11
4245.119419598098
 21
1856.267572763968
 31
0.0
 12
4244.786086264765
 22
1854.267572763968
 32
0.0
 13
4244.786086264765
 23
1854.267572763968
 33
0.0
  0
MTEXT
  5
1635
330
15E7
100
AcDbEntity
  8
0
100
AcDbMText
 10
4242.744447581084
 20
1914.267572763969
 30
0.0
 40
2.0
 41
0.0
 71
     5
 72
     1
  1
120
  7
SANINDUSA
 11
0.0000000000000001
 21
1.0
 31
0.0
 73
     1
 44
1.0
1001
ACAD
1000
MTEXTBEGIN
1070
    73
1070
     1
1070
    44
1040
1.0
1070
    74
1070
     0
1000
MTEXTEND
  0
POINT
  5
1636
330
15E7
100
AcDbEntity
  8
Defpoints
 62
     0
100
AcDbPoint
 10
4170.816678198582
 20
1974.267572763968
 30
0.0
  0
POINT
  5
1637
330
15E7
100
AcDbEntity
  8
Defpoints
 62
     0
100
AcDbPoint
 10
4146.175116075419
 20
1854.267572763968
 30
0.0
  0
POINT
  5
1638
330
15E7
100
AcDbEntity
  8
Defpoints
 62
     0
100
AcDbPoint
 10
4244.786086264765
 20
1854.267572763968
 30
0.0
  0
ENDBLK
  5
15F2
330
15E7
100
AcDbEntity
  8
0
100
AcDbBlockEnd
  0
BLOCK
  5
15FD
330
15F3
100
AcDbEntity
  8
0
100
AcDbBlockBegin
  2
*D24
 70
     1
 10
0.0
 20
0.0
 30
0.0
  3
*D24
  1

  0
LINE
  5
165D
330
15F3
100
AcDbEntity
  8
0
100
AcDbLine
 10
4356.453741384532
 20
2513.107491003871
 30
0.0
 11
4356.453741384532
 21
2545.107453531731
 31
0.0
  0
LINE
  5
165E
330
15F3
100
AcDbEntity
  8
0
100
AcDbLine
 10
4381.453737808253
 20
2504.966545793705
 30
0.0
 11
4381.453737808253
 21
2545.107453531731
 31
0.0
  0
LINE
  5
165F
330
15F3
100
AcDbEntity
  8
0
100
AcDbLine
 10
4358.453741384532
 20
2544.10745353173
 30
0.0
 11
4379.453737808253
 21
2544.10745353173
 31
0.0
  0
SOLID
  5
1660
330
15F3
100
AcDbEntity
  8
0
100
AcDbTrace
 10
4358.453741384532
 20
2544.440786865064
 30
0.0
 11
4358.453741384532
 21
2543.774120198397
 31
0.0
 12
4356.453741384532
 22
2544.10745353173
 32
0.0
 13
4356.453741384532
 23
2544.10745353173
 33
0.0
  0
SOLID
  5
1661
330
15F3
100
AcDbEntity
  8
0
100
AcDbTrace
 10
4379.453737808253
 20
2544.440786865064
 30
0.0
 11
4379.453737808253
 21
2543.774120198397
 31
0.0
 12
4381.453737808253
 22
2544.10745353173
 32
0.0
 13
4381.453737808253
 23
2544.10745353173
 33
0.0
  0
MTEXT
  5
1662
330
15F3
100
AcDbEntity
  8
0
100
AcDbMText
 10
4368.953739596392
 20
2546.149092215411
 30
0.0
 40
2.0
 41
0.0
 71
     5
 72
     1
  1
25
  7
SANINDUSA
 73
     1
 44
1.0
1001
ACAD
1000
MTEXTBEGIN
1070
    73
1070
     1
1070
    44
1040
1.0
1070
    74
1070
     0
1000
MTEXTEND
  0
POINT
  5
1663
330
15F3
100
AcDbEntity
  8
Defpoints
 62
     0
100
AcDbPoint
 10
4356.453741384532
 20
2512.107491003871
 30
0.0
  0
POINT
  5
1664
330
15F3
100
AcDbEntity
  8
Defpoints
 62
     0
100
AcDbPoint
 10
4381.453737808253
 20
2503.966545793705
 30
0.0
  0
POINT
  5
1665
330
15F3
100
AcDbEntity
  8
Defpoints
 62
     0
100
AcDbPoint
 10
4381.453737808253
 20
2544.10745353173
 30
0.0
  0
ENDBLK
  5
15FE
330
15F3
100
AcDbEntity
  8
0
100
AcDbBlockEnd
  0
BLOCK
  5
160A
330
15FF
100
AcDbEntity
  8
0
100
AcDbBlockBegin
  2
*D25
 70
     1
 10
0.0
 20
0.0
 30
0.0
  3
*D25
  1

  0
LINE
  5
1666
330
15FF
100
AcDbEntity
  8
0
100
AcDbLine
 10
4380.453741384524
 20
2502.387901328052
 30
0.0
 11
4325.453741384531
 21
2502.387901328052
 31
0.0
  0
LINE
  5
1667
330
15FF
100
AcDbEntity
  8
0
100
AcDbLine
 10
4380.453741384524
 20
2447.387901328052
 30
0.0
 11
4325.453741384531
 21
2447.387901328052
 31
0.0
  0
LINE
  5
1668
330
15FF
100
AcDbEntity
  8
0
100
AcDbLine
 10
4326.453741384531
 20
2449.387901328052
 30
0.0
 11
4326.453741384531
 21
2500.387901328052
 31
0.0
  0
LINE
  5
1669
330
15FF
100
AcDbEntity
  8
0
100
AcDbLine
 10
4326.453741384531
 20
2502.387901328052
 30
0.0
 11
4326.453741384531
 21
2532.930547399241
 31
0.0
  0
SOLID
  5
166A
330
15FF
100
AcDbEntity
  8
0
100
AcDbTrace
 10
4326.120408051198
 20
2449.387901328052
 30
0.0
 11
4326.787074717864
 21
2449.387901328052
 31
0.0
 12
4326.453741384531
 22
2447.387901328052
 32
0.0
 13
4326.453741384531
 23
2447.387901328052
 33
0.0
  0
SOLID
  5
166B
330
15FF
100
AcDbEntity
  8
0
100
AcDbTrace
 10
4326.120408051198
 20
2500.387901328052
 30
0.0
 11
4326.787074717864
 21
2500.387901328052
 31
0.0
 12
4326.453741384531
 22
2502.387901328052
 32
0.0
 13
4326.453741384531
 23
2502.387901328052
 33
0.0
  0
MTEXT
  5
166C
330
15FF
100
AcDbEntity
  8
0
100
AcDbMText
 10
4324.354345817035
 20
2529.506773054043
 30
0.0
 40
2.0
 41
0.0
 71
     5
 72
     1
  1
ø55
  7
SANINDUSA
 11
0.0000000000000001
 21
1.0
 31
0.0
 73
     1
 44
1.0
1001
ACAD
1000
MTEXTBEGIN
1070
    73
1070
     1
1070
    44
1040
1.0
1070
    74
1070
     0
1000
MTEXTEND
  0
POINT
  5
166D
330
15FF
100
AcDbEntity
  8
Defpoints
 62
     0
100
AcDbPoint
 10
4381.453741384524
 20
2502.387901328052
 30
0.0
  0
POINT
  5
166E
330
15FF
100
AcDbEntity
  8
Defpoints
 62
     0
100
AcDbPoint
 10
4381.453741384524
 20
2447.387901328052
 30
0.0
  0
POINT
  5
166F
330
15FF
100
AcDbEntity
  8
Defpoints
 62
     0
100
AcDbPoint
 10
4326.453741384531
 20
2447.387901328052
 30
0.0
  0
ENDBLK
  5
160B
330
15FF
100
AcDbEntity
  8
0
100
AcDbBlockEnd
  0
BLOCK
  5
1616
330
160C
100
AcDbEntity
  8
0
100
AcDbBlockBegin
  2
*D26
 70
     1
 10
0.0
 20
0.0
 30
0.0
  3
*D26
  1

  0
LINE
  5
160D
330
160C
100
AcDbEntity
  8
0
100
AcDbLine
 10
3981.755987958452
 20
2212.352643790007
 30
0.0
 11
3981.755987958452
 21
2180.352778277347
 31
0.0
  0
LINE
  5
160E
330
160C
100
AcDbEntity
  8
0
100
AcDbLine
 10
4172.816184571079
 20
2212.405142527647
 30
0.0
 11
4172.816184571079
 21
2180.352778277347
 31
0.0
  0
LINE
  5
160F
330
160C
100
AcDbEntity
  8
0
100
AcDbLine
 10
3983.755987958453
 20
2181.352778277346
 30
0.0
 11
4170.816184571079
 21
2181.352778277346
 31
0.0
  0
SOLID
  5
1610
330
160C
100
AcDbEntity
  8
0
100
AcDbTrace
 10
3983.755987958453
 20
2181.68611161068
 30
0.0
 11
3983.755987958453
 21
2181.019444944013
 31
0.0
 12
3981.755987958452
 22
2181.352778277346
 32
0.0
 13
3981.755987958452
 23
2181.352778277346
 33
0.0
  0
SOLID
  5
1611
330
160C
100
AcDbEntity
  8
0
100
AcDbTrace
 10
4170.816184571079
 20
2181.68611161068
 30
0.0
 11
4170.816184571079
 21
2181.019444944013
 31
0.0
 12
4172.816184571079
 22
2181.352778277346
 32
0.0
 13
4172.816184571079
 23
2181.352778277346
 33
0.0
  0
MTEXT
  5
1612
330
160C
100
AcDbEntity
  8
0
100
AcDbMText
 10
4077.286086264765
 20
2183.621414946252
 30
0.0
 40
2.0
 41
0.0
 71
     5
 72
     1
  1
191,1
  7
SANINDUSA
 73
     1
 44
1.0
1001
ACAD
1000
MTEXTBEGIN
1070
    73
1070
     1
1070
    44
1040
1.0
1070
    74
1070
     0
1000
MTEXTEND
  0
POINT
  5
1613
330
160C
100
AcDbEntity
  8
Defpoints
 62
     0
100
AcDbPoint
 10
3981.755987958452
 20
2213.352643790007
 30
0.0
  0
POINT
  5
1614
330
160C
100
AcDbEntity
  8
Defpoints
 62
     0
100
AcDbPoint
 10
4172.816184571079
 20
2213.405142527647
 30
0.0
  0
POINT
  5
1615
330
160C
100
AcDbEntity
  8
Defpoints
 62
     0
100
AcDbPoint
 10
4172.816184571079
 20
2181.352778277346
 30
0.0
  0
ENDBLK
  5
1617
330
160C
100
AcDbEntity
  8
0
100
AcDbBlockEnd
  0
BLOCK
  5
1622
330
1618
100
AcDbEntity
  8
0
100
AcDbBlockBegin
  2
*D27
 70
     1
 10
0.0
 20
0.0
 30
0.0
  3
*D27
  1

  0
LINE
  5
1619
330
1618
100
AcDbEntity
  8
0
100
AcDbLine
 10
4171.816873498599
 20
2211.352778277347
 30
0.0
 11
4245.786278196019
 21
2211.352778277347
 31
0.0
  0
LINE
  5
161A
330
1618
100
AcDbEntity
  8
0
100
AcDbLine
 10
4210.886278196017
 20
2521.352780661531
 30
0.0
 11
4245.786278196019
 21
2521.352780661531
 31
0.0
  0
LINE
  5
161B
330
1618
100
AcDbEntity
  8
0
100
AcDbLine
 10
4244.786278196019
 20
2213.352778277347
 30
0.0
 11
4244.786278196019
 21
2519.352780661531
 31
0.0
  0
SOLID
  5
161C
330
1618
100
AcDbEntity
  8
0
100
AcDbTrace
 10
4244.452944862686
 20
2213.352778277347
 30
0.0
 11
4245.119611529353
 21
2213.352778277347
 31
0.0
 12
4244.786278196019
 22
2211.352778277347
 32
0.0
 13
4244.786278196019
 23
2211.352778277347
 33
0.0
  0
SOLID
  5
161D
330
1618
100
AcDbEntity
  8
0
100
AcDbTrace
 10
4244.452944862686
 20
2519.352780661531
 30
0.0
 11
4245.119611529353
 21
2519.352780661531
 31
0.0
 12
4244.786278196019
 22
2521.352780661531
 32
0.0
 13
4244.786278196019
 23
2521.352780661531
 33
0.0
  0
MTEXT
  5
161E
330
1618
100
AcDbEntity
  8
0
100
AcDbMText
 10
4242.744639512338
 20
2366.35277946944
 30
0.0
 40
2.0
 41
0.0
 71
     5
 72
     1
  1
312
  7
SANINDUSA
 11
0.0000000000000001
 21
1.0
 31
0.0
 73
     1
 44
1.0
1001
ACAD
1000
MTEXTBEGIN
1070
    73
1070
     1
1070
    44
1040
1.0
1070
    74
1070
     0
1000
MTEXTEND
  0
POINT
  5
161F
330
1618
100
AcDbEntity
  8
Defpoints
 62
     0
100
AcDbPoint
 10
4170.816873498599
 20
2211.352778277347
 30
0.0
  0
POINT
  5
1620
330
1618
100
AcDbEntity
  8
Defpoints
 62
     0
100
AcDbPoint
 10
4209.886278196018
 20
2521.352780661531
 30
0.0
  0
POINT
  5
1621
330
1618
100
AcDbEntity
  8
Defpoints
 62
     0
100
AcDbPoint
 10
4244.786278196019
 20
2521.352780661531
 30
0.0
  0
ENDBLK
  5
1623
330
1618
100
AcDbEntity
  8
0
100
AcDbBlockEnd
  0
BLOCK
  5
162E
330
1624
100
AcDbEntity
  8
0
100
AcDbBlockBegin
  2
*D28
 70
     1
 10
0.0
 20
0.0
 30
0.0
  3
*D28
  1

  0
LINE
  5
1625
330
1624
100
AcDbEntity
  8
0
100
AcDbLine
 10
4210.886278196017
 20
2521.352780661531
 30
0.0
 11
4245.786278196019
 21
2521.352780661531
 31
0.0
  0
LINE
  5
1626
330
1624
100
AcDbEntity
  8
0
100
AcDbLine
 10
4078.28627819602
 20
2533.572240188576
 30
0.0
 11
4245.786278196019
 21
2533.572240188576
 31
0.0
  0
LINE
  5
1627
330
1624
100
AcDbEntity
  8
0
100
AcDbLine
 10
4244.786278196019
 20
2523.352780661531
 30
0.0
 11
4244.786278196019
 21
2531.572240188575
 31
0.0
  0
SOLID
  5
1628
330
1624
100
AcDbEntity
  8
0
100
AcDbTrace
 10
4244.452944862686
 20
2523.352780661531
 30
0.0
 11
4245.119611529353
 21
2523.352780661531
 31
0.0
 12
4244.786278196019
 22
2521.352780661531
 32
0.0
 13
4244.786278196019
 23
2521.352780661531
 33
0.0
  0
SOLID
  5
1629
330
1624
100
AcDbEntity
  8
0
100
AcDbTrace
 10
4244.452944862686
 20
2531.572240188575
 30
0.0
 11
4245.119611529353
 21
2531.572240188575
 31
0.0
 12
4244.786278196019
 22
2533.572240188576
 32
0.0
 13
4244.786278196019
 23
2533.572240188576
 33
0.0
  0
MTEXT
  5
162A
330
1624
100
AcDbEntity
  8
0
100
AcDbMText
 10
4242.744639512338
 20
2527.462510425054
 30
0.0
 40
2.0
 41
0.0
 71
     5
 72
     1
  1
13
  7
SANINDUSA
 11
0.0000000000000001
 21
1.0
 31
0.0
 73
     1
 44
1.0
1001
ACAD
1000
MTEXTBEGIN
1070
    73
1070
     1
1070
    44
1040
1.0
1070
    74
1070
     0
1000
MTEXTEND
  0
POINT
  5
162B
330
1624
100
AcDbEntity
  8
Defpoints
 62
     0
100
AcDbPoint
 10
4209.886278196018
 20
2521.352780661531
 30
0.0
  0
POINT
  5
162C
330
1624
100
AcDbEntity
  8
Defpoints
 62
     0
100
AcDbPoint
 10
4077.286278196019
 20
2533.572240188576
 30
0.0
  0
POINT
  5
162D
330
1624
100
AcDbEntity
  8
Defpoints
 62
     0
100
AcDbPoint
 10
4244.786278196019
 20
2533.572240188576
 30
0.0
  0
ENDBLK
  5
162F
330
1624
100
AcDbEntity
  8
0
100
AcDbBlockEnd
  0
BLOCK
  5
1643
330
1639
100
AcDbEntity
  8
0
100
AcDbBlockBegin
  2
*D29
 70
     1
 10
0.0
 20
0.0
 30
0.0
  3
*D29
  1

  0
LINE
  5
163A
330
1639
100
AcDbEntity
  8
0
100
AcDbLine
 10
4147.175116075419
 20
1854.267572763968
 30
0.0
 11
4245.786086264764
 21
1854.267572763968
 31
0.0
  0
LINE
  5
163B
330
1639
100
AcDbEntity
  8
0
100
AcDbLine
 10
4078.286086264764
 20
1554.267572763968
 30
0.0
 11
4245.786086264764
 21
1554.267572763968
 31
0.0
  0
LINE
  5
163C
330
1639
100
AcDbEntity
  8
0
100
AcDbLine
 10
4244.786086264765
 20
1852.267572763968
 30
0.0
 11
4244.786086264765
 21
1556.267572763968
 31
0.0
  0
SOLID
  5
163D
330
1639
100
AcDbEntity
  8
0
100
AcDbTrace
 10
4244.452752931432
 20
1852.267572763968
 30
0.0
 11
4245.119419598098
 21
1852.267572763968
 31
0.0
 12
4244.786086264765
 22
1854.267572763968
 32
0.0
 13
4244.786086264765
 23
1854.267572763968
 33
0.0
  0
SOLID
  5
163E
330
1639
100
AcDbEntity
  8
0
100
AcDbTrace
 10
4244.452752931432
 20
1556.267572763968
 30
0.0
 11
4245.119419598098
 21
1556.267572763968
 31
0.0
 12
4244.786086264765
 22
1554.267572763968
 32
0.0
 13
4244.786086264765
 23
1554.267572763968
 33
0.0
  0
MTEXT
  5
163F
330
1639
100
AcDbEntity
  8
0
100
AcDbMText
 10
4242.744447581084
 20
1704.267572763968
 30
0.0
 40
2.0
 41
0.0
 71
     5
 72
     1
  1
300
  7
SANINDUSA
 11
0.0000000000000001
 21
1.0
 31
0.0
 73
     1
 44
1.0
1001
ACAD
1000
MTEXTBEGIN
1070
    73
1070
     1
1070
    44
1040
1.0
1070
    74
1070
     0
1000
MTEXTEND
  0
POINT
  5
1640
330
1639
100
AcDbEntity
  8
Defpoints
 62
     0
100
AcDbPoint
 10
4146.175116075419
 20
1854.267572763968
 30
0.0
  0
POINT
  5
1641
330
1639
100
AcDbEntity
  8
Defpoints
 62
     0
100
AcDbPoint
 10
4077.286086264765
 20
1554.267572763968
 30
0.0
  0
POINT
  5
1642
330
1639
100
AcDbEntity
  8
Defpoints
 62
     0
100
AcDbPoint
 10
4244.786086264765
 20
1554.267572763968
 30
0.0
  0
ENDBLK
  5
1644
330
1639
100
AcDbEntity
  8
0
100
AcDbBlockEnd
  0
BLOCK
  5
164F
330
1645
100
AcDbEntity
  8
0
100
AcDbBlockBegin
  2
*D30
 70
     1
 10
0.0
 20
0.0
 30
0.0
  3
*D30
  1

  0
LINE
  5
1646
330
1645
100
AcDbEntity
  8
0
100
AcDbLine
 10
4133.286086264766
 20
1868.156602574621
 30
0.0
 11
4133.286086264766
 21
2005.267572763967
 31
0.0
  0
LINE
  5
1647
330
1645
100
AcDbEntity
  8
0
100
AcDbLine
 10
4021.286086264766
 20
1868.156602574621
 30
0.0
 11
4021.286086264766
 21
2005.267572763967
 31
0.0
  0
LINE
  5
1648
330
1645
100
AcDbEntity
  8
0
100
AcDbLine
 10
4131.286086264767
 20
2004.267572763967
 30
0.0
 11
4023.286086264766
 21
2004.267572763967
 31
0.0
  0
SOLID
  5
1649
330
1645
100
AcDbEntity
  8
0
100
AcDbTrace
 10
4131.286086264767
 20
2004.6009060973
 30
0.0
 11
4131.286086264767
 21
2003.934239430634
 31
0.0
 12
4133.286086264766
 22
2004.267572763967
 32
0.0
 13
4133.286086264766
 23
2004.267572763967
 33
0.0
  0
SOLID
  5
164A
330
1645
100
AcDbEntity
  8
0
100
AcDbTrace
 10
4023.286086264766
 20
2004.6009060973
 30
0.0
 11
4023.286086264766
 21
2003.934239430634
 31
0.0
 12
4021.286086264766
 22
2004.267572763967
 32
0.0
 13
4021.286086264766
 23
2004.267572763967
 33
0.0
  0
MTEXT
  5
164B
330
1645
100
AcDbEntity
  8
0
100
AcDbMText
 10
4077.286086264766
 20
2006.288392105807
 30
0.0
 40
2.0
 41
0.0
 71
     5
 72
     1
  1
112
  7
SANINDUSA
 73
     1
 44
1.0
1001
ACAD
1000
MTEXTBEGIN
1070
    73
1070
     1
1070
    44
1040
1.0
1070
    74
1070
     0
1000
MTEXTEND
  0
POINT
  5
164C
330
1645
100
AcDbEntity
  8
Defpoints
 62
     0
100
AcDbPoint
 10
4133.286086264766
 20
1867.156602574621
 30
0.0
  0
POINT
  5
164D
330
1645
100
AcDbEntity
  8
Defpoints
 62
     0
100
AcDbPoint
 10
4021.286086264766
 20
1867.156602574621
 30
0.0
  0
POINT
  5
164E
330
1645
100
AcDbEntity
  8
Defpoints
 62
     0
100
AcDbPoint
 10
4021.286086264766
 20
2004.267572763967
 30
0.0
  0
ENDBLK
  5
1650
330
1645
100
AcDbEntity
  8
0
100
AcDbBlockEnd
  0
BLOCK
  5
165B
330
1651
100
AcDbEntity
  8
0
100
AcDbBlockBegin
  2
*D31
 70
     1
 10
0.0
 20
0.0
 30
0.0
  3
*D31
  1

  0
LINE
  5
1652
330
1651
100
AcDbEntity
  8
0
100
AcDbLine
 10
3939.786278196019
 20
2517.452780661529
 30
0.0
 11
3939.786278196019
 21
2564.572240188576
 31
0.0
  0
LINE
  5
1653
330
1651
100
AcDbEntity
  8
0
100
AcDbLine
 10
4214.786278196019
 20
2517.452780661529
 30
0.0
 11
4214.786278196019
 21
2564.572240188576
 31
0.0
  0
LINE
  5
1654
330
1651
100
AcDbEntity
  8
0
100
AcDbLine
 10
3941.786278196019
 20
2563.572240188575
 30
0.0
 11
4212.786278196019
 21
2563.572240188575
 31
0.0
  0
SOLID
  5
1655
330
1651
100
AcDbEntity
  8
0
100
AcDbTrace
 10
3941.786278196019
 20
2563.905573521909
 30
0.0
 11
3941.786278196019
 21
2563.238906855242
 31
0.0
 12
3939.786278196019
 22
2563.572240188575
 32
0.0
 13
3939.786278196019
 23
2563.572240188575
 33
0.0
  0
SOLID
  5
1656
330
1651
100
AcDbEntity
  8
0
100
AcDbTrace
 10
4212.786278196019
 20
2563.905573521909
 30
0.0
 11
4212.786278196019
 21
2563.238906855242
 31
0.0
 12
4214.786278196019
 22
2563.572240188575
 32
0.0
 13
4214.786278196019
 23
2563.572240188575
 33
0.0
  0
MTEXT
  5
1657
330
1651
100
AcDbEntity
  8
0
100
AcDbMText
 10
4077.286278196019
 20
2565.613878872256
 30
0.0
 40
2.0
 41
0.0
 71
     5
 72
     1
  1
273
  7
SANINDUSA
 73
     1
 44
1.0
1001
ACAD
1000
MTEXTBEGIN
1070
    73
1070
     1
1070
    44
1040
1.0
1070
    74
1070
     0
1000
MTEXTEND
  0
POINT
  5
1658
330
1651
100
AcDbEntity
  8
Defpoints
 62
     0
100
AcDbPoint
 10
3939.786278196019
 20
2516.452780661529
 30
0.0
  0
POINT
  5
1659
330
1651
100
AcDbEntity
  8
Defpoints
 62
     0
100
AcDbPoint
 10
4214.786278196019
 20
2516.452780661529
 30
0.0
  0
POINT
  5
165A
330
1651
100
AcDbEntity
  8
Defpoints
 62
     0
100
AcDbPoint
 10
4214.786278196019
 20
2563.572240188575
 30
0.0
  0
ENDBLK
  5
165C
330
1651
100
AcDbEntity
  8
0
100
AcDbBlockEnd
  0
BLOCK
  5
167A
330
1670
100
AcDbEntity
  8
0
100
AcDbBlockBegin
  2
*D32
 70
     1
 10
0.0
 20
0.0
 30
0.0
  3
*D32
  1

  0
LINE
  5
1671
330
1670
100
AcDbEntity
  8
0
100
AcDbLine
 10
4356.453741384532
 20
2513.107491003872
 30
0.0
 11
4356.453741384532
 21
2574.83628720284
 31
0.0
  0
LINE
  5
1672
330
1670
100
AcDbEntity
  8
0
100
AcDbLine
 10
4776.453741384531
 20
2497.987901328051
 30
0.0
 11
4776.453741384531
 21
2574.83628720284
 31
0.0
  0
LINE
  5
1673
330
1670
100
AcDbEntity
  8
0
100
AcDbLine
 10
4358.453741384532
 20
2573.836287202841
 30
0.0
 11
4774.453741384532
 21
2573.836287202841
 31
0.0
  0
SOLID
  5
1674
330
1670
100
AcDbEntity
  8
0
100
AcDbTrace
 10
4358.453741384532
 20
2574.169620536174
 30
0.0
 11
4358.453741384532
 21
2573.502953869507
 31
0.0
 12
4356.453741384532
 22
2573.836287202841
 32
0.0
 13
4356.453741384532
 23
2573.836287202841
 33
0.0
  0
SOLID
  5
1675
330
1670
100
AcDbEntity
  8
0
100
AcDbTrace
 10
4774.453741384532
 20
2574.169620536174
 30
0.0
 11
4774.453741384532
 21
2573.502953869507
 31
0.0
 12
4776.453741384531
 22
2573.836287202841
 32
0.0
 13
4776.453741384531
 23
2573.836287202841
 33
0.0
  0
MTEXT
  5
1676
330
1670
100
AcDbEntity
  8
0
100
AcDbMText
 10
4566.453741384531
 20
2575.877925886521
 30
0.0
 40
2.0
 41
0.0
 71
     5
 72
     1
  1
420
  7
SANINDUSA
 73
     1
 44
1.0
1001
ACAD
1000
MTEXTBEGIN
1070
    73
1070
     1
1070
    44
1040
1.0
1070
    74
1070
     0
1000
MTEXTEND
  0
POINT
  5
1677
330
1670
100
AcDbEntity
  8
Defpoints
 62
     0
100
AcDbPoint
 10
4356.453741384532
 20
2512.107491003872
 30
0.0
  0
POINT
  5
1678
330
1670
100
AcDbEntity
  8
Defpoints
 62
     0
100
AcDbPoint
 10
4776.453741384531
 20
2496.987901328051
 30
0.0
  0
POINT
  5
1679
330
1670
100
AcDbEntity
  8
Defpoints
 62
     0
100
AcDbPoint
 10
4776.453741384531
 20
2573.836287202841
 30
0.0
  0
ENDBLK
  5
167B
330
1670
100
AcDbEntity
  8
0
100
AcDbBlockEnd
  0
BLOCK
  5
1686
330
167C
100
AcDbEntity
  8
0
100
AcDbBlockBegin
  2
*D33
 70
     1
 10
0.0
 20
0.0
 30
0.0
  3
*D33
  1

  0
LINE
  5
167D
330
167C
100
AcDbEntity
  8
7
100
AcDbLine
 10
4364.089672242609
 20
2474.887901328051
 30
0.0
 11
4295.453741384532
 21
2474.887901328051
 31
0.0
  0
LINE
  5
167E
330
167C
100
AcDbEntity
  8
7
100
AcDbLine
 10
4357.453735900903
 20
2191.887898943865
 30
0.0
 11
4295.453741384532
 21
2191.887898943865
 31
0.0
  0
LINE
  5
167F
330
167C
100
AcDbEntity
  8
7
100
AcDbLine
 10
4296.453741384532
 20
2472.88790132805
 30
0.0
 11
4296.453741384532
 21
2193.887898943865
 31
0.0
  0
SOLID
  5
1680
330
167C
100
AcDbEntity
  8
7
100
AcDbTrace
 10
4296.120408051199
 20
2472.88790132805
 30
0.0
 11
4296.787074717864
 21
2472.88790132805
 31
0.0
 12
4296.453741384532
 22
2474.887901328051
 32
0.0
 13
4296.453741384532
 23
2474.887901328051
 33
0.0
  0
SOLID
  5
1681
330
167C
100
AcDbEntity
  8
7
100
AcDbTrace
 10
4296.120408051199
 20
2193.887898943865
 30
0.0
 11
4296.787074717864
 21
2193.887898943865
 31
0.0
 12
4296.453741384532
 22
2191.887898943865
 32
0.0
 13
4296.453741384532
 23
2191.887898943865
 33
0.0
  0
MTEXT
  5
1682
330
167C
100
AcDbEntity
  8
7
100
AcDbMText
 10
4294.408073150817
 20
2333.387900135958
 30
0.0
 40
2.0
 41
0.0
 71
     5
 72
     1
  1
282
  7
SANINDUSA
 11
0.0000000000000001
 21
1.0
 31
0.0
 73
     1
 44
1.0
1001
ACAD
1000
MTEXTBEGIN
1070
    73
1070
     1
1070
    44
1040
1.0
1070
    74
1070
     0
1000
MTEXTEND
  0
POINT
  5
1683
330
167C
100
AcDbEntity
  8
Defpoints
 62
     0
100
AcDbPoint
 10
4365.08967224261
 20
2474.887901328051
 30
0.0
  0
POINT
  5
1684
330
167C
100
AcDbEntity
  8
Defpoints
 62
     0
100
AcDbPoint
 10
4358.453735900902
 20
2191.887898943865
 30
0.0
  0
POINT
  5
1685
330
167C
100
AcDbEntity
  8
Defpoints
 62
     0
100
AcDbPoint
 10
4296.453741384532
 20
2191.887898943865
 30
0.0
  0
ENDBLK
  5
1687
330
167C
100
AcDbEntity
  8
0
100
AcDbBlockEnd
  0
BLOCK
  5
1692
330
1688
100
AcDbEntity
  8
0
100
AcDbBlockBegin
  2
*D34
 70
     1
 10
0.0
 20
0.0
 30
0.0
  3
*D34
  1

  0
LINE
  5
1689
330
1688
100
AcDbEntity
  8
7
100
AcDbLine
 10
4356.455079536379
 20
2192.814726090791
 30
0.0
 11
4356.455079536379
 21
2014.863485564919
 31
0.0
  0
LINE
  5
168A
330
1688
100
AcDbEntity
  8
7
100
AcDbLine
 10
4724.518319642847
 20
2192.887901328051
 30
0.0
 11
4724.518319642847
 21
2014.863485564919
 31
0.0
  0
LINE
  5
168B
330
1688
100
AcDbEntity
  8
7
100
AcDbLine
 10
4358.455079536379
 20
2015.863485564919
 30
0.0
 11
4722.518319642848
 21
2015.863485564919
 31
0.0
  0
SOLID
  5
168C
330
1688
100
AcDbEntity
  8
7
100
AcDbTrace
 10
4358.455079536379
 20
2016.196818898252
 30
0.0
 11
4358.455079536379
 21
2015.530152231586
 31
0.0
 12
4356.455079536379
 22
2015.863485564919
 32
0.0
 13
4356.455079536379
 23
2015.863485564919
 33
0.0
  0
SOLID
  5
168D
330
1688
100
AcDbEntity
  8
7
100
AcDbTrace
 10
4722.518319642848
 20
2016.196818898252
 30
0.0
 11
4722.518319642848
 21
2015.530152231586
 31
0.0
 12
4724.518319642847
 22
2015.863485564919
 32
0.0
 13
4724.518319642847
 23
2015.863485564919
 33
0.0
  0
MTEXT
  5
168E
330
1688
100
AcDbEntity
  8
7
100
AcDbMText
 10
4540.486699589613
 20
2018.134808600513
 30
0.0
 40
2.0
 41
0.0
 71
     5
 72
     1
  1
368,1
  7
SANINDUSA
 73
     1
 44
1.0
1001
ACAD
1000
MTEXTBEGIN
1070
    73
1070
     1
1070
    44
1040
1.0
1070
    74
1070
     0
1000
MTEXTEND
  0
POINT
  5
168F
330
1688
100
AcDbEntity
  8
Defpoints
 62
     0
100
AcDbPoint
 10
4356.455079536379
 20
2193.814726090791
 30
0.0
  0
POINT
  5
1690
330
1688
100
AcDbEntity
  8
Defpoints
 62
     0
100
AcDbPoint
 10
4724.518319642847
 20
2193.88790132805
 30
0.0
  0
POINT
  5
1691
330
1688
100
AcDbEntity
  8
Defpoints
 62
     0
100
AcDbPoint
 10
4724.518319642847
 20
2015.863485564919
 30
0.0
  0
ENDBLK
  5
1693
330
1688
100
AcDbEntity
  8
0
100
AcDbBlockEnd
  0
BLOCK
  5
169F
330
1694
100
AcDbEntity
  8
0
100
AcDbBlockBegin
  2
*D35
 70
     1
 10
0.0
 20
0.0
 30
0.0
  3
*D35
  1

  0
LINE
  5
1695
330
1694
100
AcDbEntity
  8
7
100
AcDbLine
 10
4401.453511511052
 20
2121.119952135614
 30
0.0
 11
4401.453511511052
 21
2074.863485564919
 31
0.0
  0
LINE
  5
1696
330
1694
100
AcDbEntity
  8
7
100
AcDbLine
 10
4491.453511511518
 20
2121.119952135614
 30
0.0
 11
4491.453511511518
 21
2074.863485564919
 31
0.0
  0
LINE
  5
1697
330
1694
100
AcDbEntity
  8
7
100
AcDbLine
 10
4403.453511511052
 20
2075.863485564919
 30
0.0
 11
4489.453511511517
 21
2075.863485564919
 31
0.0
  0
LINE
  5
1698
330
1694
100
AcDbEntity
  8
7
100
AcDbLine
 10
4491.453511511518
 20
2075.863485564919
 30
0.0
 11
4522.036453083043
 21
2075.863485564919
 31
0.0
  0
SOLID
  5
1699
330
1694
100
AcDbEntity
  8
7
100
AcDbTrace
 10
4403.453511511052
 20
2076.196818898253
 30
0.0
 11
4403.453511511052
 21
2075.530152231586
 31
0.0
 12
4401.453511511052
 22
2075.863485564919
 32
0.0
 13
4401.453511511052
 23
2075.863485564919
 33
0.0
  0
SOLID
  5
169A
330
1694
100
AcDbEntity
  8
7
100
AcDbTrace
 10
4489.453511511517
 20
2076.196818898253
 30
0.0
 11
4489.453511511517
 21
2075.530152231586
 31
0.0
 12
4491.453511511518
 22
2075.863485564919
 32
0.0
 13
4491.453511511518
 23
2075.863485564919
 33
0.0
  0
MTEXT
  5
169B
330
1694
100
AcDbEntity
  8
7
100
AcDbMText
 10
4518.605962821122
 20
2077.983028882582
 30
0.0
 40
2.0
 41
0.0
 71
     5
 72
     1
  1
ø90
  7
SANINDUSA
 73
     1
 44
1.0
1001
ACAD
1000
MTEXTBEGIN
1070
    73
1070
     1
1070
    44
1040
1.0
1070
    74
1070
     0
1000
MTEXTEND
  0
POINT
  5
169C
330
1694
100
AcDbEntity
  8
Defpoints
 62
     0
100
AcDbPoint
 10
4401.453511511052
 20
2122.119952135615
 30
0.0
  0
POINT
  5
169D
330
1694
100
AcDbEntity
  8
Defpoints
 62
     0
100
AcDbPoint
 10
4491.453511511518
 20
2122.119952135615
 30
0.0
  0
POINT
  5
169E
330
1694
100
AcDbEntity
  8
Defpoints
 62
     0
100
AcDbPoint
 10
4491.453511511518
 20
2075.863485564919
 30
0.0
  0
ENDBLK
  5
16A0
330
1694
100
AcDbEntity
  8
0
100
AcDbBlockEnd
  0
BLOCK
  5
16AB
330
16A1
100
AcDbEntity
  8
0
100
AcDbBlockBegin
  2
*D36
 70
     1
 10
0.0
 20
0.0
 30
0.0
  3
*D36
  1

  0
LINE
  5
16A2
330
16A1
100
AcDbEntity
  8
7
100
AcDbLine
 10
4356.455079536379
 20
2192.814726090791
 30
0.0
 11
4356.455079536379
 21
2044.863485564919
 31
0.0
  0
LINE
  5
16A3
330
16A1
100
AcDbEntity
  8
7
100
AcDbLine
 10
4446.453511511751
 20
2104.863485564919
 30
0.0
 11
4446.453511511751
 21
2044.863485564919
 31
0.0
  0
LINE
  5
16A4
330
16A1
100
AcDbEntity
  8
7
100
AcDbLine
 10
4358.455079536379
 20
2045.863485564919
 30
0.0
 11
4444.45351151175
 21
2045.863485564919
 31
0.0
  0
SOLID
  5
16A5
330
16A1
100
AcDbEntity
  8
7
100
AcDbTrace
 10
4358.455079536379
 20
2046.196818898252
 30
0.0
 11
4358.455079536379
 21
2045.530152231586
 31
0.0
 12
4356.455079536379
 22
2045.863485564919
 32
0.0
 13
4356.455079536379
 23
2045.863485564919
 33
0.0
  0
SOLID
  5
16A6
330
16A1
100
AcDbEntity
  8
7
100
AcDbTrace
 10
4444.45351151175
 20
2046.196818898252
 30
0.0
 11
4444.45351151175
 21
2045.530152231586
 31
0.0
 12
4446.453511511751
 22
2045.863485564919
 32
0.0
 13
4446.453511511751
 23
2045.863485564919
 33
0.0
  0
MTEXT
  5
16A7
330
16A1
100
AcDbEntity
  8
7
100
AcDbMText
 10
4401.454295524064
 20
2047.904452656927
 30
0.0
 40
2.0
 41
0.0
 71
     5
 72
     1
  1
95
  7
SANINDUSA
 73
     1
 44
1.0
1001
ACAD
1000
MTEXTBEGIN
1070
    73
1070
     1
1070
    44
1040
1.0
1070
    74
1070
     0
1000
MTEXTEND
  0
POINT
  5
16A8
330
16A1
100
AcDbEntity
  8
Defpoints
 62
     0
100
AcDbPoint
 10
4356.455079536379
 20
2193.814726090791
 30
0.0
  0
POINT
  5
16A9
330
16A1
100
AcDbEntity
  8
Defpoints
 62
     0
100
AcDbPoint
 10
4446.453511511751
 20
2105.863485564919
 30
0.0
  0
POINT
  5
16AA
330
16A1
100
AcDbEntity
  8
Defpoints
 62
     0
100
AcDbPoint
 10
4446.453511511751
 20
2045.863485564919
 30
0.0
  0
ENDBLK
  5
16AC
330
16A1
100
AcDbEntity
  8
0
100
AcDbBlockEnd
  0
BLOCK
  5
16B0
330
16AF
100
AcDbEntity
  8
0
100
AcDbBlockBegin
  2
*D37
 70
     1
 10
0.0
 20
0.0
 30
0.0
  3
*D37
  1

  0
LINE
  5
16B1
330
16AF
100
AcDbEntity
  8
cotas
100
AcDbLine
 10
3904.135550691503
 20
1499.615244433453
 30
0.0
 11
3904.135550691503
 21
1472.615242049269
 31
0.0
  0
LINE
  5
16B2
330
16AF
100
AcDbEntity
  8
cotas
100
AcDbLine
 10
4064.135550691502
 20
1534.7262146228
 30
0.0
 11
4064.135550691502
 21
1472.615242049269
 31
0.0
  0
LINE
  5
16B3
330
16AF
100
AcDbEntity
  8
cotas
100
AcDbLine
 10
3914.135550691503
 20
1477.615242049269
 30
0.0
 11
4054.135550691502
 21
1477.615242049269
 31
0.0
  0
SOLID
  5
16B4
330
16AF
100
AcDbEntity
  8
cotas
100
AcDbTrace
 10
3914.135550691503
 20
1479.281908715936
 30
0.0
 11
3914.135550691503
 21
1475.948575382602
 31
0.0
 12
3904.135550691503
 22
1477.615242049269
 32
0.0
 13
3904.135550691503
 23
1477.615242049269
 33
0.0
  0
SOLID
  5
16B5
330
16AF
100
AcDbEntity
  8
cotas
100
AcDbTrace
 10
4054.135550691502
 20
1479.281908715936
 30
0.0
 11
4054.135550691502
 21
1475.948575382602
 31
0.0
 12
4064.135550691502
 22
1477.615242049269
 32
0.0
 13
4064.135550691502
 23
1477.615242049269
 33
0.0
  0
MTEXT
  5
16B6
330
16AF
100
AcDbEntity
  8
cotas
100
AcDbMText
 10
3984.135550691502
 20
1487.820077509309
 30
0.0
 40
10.0
 41
0.0
 71
     5
 72
     1
  1
160
  7
SANINDUSA
 73
     1
 44
1.0
1001
ACAD
1000
MTEXTBEGIN
1070
    73
1070
     1
1070
    44
1040
1.0
1070
    74
1070
     0
1000
MTEXTEND
  0
POINT
  5
16B7
330
16AF
100
AcDbEntity
  8
Defpoints
 62
     0
100
AcDbPoint
 10
3904.135550691503
 20
1504.615244433453
 30
0.0
  0
POINT
  5
16B8
330
16AF
100
AcDbEntity
  8
Defpoints
 62
     0
100
AcDbPoint
 10
4064.135550691502
 20
1539.7262146228
 30
0.0
  0
POINT
  5
16B9
330
16AF
100
AcDbEntity
  8
Defpoints
 62
     0
100
AcDbPoint
 10
4064.135550691502
 20
1477.615242049269
 30
0.0
  0
ENDBLK
  5
16BA
330
16AF
100
AcDbEntity
  8
0
100
AcDbBlockEnd
  0
BLOCK
  5
16BC
330
16BB
100
AcDbEntity
  8
0
100
AcDbBlockBegin
  2
*D38
 70
     1
 10
0.0
 20
0.0
 30
0.0
  3
*D38
  1

  0
LINE
  5
16BD
330
16BB
100
AcDbEntity
  8
cotas
100
AcDbLine
 10
3901.135550691503
 20
1502.615244433453
 30
0.0
 11
3874.135550691503
 21
1502.615244433453
 31
0.0
  0
LINE
  5
16BE
330
16BB
100
AcDbEntity
  8
cotas
100
AcDbLine
 10
4046.24652088085
 20
1552.615244433453
 30
0.0
 11
3874.135550691503
 21
1552.615244433453
 31
0.0
  0
LINE
  5
16BF
330
16BB
100
AcDbEntity
  8
cotas
100
AcDbLine
 10
3879.135550691503
 20
1512.615244433453
 30
0.0
 11
3879.135550691503
 21
1542.615244433453
 31
0.0
  0
SOLID
  5
16C0
330
16BB
100
AcDbEntity
  8
cotas
100
AcDbTrace
 10
3877.468884024836
 20
1512.615244433453
 30
0.0
 11
3880.802217358169
 21
1512.615244433453
 31
0.0
 12
3879.135550691503
 22
1502.615244433453
 32
0.0
 13
3879.135550691503
 23
1502.615244433453
 33
0.0
  0
SOLID
  5
16C1
330
16BB
100
AcDbEntity
  8
cotas
100
AcDbTrace
 10
3877.468884024836
 20
1542.615244433453
 30
0.0
 11
3880.802217358169
 21
1542.615244433453
 31
0.0
 12
3879.135550691503
 22
1552.615244433453
 32
0.0
 13
3879.135550691503
 23
1552.615244433453
 33
0.0
  0
MTEXT
  5
16C2
330
16BB
100
AcDbEntity
  8
cotas
100
AcDbMText
 10
3868.930715231462
 20
1527.615244433454
 30
0.0
 40
10.0
 41
0.0
 71
     5
 72
     1
  1
50
  7
SANINDUSA
 11
0.0000000000000001
 21
1.0
 31
0.0
 73
     1
 44
1.0
1001
ACAD
1000
MTEXTBEGIN
1070
    73
1070
     1
1070
    44
1040
1.0
1070
    74
1070
     0
1000
MTEXTEND
  0
POINT
  5
16C3
330
16BB
100
AcDbEntity
  8
Defpoints
 62
     0
100
AcDbPoint
 10
3906.135550691503
 20
1502.615244433453
 30
0.0
  0
POINT
  5
16C4
330
16BB
100
AcDbEntity
  8
Defpoints
 62
     0
100
AcDbPoint
 10
4051.24652088085
 20
1552.615244433453
 30
0.0
  0
POINT
  5
16C5
330
16BB
100
AcDbEntity
  8
Defpoints
 62
     0
100
AcDbPoint
 10
3879.135550691503
 20
1552.615244433453
 30
0.0
  0
ENDBLK
  5
16C6
330
16BB
100
AcDbEntity
  8
0
100
AcDbBlockEnd
  0
BLOCK
  5
16C8
330
16C7
100
AcDbEntity
  8
0
100
AcDbBlockBegin
  2
*D39
 70
     1
 10
0.0
 20
0.0
 30
0.0
  3
*D39
  1

  0
LINE
  5
16C9
330
16C7
100
AcDbEntity
  8
cotas
100
AcDbLine
 10
3904.135550691503
 20
1499.615244433453
 30
0.0
 11
3904.135550691503
 21
1447.615242049269
 31
0.0
  0
LINE
  5
16CA
330
16C7
100
AcDbEntity
  8
cotas
100
AcDbLine
 10
4272.200128949811
 20
1499.615244433453
 30
0.0
 11
4272.200128949811
 21
1447.615242049269
 31
0.0
  0
LINE
  5
16CB
330
16C7
100
AcDbEntity
  8
cotas
100
AcDbLine
 10
3914.135550691503
 20
1452.615242049269
 30
0.0
 11
4262.200128949811
 21
1452.615242049269
 31
0.0
  0
SOLID
  5
16CC
330
16C7
100
AcDbEntity
  8
cotas
100
AcDbTrace
 10
3914.135550691503
 20
1454.281908715936
 30
0.0
 11
3914.135550691503
 21
1450.948575382602
 31
0.0
 12
3904.135550691503
 22
1452.615242049269
 32
0.0
 13
3904.135550691503
 23
1452.615242049269
 33
0.0
  0
SOLID
  5
16CD
330
16C7
100
AcDbEntity
  8
cotas
100
AcDbTrace
 10
4262.200128949811
 20
1454.281908715936
 30
0.0
 11
4262.200128949811
 21
1450.948575382602
 31
0.0
 12
4272.200128949811
 22
1452.615242049269
 32
0.0
 13
4272.200128949811
 23
1452.615242049269
 33
0.0
  0
MTEXT
  5
16CE
330
16C7
100
AcDbEntity
  8
cotas
100
AcDbMText
 10
4088.167839820656
 20
1462.843583217838
 30
0.0
 40
10.0
 41
0.0
 71
     5
 72
     1
  1
368
  7
SANINDUSA
 73
     1
 44
1.0
1001
ACAD
1000
MTEXTBEGIN
1070
    73
1070
     1
1070
    44
1040
1.0
1070
    74
1070
     0
1000
MTEXTEND
  0
POINT
  5
16CF
330
16C7
100
AcDbEntity
  8
Defpoints
 62
     0
100
AcDbPoint
 10
3904.135550691503
 20
1504.615244433453
 30
0.0
  0
POINT
  5
16D0
330
16C7
100
AcDbEntity
  8
Defpoints
 62
     0
100
AcDbPoint
 10
4272.200128949811
 20
1504.615244433453
 30
0.0
  0
POINT
  5
16D1
330
16C7
100
AcDbEntity
  8
Defpoints
 62
     0
100
AcDbPoint
 10
4272.200128949811
 20
1452.615242049269
 30
0.0
  0
ENDBLK
  5
16D2
330
16C7
100
AcDbEntity
  8
0
100
AcDbBlockEnd
  0
BLOCK
  5
16D4
330
16D3
100
AcDbEntity
  8
0
100
AcDbBlockBegin
  2
*D40
 70
     1
 10
0.0
 20
0.0
 30
0.0
  3
*D40
  1

  0
LINE
  5
16D5
330
16D3
100
AcDbEntity
  8
cotas
100
AcDbLine
 10
3901.135545207873
 20
1502.615242049269
 30
0.0
 11
3849.135550691503
 21
1502.615242049269
 31
0.0
  0
LINE
  5
16D6
330
16D3
100
AcDbEntity
  8
cotas
100
AcDbLine
 10
3901.135550691503
 20
1824.834834109273
 30
0.0
 11
3849.135550691503
 21
1824.834834109273
 31
0.0
  0
LINE
  5
16D7
330
16D3
100
AcDbEntity
  8
cotas
100
AcDbLine
 10
3854.135550691502
 20
1512.615242049269
 30
0.0
 11
3854.135550691502
 21
1814.834834109273
 31
0.0
  0
SOLID
  5
16D8
330
16D3
100
AcDbEntity
  8
cotas
100
AcDbTrace
 10
3852.468884024836
 20
1512.615242049269
 30
0.0
 11
3855.802217358169
 21
1512.615242049269
 31
0.0
 12
3854.135550691502
 22
1502.615242049269
 32
0.0
 13
3854.135550691502
 23
1502.615242049269
 33
0.0
  0
SOLID
  5
16D9
330
16D3
100
AcDbEntity
  8
cotas
100
AcDbTrace
 10
3852.468884024836
 20
1814.834834109273
 30
0.0
 11
3855.802217358169
 21
1814.834834109273
 31
0.0
 12
3854.135550691502
 22
1824.834834109273
 32
0.0
 13
3854.135550691502
 23
1824.834834109273
 33
0.0
  0
MTEXT
  5
16DA
330
16D3
100
AcDbEntity
  8
cotas
100
AcDbMText
 10
3843.927357273101
 20
1663.725038079272
 30
0.0
 40
10.0
 41
0.0
 71
     5
 72
     1
  1
322
  7
SANINDUSA
 11
0.0000000000000001
 21
1.0
 31
0.0
 73
     1
 44
1.0
1001
ACAD
1000
MTEXTBEGIN
1070
    73
1070
     1
1070
    44
1040
1.0
1070
    74
1070
     0
1000
MTEXTEND
  0
POINT
  5
16DB
330
16D3
100
AcDbEntity
  8
Defpoints
 62
     0
100
AcDbPoint
 10
3906.135545207872
 20
1502.615242049269
 30
0.0
  0
POINT
  5
16DC
330
16D3
100
AcDbEntity
  8
Defpoints
 62
     0
100
AcDbPoint
 10
3906.135550691503
 20
1824.834834109273
 30
0.0
  0
POINT
  5
16DD
330
16D3
100
AcDbEntity
  8
Defpoints
 62
     0
100
AcDbPoint
 10
3854.135550691502
 20
1824.834834109273
 30
0.0
  0
ENDBLK
  5
16DE
330
16D3
100
AcDbEntity
  8
0
100
AcDbBlockEnd
  0
BLOCK
  5
16E0
330
16DF
100
AcDbEntity
  8
0
100
AcDbBlockBegin
  2
*D41
 70
     1
 10
0.0
 20
0.0
 30
0.0
  3
*D41
  1

  0
LINE
  5
16E1
330
16DF
100
AcDbEntity
  8
cotas
100
AcDbLine
 10
3904.135550691503
 20
1827.834834109273
 30
0.0
 11
3904.135550691503
 21
1854.847114589711
 31
0.0
  0
LINE
  5
16E2
330
16DF
100
AcDbEntity
  8
cotas
100
AcDbLine
 10
3981.23891549878
 20
1824.405637681948
 30
0.0
 11
3981.23891549878
 21
1854.847114589711
 31
0.0
  0
LINE
  5
16E3
330
16DF
100
AcDbEntity
  8
cotas
100
AcDbLine
 10
3914.135550691503
 20
1849.847114589711
 30
0.0
 11
3971.23891549878
 21
1849.847114589711
 31
0.0
  0
SOLID
  5
16E4
330
16DF
100
AcDbEntity
  8
cotas
100
AcDbTrace
 10
3914.135550691503
 20
1851.513781256378
 30
0.0
 11
3914.135550691503
 21
1848.180447923044
 31
0.0
 12
3904.135550691503
 22
1849.847114589711
 32
0.0
 13
3904.135550691503
 23
1849.847114589711
 33
0.0
  0
SOLID
  5
16E5
330
16DF
100
AcDbEntity
  8
cotas
100
AcDbTrace
 10
3971.23891549878
 20
1851.513781256378
 30
0.0
 11
3971.23891549878
 21
1848.180447923044
 31
0.0
 12
3981.23891549878
 22
1849.847114589711
 32
0.0
 13
3981.23891549878
 23
1849.847114589711
 33
0.0
  0
MTEXT
  5
16E6
330
16DF
100
AcDbEntity
  8
cotas
100
AcDbMText
 10
3942.687233095141
 20
1859.847114589711
 30
0.0
 40
10.0
 41
0.0
 71
     5
 72
     1
  1
77
  7
SANINDUSA
 73
     1
 44
1.0
1001
ACAD
1000
MTEXTBEGIN
1070
    73
1070
     1
1070
    44
1040
1.0
1070
    74
1070
     0
1000
MTEXTEND
  0
POINT
  5
16E7
330
16DF
100
AcDbEntity
  8
Defpoints
 62
     0
100
AcDbPoint
 10
3904.135550691503
 20
1822.834834109273
 30
0.0
  0
POINT
  5
16E8
330
16DF
100
AcDbEntity
  8
Defpoints
 62
     0
100
AcDbPoint
 10
3981.23891549878
 20
1819.405637681948
 30
0.0
  0
POINT
  5
16E9
330
16DF
100
AcDbEntity
  8
Defpoints
 62
     0
100
AcDbPoint
 10
3981.23891549878
 20
1849.847114589711
 30
0.0
  0
ENDBLK
  5
16EA
330
16DF
100
AcDbEntity
  8
0
100
AcDbBlockEnd
  0
BLOCK
  5
16EC
330
16EB
100
AcDbEntity
  8
0
100
AcDbBlockBegin
  2
*D42
 70
     1
 10
0.0
 20
0.0
 30
0.0
  3
*D42
  1

  0
LINE
  5
16ED
330
16EB
100
AcDbEntity
  8
cotas
100
AcDbLine
 10
3904.135550691503
 20
1827.834834109273
 30
0.0
 11
3904.135550691503
 21
1879.847114589711
 31
0.0
  0
LINE
  5
16EE
330
16EB
100
AcDbEntity
  8
cotas
100
AcDbLine
 10
4324.1355506915
 20
1812.715244433451
 30
0.0
 11
4324.1355506915
 21
1879.847114589711
 31
0.0
  0
LINE
  5
16EF
330
16EB
100
AcDbEntity
  8
cotas
100
AcDbLine
 10
3914.135550691503
 20
1874.847114589711
 30
0.0
 11
4314.1355506915
 21
1874.847114589711
 31
0.0
  0
SOLID
  5
16F0
330
16EB
100
AcDbEntity
  8
cotas
100
AcDbTrace
 10
3914.135550691503
 20
1876.513781256378
 30
0.0
 11
3914.135550691503
 21
1873.180447923044
 31
0.0
 12
3904.135550691503
 22
1874.847114589711
 32
0.0
 13
3904.135550691503
 23
1874.847114589711
 33
0.0
  0
SOLID
  5
16F1
330
16EB
100
AcDbEntity
  8
cotas
100
AcDbTrace
 10
4314.1355506915
 20
1876.513781256378
 30
0.0
 11
4314.1355506915
 21
1873.180447923044
 31
0.0
 12
4324.1355506915
 22
1874.847114589711
 32
0.0
 13
4324.1355506915
 23
1874.847114589711
 33
0.0
  0
MTEXT
  5
16F2
330
16EB
100
AcDbEntity
  8
cotas
100
AcDbMText
 10
4114.135550691502
 20
1885.055308008113
 30
0.0
 40
10.0
 41
0.0
 71
     5
 72
     1
  1
420
  7
SANINDUSA
 73
     1
 44
1.0
1001
ACAD
1000
MTEXTBEGIN
1070
    73
1070
     1
1070
    44
1040
1.0
1070
    74
1070
     0
1000
MTEXTEND
  0
POINT
  5
16F3
330
16EB
100
AcDbEntity
  8
Defpoints
 62
     0
100
AcDbPoint
 10
3904.135550691503
 20
1822.834834109273
 30
0.0
  0
POINT
  5
16F4
330
16EB
100
AcDbEntity
  8
Defpoints
 62
     0
100
AcDbPoint
 10
4324.1355506915
 20
1807.715244433451
 30
0.0
  0
POINT
  5
16F5
330
16EB
100
AcDbEntity
  8
Defpoints
 62
     0
100
AcDbPoint
 10
4324.1355506915
 20
1874.847114589711
 30
0.0
  0
ENDBLK
  5
16F6
330
16EB
100
AcDbEntity
  8
0
100
AcDbBlockEnd
  0
BLOCK
  5
16F8
330
16F7
100
AcDbEntity
  8
0
100
AcDbBlockBegin
  2
*D43
 70
     1
 10
0.0
 20
0.0
 30
0.0
  3
*D43
  1

  0
LINE
  5
16F9
330
16F7
100
AcDbEntity
  8
cotas
100
AcDbLine
 10
4214.380932552424
 20
1606.445380414038
 30
0.0
 11
4261.426936646451
 21
1593.291030899976
 31
0.0
  0
MTEXT
  5
16FA
330
16F7
100
AcDbEntity
  8
cotas
100
AcDbMText
 10
4233.855628745621
 20
1611.599857770105
 30
0.0
 40
10.0
 41
0.0
 71
     5
 72
     1
  1
R25
  7
SANINDUSA
 11
0.9630624525821588
 21
-0.2692781320984625
 31
0.0
 73
     1
 44
1.0
1001
ACAD
1000
MTEXTBEGIN
1070
    73
1070
     1
1070
    44
1040
1.0
1070
    74
1070
     0
1000
MTEXTEND
  0
LINE
  5
16FB
330
16F7
100
AcDbEntity
  8
cotas
100
AcDbLine
 10
4295.134122517967
 20
1583.866296267823
 30
0.0
 11
4271.057561172272
 21
1590.598249578991
 31
0.0
  0
SOLID
  5
16FC
330
16F7
100
AcDbEntity
  8
cotas
100
AcDbTrace
 10
4261.875733533282
 20
1594.896134987612
 30
0.0
 11
4260.978139759621
 21
1591.685926812339
 31
0.0
 12
4271.057561172272
 22
1590.598249578991
 32
0.0
 13
4271.057561172272
 23
1590.598249578991
 33
0.0
  0
POINT
  5
16FD
330
16F7
100
AcDbEntity
  8
Defpoints
 62
     0
100
AcDbPoint
 10
4271.057561172272
 20
1590.598249578991
 30
0.0
  0
POINT
  5
16FE
330
16F7
100
AcDbEntity
  8
Defpoints
 62
     0
100
AcDbPoint
 10
4295.134122517967
 20
1583.866296267823
 30
0.0
  0
ENDBLK
  5
16FF
330
16F7
100
AcDbEntity
  8
0
100
AcDbBlockEnd
  0
BLOCK
  5
1701
330
1700
100
AcDbEntity
  8
0
100
AcDbBlockBegin
  2
*D44
 70
     1
 10
0.0
 20
0.0
 30
0.0
  3
*D44
  1

  0
LINE
  5
1702
330
1700
100
AcDbEntity
  8
cotas
100
AcDbLine
 10
4274.823970394655
 20
1595.383265384297
 30
0.0
 11
4354.135550691502
 21
1595.383265384297
 31
0.0
  0
LINE
  5
1703
330
1700
100
AcDbEntity
  8
cotas
100
AcDbLine
 10
4275.200128949811
 20
1502.615244433453
 30
0.0
 11
4354.135550691502
 21
1502.615244433453
 31
0.0
  0
LINE
  5
1704
330
1700
100
AcDbEntity
  8
cotas
100
AcDbLine
 10
4349.135550691502
 20
1585.383265384297
 30
0.0
 11
4349.135550691502
 21
1512.615244433453
 31
0.0
  0
SOLID
  5
1705
330
1700
100
AcDbEntity
  8
cotas
100
AcDbTrace
 10
4347.468884024835
 20
1585.383265384297
 30
0.0
 11
4350.802217358169
 21
1585.383265384297
 31
0.0
 12
4349.135550691502
 22
1595.383265384297
 32
0.0
 13
4349.135550691502
 23
1595.383265384297
 33
0.0
  0
SOLID
  5
1706
330
1700
100
AcDbEntity
  8
cotas
100
AcDbTrace
 10
4347.468884024835
 20
1512.615244433453
 30
0.0
 11
4350.802217358169
 21
1512.615244433453
 31
0.0
 12
4349.135550691502
 22
1502.615244433453
 32
0.0
 13
4349.135550691502
 23
1502.615244433453
 33
0.0
  0
MTEXT
  5
1707
330
1700
100
AcDbEntity
  8
cotas
100
AcDbMText
 10
4338.9273572731
 20
1548.999254908876
 30
0.0
 40
10.0
 41
0.0
 71
     5
 72
     1
  1
93
  7
SANINDUSA
 11
0.0000000000000001
 21
1.0
 31
0.0
 73
     1
 44
1.0
1001
ACAD
1000
MTEXTBEGIN
1070
    73
1070
     1
1070
    44
1040
1.0
1070
    74
1070
     0
1000
MTEXTEND
  0
POINT
  5
1708
330
1700
100
AcDbEntity
  8
Defpoints
 62
     0
100
AcDbPoint
 10
4269.823970394655
 20
1595.383265384297
 30
0.0
  0
POINT
  5
1709
330
1700
100
AcDbEntity
  8
Defpoints
 62
     0
100
AcDbPoint
 10
4270.200128949811
 20
1502.615244433453
 30
0.0
  0
POINT
  5
170A
330
1700
100
AcDbEntity
  8
Defpoints
 62
     0
100
AcDbPoint
 10
4349.135550691502
 20
1502.615244433453
 30
0.0
  0
ENDBLK
  5
170B
330
1700
100
AcDbEntity
  8
0
100
AcDbBlockEnd
  0
BLOCK
  5
170D
330
170C
100
AcDbEntity
  8
0
100
AcDbBlockBegin
  2
*D45
 70
     1
 10
0.0
 20
0.0
 30
0.0
  3
*D45
  1

  0
LINE
  5
170E
330
170C
100
AcDbEntity
  8
cotas
100
AcDbLine
 10
4274.823970394655
 20
1595.383265384297
 30
0.0
 11
4354.135550691502
 21
1595.383265384297
 31
0.0
  0
LINE
  5
170F
330
170C
100
AcDbEntity
  8
cotas
100
AcDbLine
 10
4324.235550691501
 20
1812.615244433453
 30
0.0
 11
4354.135550691502
 21
1812.615244433453
 31
0.0
  0
LINE
  5
1710
330
170C
100
AcDbEntity
  8
cotas
100
AcDbLine
 10
4349.135550691502
 20
1605.383265384297
 30
0.0
 11
4349.135550691502
 21
1802.615244433453
 31
0.0
  0
SOLID
  5
1711
330
170C
100
AcDbEntity
  8
cotas
100
AcDbTrace
 10
4347.468884024835
 20
1605.383265384297
 30
0.0
 11
4350.802217358169
 21
1605.383265384297
 31
0.0
 12
4349.135550691502
 22
1595.383265384297
 32
0.0
 13
4349.135550691502
 23
1595.383265384297
 33
0.0
  0
SOLID
  5
1712
330
170C
100
AcDbEntity
  8
cotas
100
AcDbTrace
 10
4347.468884024835
 20
1802.615244433453
 30
0.0
 11
4350.802217358169
 21
1802.615244433453
 31
0.0
 12
4349.135550691502
 22
1812.615244433453
 32
0.0
 13
4349.135550691502
 23
1812.615244433453
 33
0.0
  0
MTEXT
  5
1713
330
170C
100
AcDbEntity
  8
cotas
100
AcDbMText
 10
4339.0314539823
 20
1703.999254908876
 30
0.0
 40
10.0
 41
0.0
 71
     5
 72
     1
  1
217
  7
SANINDUSA
 11
0.0000000000000001
 21
1.0
 31
0.0
 73
     1
 44
1.0
1001
ACAD
1000
MTEXTBEGIN
1070
    73
1070
     1
1070
    44
1040
1.0
1070
    74
1070
     0
1000
MTEXTEND
  0
POINT
  5
1714
330
170C
100
AcDbEntity
  8
Defpoints
 62
     0
100
AcDbPoint
 10
4269.823970394655
 20
1595.383265384297
 30
0.0
  0
POINT
  5
1715
330
170C
100
AcDbEntity
  8
Defpoints
 62
     0
100
AcDbPoint
 10
4319.235550691501
 20
1812.615244433453
 30
0.0
  0
POINT
  5
1716
330
170C
100
AcDbEntity
  8
Defpoints
 62
     0
100
AcDbPoint
 10
4349.135550691502
 20
1812.615244433453
 30
0.0
  0
ENDBLK
  5
1717
330
170C
100
AcDbEntity
  8
0
100
AcDbBlockEnd
  0
BLOCK
  5
1719
330
1718
100
AcDbEntity
  8
0
100
AcDbBlockBegin
  2
*D46
 70
     1
 10
0.0
 20
0.0
 30
0.0
  3
*D46
  1

  0
LINE
  5
171A
330
1718
100
AcDbEntity
  8
cotas
100
AcDbLine
 10
4249.894098073754
 20
1670.610903725242
 30
0.0
 11
4298.798130147335
 21
1644.11343183185
 31
0.0
  0
MTEXT
  5
171B
330
1718
100
AcDbEntity
  8
cotas
100
AcDbMText
 10
4275.142581751717
 20
1669.327708937692
 30
0.0
 40
10.0
 41
0.0
 71
     5
 72
     1
  1
\U+2205274
  7
SANINDUSA
 11
0.8792333223564446
 21
-0.4763913988077957
 31
0.0
 73
     1
 44
1.0
1001
ACAD
1000
MTEXTBEGIN
1070
    73
1070
     1
1070
    44
1040
1.0
1070
    74
1070
     0
1000
MTEXTEND
  0
SOLID
  5
171C
330
1718
100
AcDbEntity
  8
cotas
100
AcDbTrace
 10
4299.592115812014
 20
1645.578820702443
 30
0.0
 11
4298.004144482654
 21
1642.648042961256
 31
0.0
 12
4307.590463370899
 22
1639.349517843771
 32
0.0
 13
4307.590463370899
 23
1639.349517843771
 33
0.0
  0
POINT
  5
171D
330
1718
100
AcDbEntity
  8
Defpoints
 62
     0
100
AcDbPoint
 10
4307.590463370899
 20
1639.349517843771
 30
0.0
  0
POINT
  5
171E
330
1718
100
AcDbEntity
  8
Defpoints
 62
     0
100
AcDbPoint
 10
4066.67976884074
 20
1769.881175182906
 30
0.0
  0
ENDBLK
  5
171F
330
1718
100
AcDbEntity
  8
0
100
AcDbBlockEnd
  0
BLOCK
  5
1721
330
1720
100
AcDbEntity
  8
0
100
AcDbBlockBegin
  2
*D47
 70
     1
 10
0.0
 20
0.0
 30
0.0
  3
*D47
  1

  0
LINE
  5
1722
330
1720
100
AcDbEntity
  8
cotas
100
AcDbLine
 10
4124.171418666559
 20
1570.519472417857
 30
0.0
 11
4079.468239240855
 21
1557.187843459014
 31
0.0
  0
LINE
  5
1723
330
1720
100
AcDbEntity
  8
cotas
100
AcDbLine
 10
4048.802862142149
 20
1548.042645407892
 30
0.0
 11
4039.219931798805
 21
1545.184771016916
 31
0.0
  0
MTEXT
  5
1724
330
1720
100
AcDbEntity
  8
cotas
100
AcDbMText
 10
4103.496230232463
 20
1575.727924850007
 30
0.0
 40
10.0
 41
0.0
 71
     5
 72
     1
  1
\U+220512
  7
SANINDUSA
 11
0.9582930343345152
 21
0.2857874390975708
 31
0.0
 73
     1
 44
1.0
1001
ACAD
1000
MTEXTBEGIN
1070
    73
1070
     1
1070
    44
1040
1.0
1070
    74
1070
     0
1000
MTEXTEND
  0
LINE
  5
1725
330
1720
100
AcDbEntity
  8
cotas
100
AcDbLine
 10
4058.385792485495
 20
1550.900519798867
 30
0.0
 11
4069.885308897509
 21
1554.329969068038
 31
0.0
  0
SOLID
  5
1726
330
1720
100
AcDbEntity
  8
cotas
100
AcDbTrace
 10
4048.326549743654
 20
1549.639800465116
 30
0.0
 11
4049.279174540646
 21
1546.445490350667
 31
0.0
 12
4058.385792485495
 22
1550.900519798867
 32
0.0
 13
4058.385792485495
 23
1550.900519798867
 33
0.0
  0
SOLID
  5
1727
330
1720
100
AcDbEntity
  8
cotas
100
AcDbTrace
 10
4078.991926842359
 20
1558.784998516238
 30
0.0
 11
4079.944551639351
 21
1555.590688401789
 31
0.0
 12
4069.885308897509
 22
1554.329969068038
 32
0.0
 13
4069.885308897509
 23
1554.329969068038
 33
0.0
  0
POINT
  5
1728
330
1720
100
AcDbEntity
  8
Defpoints
 62
     0
100
AcDbPoint
 10
4069.885308897509
 20
1554.329969068038
 30
0.0
  0
POINT
  5
1729
330
1720
100
AcDbEntity
  8
Defpoints
 62
     0
100
AcDbPoint
 10
4058.385792485495
 20
1550.900519798867
 30
0.0
  0
ENDBLK
  5
172A
330
1720
100
AcDbEntity
  8
0
100
AcDbBlockEnd
  0
BLOCK
  5
181B
330
1811
100
AcDbEntity
  8
0
100
AcDbBlockBegin
  2
*D49
 70
     1
 10
0.0
 20
0.0
 30
0.0
  3
*D49
  1

  0
LINE
  5
1812
330
1811
100
AcDbEntity
  8
cotas
100
AcDbLine
 10
5105.753328855219
 20
2175.85913955189
 30
0.0
 11
5105.753328855219
 21
2148.859137167706
 31
0.0
  0
LINE
  5
1813
330
1811
100
AcDbEntity
  8
cotas
100
AcDbLine
 10
5265.753328855219
 20
2210.970109741237
 30
0.0
 11
5265.753328855219
 21
2148.859137167706
 31
0.0
  0
LINE
  5
1814
330
1811
100
AcDbEntity
  8
cotas
100
AcDbLine
 10
5107.75332885522
 20
2149.859137167706
 30
0.0
 11
5263.753328855219
 21
2149.859137167706
 31
0.0
  0
SOLID
  5
1815
330
1811
100
AcDbEntity
  8
cotas
100
AcDbTrace
 10
5107.75332885522
 20
2150.192470501039
 30
0.0
 11
5107.75332885522
 21
2149.525803834372
 31
0.0
 12
5105.753328855219
 22
2149.859137167706
 32
0.0
 13
5105.753328855219
 23
2149.859137167706
 33
0.0
  0
SOLID
  5
1816
330
1811
100
AcDbEntity
  8
cotas
100
AcDbTrace
 10
5263.753328855219
 20
2150.192470501039
 30
0.0
 11
5263.753328855219
 21
2149.525803834372
 31
0.0
 12
5265.753328855219
 22
2149.859137167706
 32
0.0
 13
5265.753328855219
 23
2149.859137167706
 33
0.0
  0
MTEXT
  5
1817
330
1811
100
AcDbEntity
  8
cotas
100
AcDbMText
 10
5185.75332885522
 20
2151.900104259714
 30
0.0
 40
2.0
 41
0.0
 71
     5
 72
     1
  1
160
  7
SANINDUSA
 73
     1
 44
1.0
1001
ACAD
1000
MTEXTBEGIN
1070
    73
1070
     1
1070
    44
1040
1.0
1070
    74
1070
     0
1000
MTEXTEND
  0
POINT
  5
1818
330
1811
100
AcDbEntity
  8
Defpoints
 62
     0
100
AcDbPoint
 10
5105.753328855219
 20
2176.85913955189
 30
0.0
  0
POINT
  5
1819
330
1811
100
AcDbEntity
  8
Defpoints
 62
     0
100
AcDbPoint
 10
5265.753328855219
 20
2211.970109741237
 30
0.0
  0
POINT
  5
181A
330
1811
100
AcDbEntity
  8
Defpoints
 62
     0
100
AcDbPoint
 10
5265.753328855219
 20
2149.859137167706
 30
0.0
  0
ENDBLK
  5
181C
330
1811
100
AcDbEntity
  8
0
100
AcDbBlockEnd
  0
BLOCK
  5
1827
330
181D
100
AcDbEntity
  8
0
100
AcDbBlockBegin
  2
*D50
 70
     1
 10
0.0
 20
0.0
 30
0.0
  3
*D50
  1

  0
LINE
  5
181E
330
181D
100
AcDbEntity
  8
cotas
100
AcDbLine
 10
5106.753328855219
 20
2174.85913955189
 30
0.0
 11
5079.753328855219
 21
2174.85913955189
 31
0.0
  0
LINE
  5
181F
330
181D
100
AcDbEntity
  8
cotas
100
AcDbLine
 10
5251.864299044567
 20
2224.85913955189
 30
0.0
 11
5079.753328855219
 21
2224.85913955189
 31
0.0
  0
LINE
  5
1820
330
181D
100
AcDbEntity
  8
cotas
100
AcDbLine
 10
5080.75332885522
 20
2176.85913955189
 30
0.0
 11
5080.75332885522
 21
2222.85913955189
 31
0.0
  0
SOLID
  5
1821
330
181D
100
AcDbEntity
  8
cotas
100
AcDbTrace
 10
5080.419995521886
 20
2176.85913955189
 30
0.0
 11
5081.086662188552
 21
2176.85913955189
 31
0.0
 12
5080.75332885522
 22
2174.85913955189
 32
0.0
 13
5080.75332885522
 23
2174.85913955189
 33
0.0
  0
SOLID
  5
1822
330
181D
100
AcDbEntity
  8
cotas
100
AcDbTrace
 10
5080.419995521886
 20
2222.85913955189
 30
0.0
 11
5081.086662188552
 21
2222.85913955189
 31
0.0
 12
5080.75332885522
 22
2224.85913955189
 32
0.0
 13
5080.75332885522
 23
2224.85913955189
 33
0.0
  0
MTEXT
  5
1823
330
181D
100
AcDbEntity
  8
cotas
100
AcDbMText
 10
5078.71236176321
 20
2199.85913955189
 30
0.0
 40
2.0
 41
0.0
 71
     5
 72
     1
  1
50
  7
SANINDUSA
 11
0.0000000000000001
 21
1.0
 31
0.0
 73
     1
 44
1.0
1001
ACAD
1000
MTEXTBEGIN
1070
    73
1070
     1
1070
    44
1040
1.0
1070
    74
1070
     0
1000
MTEXTEND
  0
POINT
  5
1824
330
181D
100
AcDbEntity
  8
Defpoints
 62
     0
100
AcDbPoint
 10
5107.75332885522
 20
2174.85913955189
 30
0.0
  0
POINT
  5
1825
330
181D
100
AcDbEntity
  8
Defpoints
 62
     0
100
AcDbPoint
 10
5252.864299044567
 20
2224.85913955189
 30
0.0
  0
POINT
  5
1826
330
181D
100
AcDbEntity
  8
Defpoints
 62
     0
100
AcDbPoint
 10
5080.75332885522
 20
2224.85913955189
 30
0.0
  0
ENDBLK
  5
1828
330
181D
100
AcDbEntity
  8
0
100
AcDbBlockEnd
  0
BLOCK
  5
1833
330
1829
100
AcDbEntity
  8
0
100
AcDbBlockBegin
  2
*D51
 70
     1
 10
0.0
 20
0.0
 30
0.0
  3
*D51
  1

  0
LINE
  5
182A
330
1829
100
AcDbEntity
  8
cotas
100
AcDbLine
 10
5105.753328855219
 20
2175.85913955189
 30
0.0
 11
5105.753328855219
 21
2123.859137167706
 31
0.0
  0
LINE
  5
182B
330
1829
100
AcDbEntity
  8
cotas
100
AcDbLine
 10
5473.817907113528
 20
2175.85913955189
 30
0.0
 11
5473.817907113528
 21
2123.859137167706
 31
0.0
  0
LINE
  5
182C
330
1829
100
AcDbEntity
  8
cotas
100
AcDbLine
 10
5107.75332885522
 20
2124.859137167706
 30
0.0
 11
5471.817907113528
 21
2124.859137167706
 31
0.0
  0
SOLID
  5
182D
330
1829
100
AcDbEntity
  8
cotas
100
AcDbTrace
 10
5107.75332885522
 20
2125.192470501039
 30
0.0
 11
5107.75332885522
 21
2124.525803834373
 31
0.0
 12
5105.753328855219
 22
2124.859137167706
 32
0.0
 13
5105.753328855219
 23
2124.859137167706
 33
0.0
  0
SOLID
  5
182E
330
1829
100
AcDbEntity
  8
cotas
100
AcDbTrace
 10
5471.817907113528
 20
2125.192470501039
 30
0.0
 11
5471.817907113528
 21
2124.525803834373
 31
0.0
 12
5473.817907113528
 22
2124.859137167706
 32
0.0
 13
5473.817907113528
 23
2124.859137167706
 33
0.0
  0
MTEXT
  5
182F
330
1829
100
AcDbEntity
  8
cotas
100
AcDbMText
 10
5289.785617984374
 20
2127.1304602033
 30
0.0
 40
2.0
 41
0.0
 71
     5
 72
     1
  1
368,1
  7
SANINDUSA
 73
     1
 44
1.0
1001
ACAD
1000
MTEXTBEGIN
1070
    73
1070
     1
1070
    44
1040
1.0
1070
    74
1070
     0
1000
MTEXTEND
  0
POINT
  5
1830
330
1829
100
AcDbEntity
  8
Defpoints
 62
     0
100
AcDbPoint
 10
5105.753328855219
 20
2176.85913955189
 30
0.0
  0
POINT
  5
1831
330
1829
100
AcDbEntity
  8
Defpoints
 62
     0
100
AcDbPoint
 10
5473.817907113528
 20
2176.85913955189
 30
0.0
  0
POINT
  5
1832
330
1829
100
AcDbEntity
  8
Defpoints
 62
     0
100
AcDbPoint
 10
5473.817907113528
 20
2124.859137167706
 30
0.0
  0
ENDBLK
  5
1834
330
1829
100
AcDbEntity
  8
0
100
AcDbBlockEnd
  0
BLOCK
  5
183F
330
1835
100
AcDbEntity
  8
0
100
AcDbBlockBegin
  2
*D52
 70
     1
 10
0.0
 20
0.0
 30
0.0
  3
*D52
  1

  0
LINE
  5
1836
330
1835
100
AcDbEntity
  8
cotas
100
AcDbLine
 10
5106.753323371589
 20
2174.859137167706
 30
0.0
 11
5054.75332885522
 21
2174.859137167706
 31
0.0
  0
LINE
  5
1837
330
1835
100
AcDbEntity
  8
cotas
100
AcDbLine
 10
5106.753328855219
 20
2497.07872922771
 30
0.0
 11
5054.75332885522
 21
2497.07872922771
 31
0.0
  0
LINE
  5
1838
330
1835
100
AcDbEntity
  8
cotas
100
AcDbLine
 10
5055.753328855219
 20
2176.859137167706
 30
0.0
 11
5055.753328855219
 21
2495.078729227711
 31
0.0
  0
SOLID
  5
1839
330
1835
100
AcDbEntity
  8
cotas
100
AcDbTrace
 10
5055.419995521886
 20
2176.859137167706
 30
0.0
 11
5056.086662188552
 21
2176.859137167706
 31
0.0
 12
5055.753328855219
 22
2174.859137167706
 32
0.0
 13
5055.753328855219
 23
2174.859137167706
 33
0.0
  0
SOLID
  5
183A
330
1835
100
AcDbEntity
  8
cotas
100
AcDbTrace
 10
5055.419995521886
 20
2495.078729227711
 30
0.0
 11
5056.086662188552
 21
2495.078729227711
 31
0.0
 12
5055.753328855219
 22
2497.07872922771
 32
0.0
 13
5055.753328855219
 23
2497.07872922771
 33
0.0
  0
MTEXT
  5
183B
330
1835
100
AcDbEntity
  8
cotas
100
AcDbMText
 10
5053.484020594641
 20
2335.968933197708
 30
0.0
 40
2.0
 41
0.0
 71
     5
 72
     1
  1
322,2
  7
SANINDUSA
 11
0.0000000000000001
 21
1.0
 31
0.0
 73
     1
 44
1.0
1001
ACAD
1000
MTEXTBEGIN
1070
    73
1070
     1
1070
    44
1040
1.0
1070
    74
1070
     0
1000
MTEXTEND
  0
POINT
  5
183C
330
1835
100
AcDbEntity
  8
Defpoints
 62
     0
100
AcDbPoint
 10
5107.753323371589
 20
2174.859137167706
 30
0.0
  0
POINT
  5
183D
330
1835
100
AcDbEntity
  8
Defpoints
 62
     0
100
AcDbPoint
 10
5107.75332885522
 20
2497.07872922771
 30
0.0
  0
POINT
  5
183E
330
1835
100
AcDbEntity
  8
Defpoints
 62
     0
100
AcDbPoint
 10
5055.753328855219
 20
2497.07872922771
 30
0.0
  0
ENDBLK
  5
1840
330
1835
100
AcDbEntity
  8
0
100
AcDbBlockEnd
  0
BLOCK
  5
184B
330
1841
100
AcDbEntity
  8
0
100
AcDbBlockBegin
  2
*D53
 70
     1
 10
0.0
 20
0.0
 30
0.0
  3
*D53
  1

  0
LINE
  5
1842
330
1841
100
AcDbEntity
  8
cotas
100
AcDbLine
 10
5105.753328855219
 20
2496.07872922771
 30
0.0
 11
5105.753328855219
 21
2523.091009708148
 31
0.0
  0
LINE
  5
1843
330
1841
100
AcDbEntity
  8
cotas
100
AcDbLine
 10
5182.856693662497
 20
2492.649532800385
 30
0.0
 11
5182.856693662497
 21
2523.091009708148
 31
0.0
  0
LINE
  5
1844
330
1841
100
AcDbEntity
  8
cotas
100
AcDbLine
 10
5107.75332885522
 20
2522.091009708148
 30
0.0
 11
5180.856693662497
 21
2522.091009708148
 31
0.0
  0
SOLID
  5
1845
330
1841
100
AcDbEntity
  8
cotas
100
AcDbTrace
 10
5107.75332885522
 20
2522.424343041481
 30
0.0
 11
5107.75332885522
 21
2521.757676374815
 31
0.0
 12
5105.753328855219
 22
2522.091009708148
 32
0.0
 13
5105.753328855219
 23
2522.091009708148
 33
0.0
  0
SOLID
  5
1846
330
1841
100
AcDbEntity
  8
cotas
100
AcDbTrace
 10
5180.856693662497
 20
2522.424343041481
 30
0.0
 11
5180.856693662497
 21
2521.757676374815
 31
0.0
 12
5182.856693662497
 22
2522.091009708148
 32
0.0
 13
5182.856693662497
 23
2522.091009708148
 33
0.0
  0
MTEXT
  5
1847
330
1841
100
AcDbEntity
  8
cotas
100
AcDbMText
 10
5144.305011258857
 20
2524.342856585247
 30
0.0
 40
2.0
 41
0.0
 71
     5
 72
     1
  1
77,1
  7
SANINDUSA
 73
     1
 44
1.0
1001
ACAD
1000
MTEXTBEGIN
1070
    73
1070
     1
1070
    44
1040
1.0
1070
    74
1070
     0
1000
MTEXTEND
  0
POINT
  5
1848
330
1841
100
AcDbEntity
  8
Defpoints
 62
     0
100
AcDbPoint
 10
5105.753328855219
 20
2495.078729227711
 30
0.0
  0
POINT
  5
1849
330
1841
100
AcDbEntity
  8
Defpoints
 62
     0
100
AcDbPoint
 10
5182.856693662497
 20
2491.649532800385
 30
0.0
  0
POINT
  5
184A
330
1841
100
AcDbEntity
  8
Defpoints
 62
     0
100
AcDbPoint
 10
5182.856693662497
 20
2522.091009708148
 30
0.0
  0
ENDBLK
  5
184C
330
1841
100
AcDbEntity
  8
0
100
AcDbBlockEnd
  0
BLOCK
  5
1857
330
184D
100
AcDbEntity
  8
0
100
AcDbBlockBegin
  2
*D54
 70
     1
 10
0.0
 20
0.0
 30
0.0
  3
*D54
  1

  0
LINE
  5
184E
330
184D
100
AcDbEntity
  8
cotas
100
AcDbLine
 10
5105.753328855219
 20
2496.07872922771
 30
0.0
 11
5105.753328855219
 21
2548.091009708148
 31
0.0
  0
LINE
  5
184F
330
184D
100
AcDbEntity
  8
cotas
100
AcDbLine
 10
5525.753328855217
 20
2480.959139551889
 30
0.0
 11
5525.753328855217
 21
2548.091009708148
 31
0.0
  0
LINE
  5
1850
330
184D
100
AcDbEntity
  8
cotas
100
AcDbLine
 10
5107.75332885522
 20
2547.091009708148
 30
0.0
 11
5523.753328855217
 21
2547.091009708148
 31
0.0
  0
SOLID
  5
1851
330
184D
100
AcDbEntity
  8
cotas
100
AcDbTrace
 10
5107.75332885522
 20
2547.424343041481
 30
0.0
 11
5107.75332885522
 21
2546.757676374815
 31
0.0
 12
5105.753328855219
 22
2547.091009708148
 32
0.0
 13
5105.753328855219
 23
2547.091009708148
 33
0.0
  0
SOLID
  5
1852
330
184D
100
AcDbEntity
  8
cotas
100
AcDbTrace
 10
5523.753328855217
 20
2547.424343041481
 30
0.0
 11
5523.753328855217
 21
2546.757676374815
 31
0.0
 12
5525.753328855217
 22
2547.091009708148
 32
0.0
 13
5525.753328855217
 23
2547.091009708148
 33
0.0
  0
MTEXT
  5
1853
330
184D
100
AcDbEntity
  8
cotas
100
AcDbMText
 10
5315.753328855219
 20
2549.132648391828
 30
0.0
 40
2.0
 41
0.0
 71
     5
 72
     1
  1
420
  7
SANINDUSA
 73
     1
 44
1.0
1001
ACAD
1000
MTEXTBEGIN
1070
    73
1070
     1
1070
    44
1040
1.0
1070
    74
1070
     0
1000
MTEXTEND
  0
POINT
  5
1854
330
184D
100
AcDbEntity
  8
Defpoints
 62
     0
100
AcDbPoint
 10
5105.753328855219
 20
2495.078729227711
 30
0.0
  0
POINT
  5
1855
330
184D
100
AcDbEntity
  8
Defpoints
 62
     0
100
AcDbPoint
 10
5525.753328855217
 20
2479.959139551889
 30
0.0
  0
POINT
  5
1856
330
184D
100
AcDbEntity
  8
Defpoints
 62
     0
100
AcDbPoint
 10
5525.753328855217
 20
2547.091009708148
 30
0.0
  0
ENDBLK
  5
1858
330
184D
100
AcDbEntity
  8
0
100
AcDbBlockEnd
  0
BLOCK
  5
1860
330
1859
100
AcDbEntity
  8
0
100
AcDbBlockBegin
  2
*D55
 70
     1
 10
0.0
 20
0.0
 30
0.0
  3
*D55
  1

  0
LINE
  5
188D
330
1859
100
AcDbEntity
  8
cotas
100
AcDbLine
 10
5429.379393066056
 20
2274.947955185362
 30
0.0
 11
5470.749214430828
 21
2263.380700961625
 31
0.0
  0
MTEXT
  5
188E
330
1859
100
AcDbEntity
  8
cotas
100
AcDbMText
 10
5433.274332304695
 20
2275.978850656576
 30
0.0
 40
2.0
 41
0.0
 71
     5
 72
     1
  1
R25
  7
SANINDUSA
 11
0.9630624525821563
 21
-0.2692781320984719
 31
0.0
 73
     1
 44
1.0
1001
ACAD
1000
MTEXTBEGIN
1070
    73
1070
     1
1070
    44
1040
1.0
1070
    74
1070
     0
1000
MTEXTEND
  0
LINE
  5
188F
330
1859
100
AcDbEntity
  8
cotas
100
AcDbLine
 10
5496.751900681686
 20
2256.11019138626
 30
0.0
 11
5472.675339335992
 21
2262.842144697429
 31
0.0
  0
SOLID
  5
1890
330
1859
100
AcDbEntity
  8
cotas
100
AcDbTrace
 10
5470.838973808194
 20
2263.701721779153
 30
0.0
 11
5470.659455053461
 21
2263.059680144098
 31
0.0
 12
5472.675339335992
 22
2262.842144697429
 32
0.0
 13
5472.675339335992
 23
2262.842144697429
 33
0.0
  0
POINT
  5
1891
330
1859
100
AcDbEntity
  8
Defpoints
 62
     0
100
AcDbPoint
 10
5472.675339335992
 20
2262.842144697429
 30
0.0
  0
POINT
  5
1892
330
1859
100
AcDbEntity
  8
Defpoints
 62
     0
100
AcDbPoint
 10
5496.751900681686
 20
2256.11019138626
 30
0.0
  0
ENDBLK
  5
1861
330
1859
100
AcDbEntity
  8
0
100
AcDbBlockEnd
  0
BLOCK
  5
186C
330
1862
100
AcDbEntity
  8
0
100
AcDbBlockBegin
  2
*D56
 70
     1
 10
0.0
 20
0.0
 30
0.0
  3
*D56
  1

  0
LINE
  5
1863
330
1862
100
AcDbEntity
  8
cotas
100
AcDbLine
 10
5472.441748558373
 20
2267.627160502734
 30
0.0
 11
5551.75332885522
 21
2267.627160502734
 31
0.0
  0
LINE
  5
1864
330
1862
100
AcDbEntity
  8
cotas
100
AcDbLine
 10
5472.817907113529
 20
2174.85913955189
 30
0.0
 11
5551.75332885522
 21
2174.85913955189
 31
0.0
  0
LINE
  5
1865
330
1862
100
AcDbEntity
  8
cotas
100
AcDbLine
 10
5550.753328855219
 20
2265.627160502734
 30
0.0
 11
5550.753328855219
 21
2176.85913955189
 31
0.0
  0
SOLID
  5
1866
330
1862
100
AcDbEntity
  8
cotas
100
AcDbTrace
 10
5550.419995521886
 20
2265.627160502734
 30
0.0
 11
5551.086662188552
 21
2265.627160502734
 31
0.0
 12
5550.753328855219
 22
2267.627160502734
 32
0.0
 13
5550.753328855219
 23
2267.627160502734
 33
0.0
  0
SOLID
  5
1867
330
1862
100
AcDbEntity
  8
cotas
100
AcDbTrace
 10
5550.419995521886
 20
2176.85913955189
 30
0.0
 11
5551.086662188552
 21
2176.85913955189
 31
0.0
 12
5550.753328855219
 22
2174.85913955189
 32
0.0
 13
5550.753328855219
 23
2174.85913955189
 33
0.0
  0
MTEXT
  5
1868
330
1862
100
AcDbEntity
  8
cotas
100
AcDbMText
 10
5548.482005819625
 20
2221.243150027313
 30
0.0
 40
2.0
 41
0.0
 71
     5
 72
     1
  1
92,8
  7
SANINDUSA
 11
0.0000000000000001
 21
1.0
 31
0.0
 73
     1
 44
1.0
1001
ACAD
1000
MTEXTBEGIN
1070
    73
1070
     1
1070
    44
1040
1.0
1070
    74
1070
     0
1000
MTEXTEND
  0
POINT
  5
1869
330
1862
100
AcDbEntity
  8
Defpoints
 62
     0
100
AcDbPoint
 10
5471.441748558373
 20
2267.627160502734
 30
0.0
  0
POINT
  5
186A
330
1862
100
AcDbEntity
  8
Defpoints
 62
     0
100
AcDbPoint
 10
5471.817907113528
 20
2174.85913955189
 30
0.0
  0
POINT
  5
186B
330
1862
100
AcDbEntity
  8
Defpoints
 62
     0
100
AcDbPoint
 10
5550.753328855219
 20
2174.85913955189
 30
0.0
  0
ENDBLK
  5
186D
330
1862
100
AcDbEntity
  8
0
100
AcDbBlockEnd
  0
BLOCK
  5
1878
330
186E
100
AcDbEntity
  8
0
100
AcDbBlockBegin
  2
*D57
 70
     1
 10
0.0
 20
0.0
 30
0.0
  3
*D57
  1

  0
LINE
  5
186F
330
186E
100
AcDbEntity
  8
cotas
100
AcDbLine
 10
5472.441748558373
 20
2267.627160502734
 30
0.0
 11
5551.75332885522
 21
2267.627160502734
 31
0.0
  0
LINE
  5
1870
330
186E
100
AcDbEntity
  8
cotas
100
AcDbLine
 10
5521.853328855218
 20
2484.85913955189
 30
0.0
 11
5551.75332885522
 21
2484.85913955189
 31
0.0
  0
LINE
  5
1871
330
186E
100
AcDbEntity
  8
cotas
100
AcDbLine
 10
5550.753328855219
 20
2269.627160502734
 30
0.0
 11
5550.753328855219
 21
2482.85913955189
 31
0.0
  0
SOLID
  5
1872
330
186E
100
AcDbEntity
  8
cotas
100
AcDbTrace
 10
5550.419995521886
 20
2269.627160502734
 30
0.0
 11
5551.086662188552
 21
2269.627160502734
 31
0.0
 12
5550.753328855219
 22
2267.627160502734
 32
0.0
 13
5550.753328855219
 23
2267.627160502734
 33
0.0
  0
SOLID
  5
1873
330
186E
100
AcDbEntity
  8
cotas
100
AcDbTrace
 10
5550.419995521886
 20
2482.85913955189
 30
0.0
 11
5551.086662188552
 21
2482.85913955189
 31
0.0
 12
5550.753328855219
 22
2484.85913955189
 32
0.0
 13
5550.753328855219
 23
2484.85913955189
 33
0.0
  0
MTEXT
  5
1874
330
186E
100
AcDbEntity
  8
cotas
100
AcDbMText
 10
5548.484020594641
 20
2376.243150027313
 30
0.0
 40
2.0
 41
0.0
 71
     5
 72
     1
  1
217,2
  7
SANINDUSA
 11
0.0000000000000001
 21
1.0
 31
0.0
 73
     1
 44
1.0
1001
ACAD
1000
MTEXTBEGIN
1070
    73
1070
     1
1070
    44
1040
1.0
1070
    74
1070
     0
1000
MTEXTEND
  0
POINT
  5
1875
330
186E
100
AcDbEntity
  8
Defpoints
 62
     0
100
AcDbPoint
 10
5471.441748558373
 20
2267.627160502734
 30
0.0
  0
POINT
  5
1876
330
186E
100
AcDbEntity
  8
Defpoints
 62
     0
100
AcDbPoint
 10
5520.853328855218
 20
2484.85913955189
 30
0.0
  0
POINT
  5
1877
330
186E
100
AcDbEntity
  8
Defpoints
 62
     0
100
AcDbPoint
 10
5550.753328855219
 20
2484.85913955189
 30
0.0
  0
ENDBLK
  5
1879
330
186E
100
AcDbEntity
  8
0
100
AcDbBlockEnd
  0
BLOCK
  5
1880
330
187A
100
AcDbEntity
  8
0
100
AcDbBlockBegin
  2
*D58
 70
     1
 10
0.0
 20
0.0
 30
0.0
  3
*D58
  1

  0
LINE
  5
187B
330
187A
100
AcDbEntity
  8
cotas
100
AcDbLine
 10
5467.556555777477
 20
2334.161375681554
 30
0.0
 11
5507.449774889903
 21
2312.546195759824
 31
0.0
  0
MTEXT
  5
187C
330
187A
100
AcDbEntity
  8
cotas
100
AcDbMText
 10
5472.60625251307
 20
2333.904736724043
 30
0.0
 40
2.0
 41
0.0
 71
     5
 72
     1
  1
\U+2205274
  7
SANINDUSA
 11
0.8792333223564446
 21
-0.4763913988077957
 31
0.0
 73
     1
 44
1.0
1001
ACAD
1000
MTEXTBEGIN
1070
    73
1070
     1
1070
    44
1040
1.0
1070
    74
1070
     0
1000
MTEXTEND
  0
SOLID
  5
187D
330
187A
100
AcDbEntity
  8
cotas
100
AcDbTrace
 10
5507.608572022839
 20
2312.839273533942
 30
0.0
 11
5507.290977756968
 21
2312.253117985705
 31
0.0
 12
5509.208241534616
 22
2311.593412962208
 32
0.0
 13
5509.208241534616
 23
2311.593412962208
 33
0.0
  0
POINT
  5
187E
330
187A
100
AcDbEntity
  8
Defpoints
 62
     0
100
AcDbPoint
 10
5509.208241534616
 20
2311.593412962208
 30
0.0
  0
POINT
  5
187F
330
187A
100
AcDbEntity
  8
Defpoints
 62
     0
100
AcDbPoint
 10
5268.297547004457
 20
2442.125070301344
 30
0.0
  0
ENDBLK
  5
1881
330
187A
100
AcDbEntity
  8
0
100
AcDbBlockEnd
  0
BLOCK
  5
188B
330
1882
100
AcDbEntity
  8
0
100
AcDbBlockBegin
  2
*D59
 70
     1
 10
0.0
 20
0.0
 30
0.0
  3
*D59
  1

  0
LINE
  5
1893
330
1882
100
AcDbEntity
  8
cotas
100
AcDbLine
 10
5282.360309015036
 20
2229.811764856437
 30
0.0
 11
5273.419673129897
 21
2227.14543906467
 31
0.0
  0
LINE
  5
1894
330
1882
100
AcDbEntity
  8
cotas
100
AcDbLine
 10
5258.086984580543
 20
2222.572840039109
 30
0.0
 11
5256.170398511875
 21
2222.001265160915
 31
0.0
  0
MTEXT
  5
1895
330
1882
100
AcDbEntity
  8
cotas
100
AcDbMText
 10
5278.225271328217
 20
2230.853455342868
 30
0.0
 40
2.0
 41
0.0
 71
     5
 72
     1
  1
\U+220512
  7
SANINDUSA
 11
0.9582930343345337
 21
0.2857874390975087
 31
0.0
 73
     1
 44
1.0
1001
ACAD
1000
MTEXTBEGIN
1070
    73
1070
     1
1070
    44
1040
1.0
1070
    74
1070
     0
1000
MTEXTEND
  0
LINE
  5
1896
330
1882
100
AcDbEntity
  8
cotas
100
AcDbLine
 10
5260.003570649213
 20
2223.144414917304
 30
0.0
 11
5271.503087061227
 21
2226.573864186475
 31
0.0
  0
SOLID
  5
1897
330
1882
100
AcDbEntity
  8
cotas
100
AcDbTrace
 10
5257.991722100844
 20
2222.892271050554
 30
0.0
 11
5258.182247060243
 21
2222.253409027665
 31
0.0
 12
5260.003570649213
 22
2223.144414917304
 32
0.0
 13
5260.003570649213
 23
2223.144414917304
 33
0.0
  0
SOLID
  5
1898
330
1882
100
AcDbEntity
  8
cotas
100
AcDbTrace
 10
5273.324410650197
 20
2227.464870076115
 30
0.0
 11
5273.514935609595
 21
2226.826008053225
 31
0.0
 12
5271.503087061227
 22
2226.573864186475
 32
0.0
 13
5271.503087061227
 23
2226.573864186475
 33
0.0
  0
POINT
  5
1899
330
1882
100
AcDbEntity
  8
Defpoints
 62
     0
100
AcDbPoint
 10
5271.503087061227
 20
2226.573864186475
 30
0.0
  0
POINT
  5
189A
330
1882
100
AcDbEntity
  8
Defpoints
 62
     0
100
AcDbPoint
 10
5260.003570649213
 20
2223.144414917304
 30
0.0
  0
ENDBLK
  5
188C
330
1882
100
AcDbEntity
  8
0
100
AcDbBlockEnd
  0
ENDSEC
  0
SECTION
  2
ENTITIES
  0
ARC
  5
138C
330
1F
100
AcDbEntity
  8
SANINDUSA
100
AcDbCircle
 10
4420.139567570863
 20
2368.031474834927
 30
0.0
 40
0.002
100
AcDbArc
 50
358.9999999902799
 51
90.0
  0
LINE
  5
138D
330
1F
100
AcDbEntity
  8
SANINDUSA
100
AcDbLine
 10
4420.139942517249
 20
2367.938357960947
 30
0.0
 11
4420.141567266253
 21
2368.031439930114
 31
0.0
  0
LINE
  5
138E
330
1F
100
AcDbEntity
  8
SANINDUSA
100
AcDbLine
 10
4419.950506691605
 20
2368.031439930114
 30
0.0
 11
4419.952131224541
 21
2367.938370299109
 31
0.0
  0
LWPOLYLINE
  5
1394
330
1F
100
AcDbEntity
  8
SANINDUSA
100
AcDbPolyline
 90
        3
 70
   128
 43
0.0
 10
4420.099645538001
 20
2367.956371468075
 10
4420.11751186636
 20
2367.956520077356
 10
4420.127681461839
 20
2367.956813436516
  0
LINE
  5
1395
330
1F
100
AcDbEntity
  8
SANINDUSA
100
AcDbLine
 10
4420.099645538076
 20
2367.956371470119
 30
0.0
 11
4419.992428419781
 21
2367.956371470119
 31
0.0
  0
LWPOLYLINE
  5
1396
330
1F
100
AcDbEntity
  8
SANINDUSA
100
AcDbPolyline
 90
        3
 70
   128
 43
0.0
 10
4419.992428419856
 20
2367.956371468075
 10
4419.974562091498
 20
2367.956520077356
 10
4419.964392496019
 20
2367.956813436516
  0
LINE
  5
139A
330
1F
100
AcDbEntity
  8
SANINDUSA
100
AcDbLine
 10
4419.963045576109
 20
2368.033474834926
 30
0.0
 11
4420.129028381749
 21
2368.033474834926
 31
0.0
  0
LWPOLYLINE
  5
139D
330
1F
100
AcDbEntity
  8
SANINDUSA
100
AcDbPolyline
 90
        5
 70
   128
 43
0.0
 10
4420.133475495247
 20
2368.031439941891
 10
4420.133271617561
 20
2368.019654807218
 10
4420.132935022681
 20
2368.000198241837
 10
4420.132598435251
 20
2367.980741676458
 10
4420.132261840372
 20
2367.961285125979
  0
ARC
  5
139E
330
1F
100
AcDbEntity
  8
SANINDUSA
100
AcDbCircle
 10
4420.131476130364
 20
2368.031475154651
 30
0.0
 40
0.001999674942114
100
AcDbArc
 50
358.9910125941558
 51
89.9899212604196
  0
LINE
  5
139F
330
1F
100
AcDbEntity
  8
SANINDUSA
100
AcDbLine
 10
4420.129028381749
 20
2368.033474834926
 30
0.0
 11
4420.131476481991
 21
2368.033474834926
 31
0.0
  0
LWPOLYLINE
  5
13A2
330
1F
100
AcDbEntity
  8
SANINDUSA
100
AcDbPolyline
 90
        5
 70
   128
 43
0.0
 10
4419.95859846261
 20
2368.031439941891
 10
4419.958802340297
 20
2368.019654807218
 10
4419.959138935177
 20
2368.000198241837
 10
4419.959475522606
 20
2367.980741676458
 10
4419.959812117485
 20
2367.961285125979
  0
ARC
  5
13A3
330
1F
100
AcDbEntity
  8
SANINDUSA
100
AcDbCircle
 10
4419.960597827492
 20
2368.031475154651
 30
0.0
 40
0.0019996749421142
100
AcDbArc
 50
90.01007873958039
 51
181.0089874058442
  0
LINE
  5
13A4
330
1F
100
AcDbEntity
  8
SANINDUSA
100
AcDbLine
 10
4419.963045576109
 20
2368.033474834926
 30
0.0
 11
4419.960597475866
 21
2368.033474834926
 31
0.0
  0
ARC
  5
13A5
330
1F
100
AcDbEntity
  8
SANINDUSA
100
AcDbCircle
 10
4420.134051450966
 20
2367.961239498623
 30
0.0
 40
0.0017901829931837
100
AcDbArc
 50
178.5700461240534
 51
181.4299538759465
  0
ARC
  5
13A6
330
1F
100
AcDbEntity
  8
SANINDUSA
100
AcDbCircle
 10
4420.127550781703
 20
2367.96153493306
 30
0.0
 40
0.0047233046602103
100
AcDbArc
 50
271.5854103085842
 51
355.87076420889
  0
ARC
  5
13A7
330
1F
100
AcDbEntity
  8
SANINDUSA
100
AcDbCircle
 10
4419.964523176155
 20
2367.96153493306
 30
0.0
 40
0.0047233046602103
100
AcDbArc
 50
184.1292357911099
 51
268.4145896914158
  0
ARC
  5
13A8
330
1F
100
AcDbEntity
  8
SANINDUSA
100
AcDbCircle
 10
4419.958022506892
 20
2367.961239498623
 30
0.0
 40
0.0017901829937352
100
AcDbArc
 50
358.5700461240535
 51
1.429953875946565
  0
LWPOLYLINE
  5
13A9
330
1F
100
AcDbEntity
  8
SANINDUSA
100
AcDbPolyline
 90
       33
 70
   128
 43
0.0
 10
4420.145137658088
 20
2367.807142044932
 10
4420.145137658088
 20
2367.807142104537
 10
4420.144936701028
 20
2367.811519090601
 10
4420.144341004758
 20
2367.815860182561
 10
4420.142941234378
 20
2367.821551276885
 10
4420.140899007885
 20
2367.827066697695
 10
4420.138287005691
 20
2367.832318664111
 10
4420.134336298077
 20
2367.838423111059
 10
4420.129709003238
 20
2367.844066180803
 10
4420.124545378356
 20
2367.849199720241
 10
4420.117043433456
 20
2367.855219647803
 10
4420.108911862342
 20
2367.860417288311
 10
4420.10033612114
 20
2367.864801992245
 10
4420.089546402661
 20
2367.869074237116
 10
4420.078349096446
 20
2367.872307505973
 10
4420.066897390156
 20
2367.874530118473
 10
4420.05534447611
 20
2367.875770386823
 10
4420.04378800092
 20
2367.876057748266
 10
4420.03220645406
 20
2367.875401039191
 10
4420.020722822963
 20
2367.873787899085
 10
4420.009460093199
 20
2367.871205982335
 10
4420.00093366739
 20
2367.868518543013
 10
4419.992604871957
 20
2367.865192879506
 10
4419.984578078358
 20
2367.861212414272
 10
4419.976957646875
 20
2367.856560592123
 10
4419.970177693038
 20
2367.851486493417
 10
4419.963935946791
 20
2367.845735315748
 10
4419.958412987856
 20
2367.839333210655
 10
4419.95377492693
 20
2367.832289748408
 10
4419.95019296345
 20
2367.824661715471
 10
4419.948414964347
 20
2367.81897021509
 10
4419.947313775985
 20
2367.81308947555
 10
4419.946936299769
 20
2367.807142044932
  0
ARC
  5
13B9
330
1F
100
AcDbEntity
  8
SANINDUSA
100
AcDbCircle
 10
4420.026502937731
 20
2367.957943842574
 30
0.0
 40
0.1058088428355271
100
AcDbArc
 50
359.094656504377
 51
1.760692984392356
  0
ARC
  5
13BC
330
1F
100
AcDbEntity
  8
SANINDUSA
100
AcDbCircle
 10
4420.065571020126
 20
2367.957943842574
 30
0.0
 40
0.1058088428357232
100
AcDbArc
 50
178.2393070156076
 51
180.905343495623
  0
ARC
  5
13C1
330
1F
100
AcDbEntity
  8
SANINDUSA
100
AcDbCircle
 10
4420.139567225555
 20
2368.031475164998
 30
0.0
 40
0.001999664595015
100
AcDbArc
 50
358.9907108813395
 51
89.99000948300022
  0
LINE
  5
13C2
330
1F
100
AcDbEntity
  8
SANINDUSA
100
AcDbLine
 10
4420.131476481991
 20
2368.033474834926
 30
0.0
 11
4420.139567570863
 21
2368.033474834926
 31
0.0
  0
ARC
  5
13C3
330
1F
100
AcDbEntity
  8
SANINDUSA
100
AcDbCircle
 10
4419.952506732303
 20
2368.031475164998
 30
0.0
 40
0.001999664595015
100
AcDbArc
 50
90.00999051699977
 51
181.0092891186604
  0
LINE
  5
13C4
330
1F
100
AcDbEntity
  8
SANINDUSA
100
AcDbLine
 10
4419.960597475866
 20
2368.033474834926
 30
0.0
 11
4419.952506386994
 21
2368.033474834926
 31
0.0
  0
LWPOLYLINE
  5
13C5
330
1F
100
AcDbEntity
  8
SANINDUSA
100
AcDbPolyline
 90
        3
 70
   128
 43
0.0
 10
4420.132298571735
 20
2367.956272002824
 10
4420.132360359398
 20
2367.954230350025
 10
4420.13241144803
 20
2367.953577798374
  0
LWPOLYLINE
  5
13C8
330
1F
100
AcDbEntity
  8
SANINDUSA
100
AcDbPolyline
 90
        3
 70
   128
 43
0.0
 10
4419.959775386123
 20
2367.956272002824
 10
4419.959713598458
 20
2367.954230350025
 10
4419.959662509827
 20
2367.953577798374
  0
ARC
  5
13C9
330
1F
100
AcDbEntity
  8
SANINDUSA
100
AcDbCircle
 10
4420.048536978928
 20
2367.838474834927
 30
0.0
 40
0.1350000000000001
100
AcDbArc
 50
0.0
 51
47.16371257440953
  0
LINE
  5
13CD
330
1F
100
AcDbEntity
  8
SANINDUSA
100
AcDbLine
 10
4420.183536978928
 20
2367.838474834927
 30
0.0
 11
4420.183536978928
 21
2367.750974834927
 31
0.0
  0
ARC
  5
13D0
330
1F
100
AcDbEntity
  8
SANINDUSA
100
AcDbCircle
 10
4420.046036978929
 20
2367.750974834927
 30
0.0
 40
0.1375000000000001
100
AcDbArc
 50
180.0
 51
0.0
  0
CIRCLE
  5
13D3
330
1F
100
AcDbEntity
  8
SANINDUSA
100
AcDbCircle
 10
4419.990036978929
 20
2367.913474834927
 30
0.0
 40
0.0075
  0
CIRCLE
  5
13D7
330
1F
100
AcDbEntity
  8
SANINDUSA
100
AcDbCircle
 10
4420.10203697893
 20
2367.913474834927
 30
0.0
 40
0.0075
  0
ARC
  5
13DC
330
1F
100
AcDbEntity
  8
SANINDUSA
100
AcDbCircle
 10
4420.157344404096
 20
2367.955828742156
 30
0.0
 40
0.0250343573126375
100
AcDbArc
 50
185.1586701128215
 51
227.1664352248725
  0
ARC
  5
13DF
330
1F
100
AcDbEntity
  8
SANINDUSA
100
AcDbCircle
 10
4420.046036978929
 20
2367.750974834927
 30
0.0
 40
0.0991006823796285
100
AcDbArc
 50
180.0
 51
0.0
  0
LINE
  5
13E0
330
1F
100
AcDbEntity
  8
SANINDUSA
100
AcDbLine
 10
4420.145137661308
 20
2367.750974834927
 30
0.0
 11
4420.145137661308
 21
2367.807142044644
 31
0.0
  0
ARC
  5
13E2
330
1F
100
AcDbEntity
  8
SANINDUSA
100
AcDbCircle
 10
4419.934729553762
 20
2367.955828742156
 30
0.0
 40
0.0250343573126384
100
AcDbArc
 50
312.8335647751275
 51
354.8413298871785
  0
ARC
  5
13E4
330
1F
100
AcDbEntity
  8
SANINDUSA
100
AcDbCircle
 10
4420.043536978929
 20
2367.838474834927
 30
0.0
 40
0.1350000000000001
100
AcDbArc
 50
132.8362874255904
 51
180.0
  0
LINE
  5
13E5
330
1F
100
AcDbEntity
  8
SANINDUSA
100
AcDbLine
 10
4419.946936296549
 20
2367.750974834927
 30
0.0
 11
4419.946936296549
 21
2367.807142044644
 31
0.0
  0
LINE
  5
13E6
330
1F
100
AcDbEntity
  8
SANINDUSA
100
AcDbLine
 10
4419.908536978929
 20
2367.838474834927
 30
0.0
 11
4419.908536978929
 21
2367.750974834927
 31
0.0
  0
ARC
  5
1401
330
1F
100
AcDbEntity
  8
SANINDUSA
100
AcDbCircle
 10
4420.053141013108
 20
2367.736698046936
 30
0.0
 40
0.03940651079988
100
AcDbArc
 50
269.322428055268
 51
3.01614566916606
  0
ARC
  5
1404
330
1F
100
AcDbEntity
  8
SANINDUSA
100
AcDbCircle
 10
4420.038932944749
 20
2367.736698046936
 30
0.0
 40
0.0394065107998799
100
AcDbArc
 50
176.9838543308339
 51
270.6775719447321
  0
ARC
  5
140C
330
1F
100
AcDbEntity
  8
SANINDUSA
100
AcDbCircle
 10
4420.07518186204
 20
2367.772432411065
 30
0.0
 40
0.0138538959432418
100
AcDbArc
 50
0.8961411549213933
 51
91.13340913774397
  0
ARC
  5
1410
330
1F
100
AcDbEntity
  8
SANINDUSA
100
AcDbCircle
 10
4420.016892095818
 20
2367.772432411065
 30
0.0
 40
0.0138538959432419
100
AcDbArc
 50
88.86659086225604
 51
179.1038588450786
  0
SPLINE
  5
1412
330
1F
100
AcDbEntity
  8
SANINDUSA
100
AcDbSpline
210
0.0
220
0.0
230
1.0
 70
    28
 71
     3
 72
    10
 73
     6
 74
     0
 42
0.0000000001
 43
0.0000000001
 40
0.0011871876843111
 40
0.0011871876843111
 40
0.0011871876843111
 40
0.0011871876843111
 40
0.1250000000000001
 40
0.1250000000000001
 40
0.1382852622526885
 40
0.1382852622526885
 40
0.1382852622526885
 40
0.1382852622526885
 10
4420.045751346685
 20
2367.786283596542
 30
0.0
 41
1.0
 10
4420.035822724584
 20
2367.786283596542
 30
0.0
 41
1.0
 10
4420.026006488575
 20
2367.786283596542
 30
0.0
 41
1.0
 10
4420.01851020703
 20
2367.786283596542
 30
0.0
 41
1.0
 10
4420.01781882779
 20
2367.786283596542
 30
0.0
 41
1.0
 10
4420.017166131024
 20
2367.786283596542
 30
0.0
 41
1.0
  0
SPLINE
  5
1413
330
1F
100
AcDbEntity
  8
SANINDUSA
100
AcDbSpline
210
0.0
220
0.0
230
1.0
 70
    28
 71
     3
 72
    10
 73
     6
 74
     0
 42
0.0000000001
 43
0.0000000001
 40
0.0011871876843113
 40
0.0011871876843113
 40
0.0011871876843113
 40
0.0011871876843113
 40
0.1250000000000001
 40
0.1250000000000001
 40
0.1382852622526885
 40
0.1382852622526885
 40
0.1382852622526885
 40
0.1382852622526885
 10
4420.046322611173
 20
2367.786283596542
 30
0.0
 41
1.0
 10
4420.056251233273
 20
2367.786283596542
 30
0.0
 41
1.0
 10
4420.066067469282
 20
2367.786283596542
 30
0.0
 41
1.0
 10
4420.073563750828
 20
2367.786283596542
 30
0.0
 41
1.0
 10
4420.074255130068
 20
2367.786283596542
 30
0.0
 41
1.0
 10
4420.074907826833
 20
2367.786283596542
 30
0.0
 41
1.0
  0
LINE
  5
1414
330
1F
100
AcDbEntity
  8
SANINDUSA
100
AcDbLine
 10
4420.046036978929
 20
2367.69731652561
 30
0.0
 11
4420.03939894991
 21
2367.69729429354
 31
0.0
  0
LINE
  5
1415
330
1F
100
AcDbEntity
  8
SANINDUSA
100
AcDbLine
 10
4420.046036978929
 20
2367.69731652561
 30
0.0
 11
4420.052675007947
 21
2367.69729429354
 31
0.0
  0
LINE
  5
1417
330
1F
100
AcDbEntity
  8
SANINDUSA
100
AcDbLine
 10
4420.046036978929
 20
2367.78627934498
 30
0.0
 11
4420.04575134669
 21
2367.786283596467
 31
0.0
  0
LINE
  5
1418
330
1F
100
AcDbEntity
  8
SANINDUSA
100
AcDbLine
 10
4420.046322611168
 20
2367.786283596467
 30
0.0
 11
4420.046036978929
 21
2367.78627934498
 31
0.0
  0
LINE
  5
1419
330
1F
100
AcDbEntity
  8
SANINDUSA
100
AcDbLine
 10
4420.092492936948
 20
2367.738771512609
 30
0.0
 11
4420.090078574485
 21
2367.74729029916
 31
0.0
  0
LINE
  5
141A
330
1F
100
AcDbEntity
  8
SANINDUSA
100
AcDbLine
 10
4419.999581020909
 20
2367.738771512609
 30
0.0
 11
4420.001995383372
 21
2367.74729029916
 31
0.0
  0
LINE
  5
1423
330
1F
100
AcDbEntity
  8
SANINDUSA
100
AcDbLine
 10
4420.141567266253
 20
2368.031439930114
 30
0.0
 11
4420.141566581007
 21
2368.031439942075
 31
0.0
  0
LINE
  5
1424
330
1F
100
AcDbEntity
  8
SANINDUSA
100
AcDbLine
 10
4419.950506691605
 20
2368.031439930114
 30
0.0
 11
4419.95050737685
 21
2368.031439942075
 31
0.0
  0
LINE
  5
1425
330
1F
100
AcDbEntity
  8
SANINDUSA
100
AcDbLine
 10
4420.139941846697
 20
2367.938358899721
 30
0.0
 11
4420.141566581007
 21
2368.031439942075
 31
0.0
  0
LINE
  5
1426
330
1F
100
AcDbEntity
  8
SANINDUSA
100
AcDbLine
 10
4419.952131895093
 20
2367.938371208079
 30
0.0
 11
4419.95050737685
 21
2368.031439942075
 31
0.0
  0
ELLIPSE
  5
1429
330
1F
100
AcDbEntity
  8
SANINDUSA
100
AcDbEllipse
 10
4420.210363520281
 20
2367.764945658054
 30
0.0
 11
0.08596563232747
 21
0.08596563232747
 31
0.0
210
0.0
220
0.0
230
1.0
 40
0.9999999999999985
 41
2.29278778420491
 42
2.501933283059384
  0
ELLIPSE
  5
142A
330
1F
100
AcDbEntity
  8
SANINDUSA
100
AcDbEllipse
 10
4419.881710437577
 20
2367.764945658054
 30
0.0
 11
-0.0859656323275261
 21
0.0859656323275261
 31
0.0
210
0.0
220
0.0
230
1.0
 40
0.999999999999998
 41
3.781252024120294
 42
3.990397522974615
  0
ARC
  5
142F
330
1F
100
AcDbEntity
  8
SANINDUSA
100
AcDbCircle
 10
4420.57714678597
 20
2367.66788767139
 30
0.0
 40
0.002
100
AcDbArc
 50
0.0
 51
1.500228396660773
  0
ARC
  5
1430
330
1F
100
AcDbEntity
  8
SANINDUSA
100
AcDbCircle
 10
4420.484116194036
 20
2367.867887671391
 30
0.0
 40
0.1370000000000001
100
AcDbArc
 50
314.1839359264068
 51
0.0
  0
LWPOLYLINE
  5
1431
330
1F
100
AcDbEntity
  8
SANINDUSA
100
AcDbPolyline
 90
       38
 70
   128
 43
0.0
 10
4420.387632115093
 20
2367.769644141474
 10
4420.388196697738
 20
2367.769344583431
 10
4420.389267778304
 20
2367.769048452654
 10
4420.390881365444
 20
2367.76875093607
 10
4420.393009236362
 20
2367.768460214415
 10
4420.39597944012
 20
2367.768145576397
 10
4420.399555271771
 20
2367.767843395748
 10
4420.4038436695
 20
2367.767547518292
 10
4420.408716118243
 20
2367.767268926182
 10
4420.413975453285
 20
2367.767016753831
 10
4420.419716036227
 20
2367.766784280815
 10
4420.426086141076
 20
2367.7665672156
 10
4420.432877468225
 20
2367.766374022046
 10
4420.439828509745
 20
2367.766210556307
 10
4420.447081959156
 20
2367.766071826497
 10
4420.454810487386
 20
2367.765955850759
 10
4420.462749759015
 20
2367.765867740193
 10
4420.470605996717
 20
2367.765809461751
 10
4420.478552009259
 20
2367.765778348127
 10
4420.486765246885
 20
2367.765774980465
 10
4420.494955473859
 20
2367.76580059556
 10
4420.50283235712
 20
2367.765853181758
 10
4420.510576742049
 20
2367.76593263475
 10
4420.518350923713
 20
2367.766042039075
 10
4420.525871584472
 20
2367.766178652921
 10
4420.532885039505
 20
2367.766336769143
 10
4420.5395589008
 20
2367.766518771925
 10
4420.54602223849
 20
2367.766729876676
 10
4420.552030390409
 20
2367.766963675896
 10
4420.557392878738
 20
2367.767211377898
 10
4420.562246775534
 20
2367.767477482834
 10
4420.566673537996
 20
2367.767768815437
 10
4420.570494411793
 20
2367.768075838962
 10
4420.573600834515
 20
2367.768387586155
 10
4420.576086534467
 20
2367.768710151592
 10
4420.577976143268
 20
2367.769051164666
 10
4420.579176834134
 20
2367.76939898757
 10
4420.57960027298
 20
2367.769644141474
  0
ARC
  5
1432
330
1F
100
AcDbEntity
  8
SANINDUSA
100
AcDbCircle
 10
4420.483116194037
 20
2367.867887671391
 30
0.0
 40
0.137
100
AcDbArc
 50
180.0
 51
225.8160640735932
  0
LINE
  5
1434
330
1F
100
AcDbEntity
  8
SANINDUSA
100
AcDbLine
 10
4420.621116194037
 20
2367.867887671391
 30
0.0
 11
4420.621116194037
 21
2367.97098767139
 31
0.0
  0
LINE
  5
1435
330
1F
100
AcDbEntity
  8
SANINDUSA
100
AcDbLine
 10
4420.346116194036
 20
2367.867887671391
 30
0.0
 11
4420.346116194036
 21
2367.97098767139
 31
0.0
  0
ARC
  5
1437
330
1F
100
AcDbEntity
  8
SANINDUSA
100
AcDbCircle
 10
4420.616216194036
 20
2367.97098767139
 30
0.0
 40
0.0049000000000001
100
AcDbArc
 50
0.0
 51
90.0
  0
ARC
  5
1438
330
1F
100
AcDbEntity
  8
SANINDUSA
100
AcDbCircle
 10
4420.351016194036
 20
2367.97098767139
 30
0.0
 40
0.0049
100
AcDbArc
 50
90.0
 51
180.0
  0
LINE
  5
1439
330
1F
100
AcDbEntity
  8
SANINDUSA
100
AcDbLine
 10
4420.351016194036
 20
2367.97588767139
 30
0.0
 11
4420.616216194036
 21
2367.97588767139
 31
0.0
  0
LINE
  5
143B
330
1F
100
AcDbEntity
  8
SANINDUSA
100
AcDbLine
 10
4420.572133688454
 20
2367.751156365502
 30
0.0
 11
4420.572058631471
 21
2367.751062068485
 31
0.0
  0
LINE
  5
143C
330
1F
100
AcDbEntity
  8
SANINDUSA
100
AcDbLine
 10
4420.574312453124
 20
2367.667940025287
 30
0.0
 11
4420.572133688454
 21
2367.751156365502
 31
0.0
  0
LINE
  5
143E
330
1F
100
AcDbEntity
  8
SANINDUSA
100
AcDbLine
 10
4420.392919934949
 20
2367.667940025287
 30
0.0
 11
4420.39509869962
 21
2367.751156365502
 31
0.0
  0
LINE
  5
143F
330
1F
100
AcDbEntity
  8
SANINDUSA
100
AcDbLine
 10
4420.39509869962
 20
2367.751156365502
 30
0.0
 11
4420.395173756602
 21
2367.751062068485
 31
0.0
  0
ARC
  5
1440
330
1F
100
AcDbEntity
  8
SANINDUSA
100
AcDbCircle
 10
4420.572313270699
 20
2367.667887541736
 30
0.0
 40
0.0019998727377583
100
AcDbArc
 50
270.0048860615386
 51
1.504110872982544
  0
LINE
  5
1441
330
1F
100
AcDbEntity
  8
SANINDUSA
100
AcDbLine
 10
4420.57231344298
 20
2367.66588767139
 30
0.0
 11
4420.394918945093
 21
2367.66588767139
 31
0.0
  0
ARC
  5
1442
330
1F
100
AcDbEntity
  8
SANINDUSA
100
AcDbCircle
 10
4420.394919117373
 20
2367.667887541736
 30
0.0
 40
0.0019998727377583
100
AcDbArc
 50
178.4958891270174
 51
269.9951139384614
  0
LINE
  5
1443
330
1F
100
AcDbEntity
  8
SANINDUSA
100
AcDbLine
 10
4420.579600272233
 20
2367.769644143304
 30
0.0
 11
4420.579682253343
 21
2367.769723888311
 31
0.0
  0
ARC
  5
1444
330
1F
100
AcDbEntity
  8
SANINDUSA
100
AcDbCircle
 10
4420.59711468635
 20
2367.751818612467
 30
0.0
 40
0.0249897745059818
100
AcDbArc
 50
134.2333848054668
 51
181.5185692683065
  0
ARC
  5
1445
330
1F
100
AcDbEntity
  8
SANINDUSA
100
AcDbCircle
 10
4420.370117701723
 20
2367.751818612467
 30
0.0
 40
0.0249897745059818
100
AcDbArc
 50
358.4814307316935
 51
45.7666151945332
  0
LINE
  5
1446
330
1F
100
AcDbEntity
  8
SANINDUSA
100
AcDbLine
 10
4420.387632115839
 20
2367.769644143304
 30
0.0
 11
4420.387550134729
 21
2367.769723888311
 31
0.0
  0
ARC
  5
1449
330
1F
100
AcDbEntity
  8
SANINDUSA
100
AcDbCircle
 10
4420.483116194037
 20
2367.867887671391
 30
0.0
 40
0.1369999999999987
100
AcDbArc
 50
225.0605593443551
 51
225.7682331651248
  0
ARC
  5
144C
330
1F
100
AcDbEntity
  8
SANINDUSA
100
AcDbCircle
 10
4420.484116194036
 20
2367.867887671391
 30
0.0
 40
0.1369999999999987
100
AcDbArc
 50
314.2317668348752
 51
314.9394406556449
  0
LINE
  5
144F
330
1F
100
AcDbEntity
  8
SANINDUSA
100
AcDbLine
 10
4420.579145796114
 20
2367.667940025287
 30
0.0
 11
4420.576599641051
 21
2367.765158951559
 31
0.0
  0
LINE
  5
1450
330
1F
100
AcDbEntity
  8
SANINDUSA
100
AcDbLine
 10
4420.571080675628
 20
2367.97588767139
 30
0.0
 11
4420.571054710356
 21
2367.976879183247
 31
0.0
  0
ELLIPSE
  5
1452
330
1F
100
AcDbEntity
  8
SANINDUSA
100
AcDbEllipse
 10
4420.575132760357
 20
2367.715887671391
 30
0.0
 11
-0.0001571873049889
 21
0.0059999993735292
 31
0.0
210
0.0
220
0.0
230
1.0
 40
0.0174430968651876
 41
0.0
 42
6.283185307179586
  0
LINE
  5
1454
330
1F
100
AcDbEntity
  8
SANINDUSA
100
AcDbLine
 10
4420.388086591958
 20
2367.667940025287
 30
0.0
 11
4420.390632828977
 21
2367.765162155309
 31
0.0
  0
LINE
  5
1455
330
1F
100
AcDbEntity
  8
SANINDUSA
100
AcDbLine
 10
4420.396151712444
 20
2367.97588767139
 30
0.0
 11
4420.396177677718
 21
2367.976879183247
 31
0.0
  0
ELLIPSE
  5
1458
330
1F
100
AcDbEntity
  8
SANINDUSA
100
AcDbEllipse
 10
4420.392099627717
 20
2367.715887671391
 30
0.0
 11
0.000157187304989
 21
0.0059999993735292
 31
0.0
210
0.0
220
0.0
230
1.0
 40
0.0174430968651876
 41
0.0
 42
6.283185307179586
  0
ARC
  5
1459
330
1F
100
AcDbEntity
  8
SANINDUSA
100
AcDbCircle
 10
4420.390085769319
 20
2367.667887534519
 30
0.0
 40
0.001999865519935
100
AcDbArc
 50
178.4956768349599
 51
269.9951127920369
  0
LINE
  5
145A
330
1F
100
AcDbEntity
  8
SANINDUSA
100
AcDbLine
 10
4420.390085602103
 20
2367.66588767139
 30
0.0
 11
4420.394918945093
 21
2367.66588767139
 31
0.0
  0
ARC
  5
145B
330
1F
100
AcDbEntity
  8
SANINDUSA
100
AcDbCircle
 10
4420.577146618754
 20
2367.667887534519
 30
0.0
 40
0.001999865519935
100
AcDbArc
 50
270.0048872079631
 51
1.504323165040107
  0
LINE
  5
145C
330
1F
100
AcDbEntity
  8
SANINDUSA
100
AcDbLine
 10
4420.57714678597
 20
2367.66588767139
 30
0.0
 11
4420.57231344298
 21
2367.66588767139
 31
0.0
  0
ARC
  5
1467
330
1F
100
AcDbEntity
  8
SANINDUSA
100
AcDbCircle
 10
4420.483616194036
 20
2367.452380212527
 30
0.0
 40
0.535726918390017
100
AcDbArc
 50
81.05454608330637
 51
98.94545391669364
  0
ARC
  5
146E
330
1F
100
AcDbEntity
  8
SANINDUSA
100
AcDbCircle
 10
4420.566156437569
 20
2367.976750663169
 30
0.0
 40
0.0048999585399676
100
AcDbArc
 50
1.502972446505603
 51
81.05193660032446
  0
ARC
  5
146F
330
1F
100
AcDbEntity
  8
SANINDUSA
100
AcDbCircle
 10
4420.401075950503
 20
2367.976750663169
 30
0.0
 40
0.0048999585399678
100
AcDbArc
 50
98.94806339967553
 51
178.4970275534943
  0
HATCH
  5
148B
330
1F
100
AcDbEntity
  8
SANINDUSA
100
AcDbHatch
 10
0.0
 20
0.0
 30
0.0
210
0.0
220
0.0
230
1.0
  2
ANSI31
 70
     0
 71
     0
 91
        9
 92
       17
 93
        2
 72
     4
 94
        3
 73
     1
 74
     0
 95
       41
 96
       37
 40
0.0
 40
0.0
 40
0.0
 40
0.0
 40
0.03125
 40
0.03125
 40
0.0624999999999999
 40
0.0937499999999998
 40
0.0937499999999998
 40
0.1093749999999996
 40
0.1093749999999996
 40
0.1249999999999994
 40
0.1249999999999994
 40
0.1874999999999989
 40
0.1874999999999989
 40
0.2499999999999984
 40
0.2499999999999984
 40
0.312499999999998
 40
0.312499999999998
 40
0.3749999999999976
 40
0.3749999999999976
 40
0.4374999999999972
 40
0.4374999999999972
 40
0.4999999999999967
 40
0.4999999999999967
 40
0.624999999999996
 40
0.624999999999996
 40
0.7499999999999952
 40
0.7499999999999952
 40
0.8124999999999943
 40
0.8124999999999943
 40
0.8281249999999946
 40
0.8281249999999946
 40
0.8437499999999948
 40
0.8437499999999948
 40
0.8749999999999959
 40
0.8749999999999959
 40
1.0
 40
1.0
 40
1.0
 40
1.0
 10
4421.544419368617
 20
2367.917206755856
 42
1.0
 10
4421.544590251492
 20
2367.915792376622
 42
1.0
 10
4421.544762133151
 20
2367.914370390072
 42
1.0
 10
4421.545107891062
 20
2367.9115144974
 42
1.0
 10
4421.545455205142
 20
2367.908648767741
 42
1.0
 10
4421.545801531602
 20
2367.90578963963
 42
1.0
 10
4421.546059369062
 20
2367.903657618047
 42
1.0
 10
4421.546143905096
 20
2367.902948523827
 42
1.0
 10
4421.546319282564
 20
2367.901547545845
 42
1.0
 10
4421.546411980203
 20
2367.900855345175
 42
1.0
 10
4421.546915316756
 20
2367.897413778855
 42
1.0
 10
4421.547431164261
 20
2367.894739249409
 42
1.0
 10
4421.548632087859
 20
2367.889593695491
 42
1.0
 10
4421.549316622182
 20
2367.887124227289
 42
1.0
 10
4421.550799953137
 20
2367.882427729803
 42
1.0
 10
4421.551600259177
 20
2367.880196291147
 42
1.0
 10
4421.553282060261
 20
2367.875951498916
 42
1.0
 10
4421.554161190299
 20
2367.873941540704
 42
1.0
 10
4421.556025017756
 20
2367.870023138364
 42
1.0
 10
4421.557005545992
 20
2367.868125161976
 42
1.0
 10
4421.559052556143
 20
2367.864449255155
 42
1.0
 10
4421.560119807844
 20
2367.862670310034
 42
1.0
 10
4421.563445192509
 20
2367.857494775949
 42
1.0
 10
4421.565825921226
 20
2367.854255397956
 42
1.0
 10
4421.570881331649
 20
2367.848156573678
 42
1.0
 10
4421.573557662847
 20
2367.845298887545
 42
1.0
 10
4421.577783707707
 20
2367.841280220727
 42
1.0
 10
4421.57922650708
 20
2367.839986388953
 42
1.0
 10
4421.581075805558
 20
2367.83842017386
 42
1.0
 10
4421.581449796081
 20
2367.838107574204
 42
1.0
 10
4421.582200167715
 20
2367.837477652317
 42
1.0
 10
4421.58257593747
 20
2367.837159998468
 42
1.0
 10
4421.583694787252
 20
2367.836204062045
 42
1.0
 10
4421.584433116314
 20
2367.835561104677
 42
1.0
 10
4421.588089327764
 20
2367.832318129586
 42
1.0
 10
4421.590900888642
 20
2367.829633556352
 42
1.0
 10
4421.593630182116
 20
2367.826860576965
 42
1.0
 72
     4
 94
        3
 73
     1
 74
     0
 95
       41
 96
       37
 40
0.0
 40
0.0
 40
0.0
 40
0.0
 40
0.1250000000000041
 40
0.1250000000000041
 40
0.1562500000000051
 40
0.1562500000000051
 40
0.1718750000000053
 40
0.1718750000000053
 40
0.1875000000000057
 40
0.1875000000000057
 40
0.2500000000000049
 40
0.2500000000000049
 40
0.3750000000000041
 40
0.3750000000000041
 40
0.5000000000000034
 40
0.5000000000000034
 40
0.5625000000000029
 40
0.5625000000000029
 40
0.6250000000000025
 40
0.6250000000000025
 40
0.687500000000002
 40
0.687500000000002
 40
0.7500000000000016
 40
0.7500000000000016
 40
0.812500000000001
 40
0.812500000000001
 40
0.8750000000000007
 40
0.8750000000000007
 40
0.8906250000000003
 40
0.8906250000000003
 40
0.9062500000000001
 40
0.9062500000000001
 40
0.9375000000000001
 40
0.96875
 40
0.96875
 40
1.0
 40
1.0
 40
1.0
 40
1.0
 10
4421.593630182116
 20
2367.826860576965
 42
1.0
 10
4421.590900888642
 20
2367.829633556352
 42
1.0
 10
4421.588089327764
 20
2367.832318129586
 42
1.0
 10
4421.584433116314
 20
2367.835561104677
 42
1.0
 10
4421.583694787252
 20
2367.836204062045
 42
1.0
 10
4421.58257593747
 20
2367.837159998468
 42
1.0
 10
4421.582200167715
 20
2367.837477652317
 42
1.0
 10
4421.581449796081
 20
2367.838107574204
 42
1.0
 10
4421.581075805558
 20
2367.83842017386
 42
1.0
 10
4421.57922650708
 20
2367.839986388953
 42
1.0
 10
4421.577783707707
 20
2367.841280220727
 42
1.0
 10
4421.573557662847
 20
2367.845298887545
 42
1.0
 10
4421.570881331649
 20
2367.848156573678
 42
1.0
 10
4421.565825921226
 20
2367.854255397956
 42
1.0
 10
4421.563445192509
 20
2367.857494775949
 42
1.0
 10
4421.560119807844
 20
2367.862670310034
 42
1.0
 10
4421.559052556143
 20
2367.864449255155
 42
1.0
 10
4421.557005545992
 20
2367.868125161976
 42
1.0
 10
4421.556025017756
 20
2367.870023138364
 42
1.0
 10
4421.554161190299
 20
2367.873941540704
 42
1.0
 10
4421.553282060261
 20
2367.875951498916
 42
1.0
 10
4421.551600259177
 20
2367.880196291147
 42
1.0
 10
4421.550799953137
 20
2367.882427729803
 42
1.0
 10
4421.549316622182
 20
2367.887124227289
 42
1.0
 10
4421.548632087859
 20
2367.889593695491
 42
1.0
 10
4421.547431164261
 20
2367.894739249409
 42
1.0
 10
4421.546915316756
 20
2367.897413778855
 42
1.0
 10
4421.546411980203
 20
2367.900855345175
 42
1.0
 10
4421.546319282564
 20
2367.901547545845
 42
1.0
 10
4421.546143905096
 20
2367.902948523827
 42
1.0
 10
4421.546059369062
 20
2367.903657618047
 42
1.0
 10
4421.545801531602
 20
2367.90578963963
 42
1.0
 10
4421.545455205142
 20
2367.908648767741
 42
1.0
 10
4421.545107891062
 20
2367.9115144974
 42
1.0
 10
4421.544762133151
 20
2367.914370390072
 42
1.0
 10
4421.544590251492
 20
2367.915792376622
 42
1.0
 10
4421.544419368617
 20
2367.917206755856
 42
1.0
 97
        0
 92
        0
 93
        2
 72
     4
 94
        3
 73
     1
 74
     0
 95
       28
 96
       24
 40
0.0
 40
0.0
 40
0.0
 40
0.0
 40
0.0625000000000014
 40
0.0625000000000014
 40
0.1250000000000027
 40
0.1250000000000027
 40
0.2500000000000049
 40
0.2500000000000049
 40
0.3750000000000071
 40
0.3750000000000071
 40
0.5000000000000089
 40
0.5000000000000089
 40
0.6250000000000107
 40
0.6250000000000107
 40
0.6875000000000112
 40
0.6875000000000112
 40
0.7031250000000109
 40
0.7031250000000109
 40
0.7187500000000106
 40
0.7187500000000106
 40
0.7500000000000098
 40
0.7500000000000098
 40
1.0
 40
1.0
 40
1.0
 40
1.0
 10
4421.543798270743
 20
2367.872777042923
 42
1.0
 10
4421.544436375364
 20
2367.87123794007
 42
1.0
 10
4421.545096043378
 20
2367.869746163494
 42
1.0
 10
4421.546465610298
 20
2367.866821803514
 42
1.0
 10
4421.547175251917
 20
2367.865390192045
 42
1.0
 10
4421.549371878621
 20
2367.861186085916
 42
1.0
 10
4421.550928426362
 20
2367.85850173395
 42
1.0
 10
4421.554205924211
 20
2367.85335301185
 42
1.0
 10
4421.555924557559
 20
2367.850890384578
 42
1.0
 10
4421.559517702382
 20
2367.846154761387
 42
1.0
 10
4421.561390283597
 20
2367.843885787324
 42
1.0
 10
4421.565283982483
 20
2367.839533002396
 42
1.0
 10
4421.567304309238
 20
2367.837450499491
 42
1.0
 10
4421.570437787219
 20
2367.834463987148
 42
1.0
 10
4421.571499439936
 20
2367.833491346654
 42
1.0
 10
4421.572847183084
 20
2367.832303672373
 42
1.0
 10
4421.573117765562
 20
2367.832067543622
 42
1.0
 10
4421.573660978862
 20
2367.831598086148
 42
1.0
 10
4421.573934598682
 20
2367.831363925526
 42
1.0
 10
4421.57475227141
 20
2367.830670866325
 42
1.0
 10
4421.5752641501
 20
2367.830245038988
 42
1.0
 10
4421.579531556906
 20
2367.826646188686
 42
1.0
 10
4421.583130098984
 20
2367.82327919478
 42
1.0
 10
4421.586615053691
 20
2367.8197321234
 42
1.0
 72
     4
 94
        3
 73
     1
 74
     0
 95
       28
 96
       24
 40
0.0
 40
0.0
 40
0.0
 40
0.0
 40
0.2499999999999902
 40
0.2499999999999902
 40
0.2812499999999894
 40
0.2812499999999894
 40
0.2968749999999891
 40
0.2968749999999891
 40
0.3124999999999888
 40
0.3124999999999888
 40
0.3749999999999893
 40
0.3749999999999893
 40
0.4999999999999912
 40
0.4999999999999912
 40
0.6249999999999929
 40
0.6249999999999929
 40
0.7499999999999952
 40
0.7499999999999952
 40
0.8749999999999973
 40
0.8749999999999973
 40
0.9374999999999985
 40
0.9374999999999985
 40
1.0
 40
1.0
 40
1.0
 40
1.0
 10
4421.586615053691
 20
2367.8197321234
 42
1.0
 10
4421.583130098984
 20
2367.82327919478
 42
1.0
 10
4421.579531556906
 20
2367.826646188686
 42
1.0
 10
4421.5752641501
 20
2367.830245038988
 42
1.0
 10
4421.57475227141
 20
2367.830670866325
 42
1.0
 10
4421.573934598682
 20
2367.831363925526
 42
1.0
 10
4421.573660978862
 20
2367.831598086148
 42
1.0
 10
4421.573117765562
 20
2367.832067543622
 42
1.0
 10
4421.572847183084
 20
2367.832303672373
 42
1.0
 10
4421.571499439936
 20
2367.833491346654
 42
1.0
 10
4421.570437787219
 20
2367.834463987148
 42
1.0
 10
4421.567304309238
 20
2367.837450499491
 42
1.0
 10
4421.565283982483
 20
2367.839533002396
 42
1.0
 10
4421.561390283597
 20
2367.843885787324
 42
1.0
 10
4421.559517702382
 20
2367.846154761387
 42
1.0
 10
4421.555924557559
 20
2367.850890384578
 42
1.0
 10
4421.554205924211
 20
2367.85335301185
 42
1.0
 10
4421.550928426362
 20
2367.85850173395
 42
1.0
 10
4421.549371878621
 20
2367.861186085916
 42
1.0
 10
4421.547175251917
 20
2367.865390192045
 42
1.0
 10
4421.546465610298
 20
2367.866821803514
 42
1.0
 10
4421.545096043378
 20
2367.869746163494
 42
1.0
 10
4421.544436375364
 20
2367.87123794007
 42
1.0
 10
4421.543798270743
 20
2367.872777042923
 42
1.0
 97
        0
 92
       32
 93
        2
 72
     4
 94
        3
 73
     1
 74
     0
 95
       41
 96
       37
 40
0.0
 40
0.0
 40
0.0
 40
0.0
 40
0.03125
 40
0.03125
 40
0.0624999999999999
 40
0.0937499999999998
 40
0.0937499999999998
 40
0.1093749999999996
 40
0.1093749999999996
 40
0.1249999999999994
 40
0.1249999999999994
 40
0.1874999999999989
 40
0.1874999999999989
 40
0.2499999999999984
 40
0.2499999999999984
 40
0.312499999999998
 40
0.312499999999998
 40
0.3749999999999976
 40
0.3749999999999976
 40
0.4374999999999972
 40
0.4374999999999972
 40
0.4999999999999967
 40
0.4999999999999967
 40
0.624999999999996
 40
0.624999999999996
 40
0.7499999999999952
 40
0.7499999999999952
 40
0.8124999999999943
 40
0.8124999999999943
 40
0.8281249999999946
 40
0.8281249999999946
 40
0.8437499999999948
 40
0.8437499999999948
 40
0.8749999999999959
 40
0.8749999999999959
 40
1.0
 40
1.0
 40
1.0
 40
1.0
 10
4421.544419368617
 20
2367.917206755856
 42
1.0
 10
4421.544590251492
 20
2367.915792376622
 42
1.0
 10
4421.544762133151
 20
2367.914370390072
 42
1.0
 10
4421.545107891062
 20
2367.9115144974
 42
1.0
 10
4421.545455205142
 20
2367.908648767741
 42
1.0
 10
4421.545801531602
 20
2367.90578963963
 42
1.0
 10
4421.546059369062
 20
2367.903657618047
 42
1.0
 10
4421.546143905096
 20
2367.902948523827
 42
1.0
 10
4421.546319282564
 20
2367.901547545845
 42
1.0
 10
4421.546411980203
 20
2367.900855345175
 42
1.0
 10
4421.546915316756
 20
2367.897413778855
 42
1.0
 10
4421.547431164261
 20
2367.894739249409
 42
1.0
 10
4421.548632087859
 20
2367.889593695491
 42
1.0
 10
4421.549316622182
 20
2367.887124227289
 42
1.0
 10
4421.550799953137
 20
2367.882427729803
 42
1.0
 10
4421.551600259177
 20
2367.880196291147
 42
1.0
 10
4421.553282060261
 20
2367.875951498916
 42
1.0
 10
4421.554161190299
 20
2367.873941540704
 42
1.0
 10
4421.556025017756
 20
2367.870023138364
 42
1.0
 10
4421.557005545992
 20
2367.868125161976
 42
1.0
 10
4421.559052556143
 20
2367.864449255155
 42
1.0
 10
4421.560119807844
 20
2367.862670310034
 42
1.0
 10
4421.563445192509
 20
2367.857494775949
 42
1.0
 10
4421.565825921226
 20
2367.854255397956
 42
1.0
 10
4421.570881331649
 20
2367.848156573678
 42
1.0
 10
4421.573557662847
 20
2367.845298887545
 42
1.0
 10
4421.577783707707
 20
2367.841280220727
 42
1.0
 10
4421.57922650708
 20
2367.839986388953
 42
1.0
 10
4421.581075805558
 20
2367.83842017386
 42
1.0
 10
4421.581449796081
 20
2367.838107574204
 42
1.0
 10
4421.582200167715
 20
2367.837477652317
 42
1.0
 10
4421.58257593747
 20
2367.837159998468
 42
1.0
 10
4421.583694787252
 20
2367.836204062045
 42
1.0
 10
4421.584433116314
 20
2367.835561104677
 42
1.0
 10
4421.588089327764
 20
2367.832318129586
 42
1.0
 10
4421.590900888642
 20
2367.829633556352
 42
1.0
 10
4421.593630182116
 20
2367.826860576965
 42
1.0
 72
     4
 94
        3
 73
     1
 74
     0
 95
       41
 96
       37
 40
0.0
 40
0.0
 40
0.0
 40
0.0
 40
0.03125
 40
0.03125
 40
0.0624999999999999
 40
0.0937499999999998
 40
0.0937499999999998
 40
0.1093749999999996
 40
0.1093749999999996
 40
0.1249999999999994
 40
0.1249999999999994
 40
0.1874999999999989
 40
0.1874999999999989
 40
0.2499999999999984
 40
0.2499999999999984
 40
0.312499999999998
 40
0.312499999999998
 40
0.3749999999999976
 40
0.3749999999999976
 40
0.4374999999999972
 40
0.4374999999999972
 40
0.4999999999999967
 40
0.4999999999999967
 40
0.624999999999996
 40
0.624999999999996
 40
0.7499999999999952
 40
0.7499999999999952
 40
0.8124999999999943
 40
0.8124999999999943
 40
0.8281249999999946
 40
0.8281249999999946
 40
0.8437499999999948
 40
0.8437499999999948
 40
0.8749999999999959
 40
0.8749999999999959
 40
1.0
 40
1.0
 40
1.0
 40
1.0
 10
4421.544419368617
 20
2367.917206755856
 42
1.0
 10
4421.544590251492
 20
2367.915792376622
 42
1.0
 10
4421.544762133151
 20
2367.914370390072
 42
1.0
 10
4421.545107891062
 20
2367.9115144974
 42
1.0
 10
4421.545455205142
 20
2367.908648767741
 42
1.0
 10
4421.545801531602
 20
2367.90578963963
 42
1.0
 10
4421.546059369062
 20
2367.903657618047
 42
1.0
 10
4421.546143905096
 20
2367.902948523827
 42
1.0
 10
4421.546319282564
 20
2367.901547545845
 42
1.0
 10
4421.546411980203
 20
2367.900855345175
 42
1.0
 10
4421.546915316756
 20
2367.897413778855
 42
1.0
 10
4421.547431164261
 20
2367.894739249409
 42
1.0
 10
4421.548632087859
 20
2367.889593695491
 42
1.0
 10
4421.549316622182
 20
2367.887124227289
 42
1.0
 10
4421.550799953137
 20
2367.882427729803
 42
1.0
 10
4421.551600259177
 20
2367.880196291147
 42
1.0
 10
4421.553282060261
 20
2367.875951498916
 42
1.0
 10
4421.554161190299
 20
2367.873941540704
 42
1.0
 10
4421.556025017756
 20
2367.870023138364
 42
1.0
 10
4421.557005545992
 20
2367.868125161976
 42
1.0
 10
4421.559052556143
 20
2367.864449255155
 42
1.0
 10
4421.560119807844
 20
2367.862670310034
 42
1.0
 10
4421.563445192509
 20
2367.857494775949
 42
1.0
 10
4421.565825921226
 20
2367.854255397956
 42
1.0
 10
4421.570881331649
 20
2367.848156573678
 42
1.0
 10
4421.573557662847
 20
2367.845298887545
 42
1.0
 10
4421.577783707707
 20
2367.841280220727
 42
1.0
 10
4421.57922650708
 20
2367.839986388953
 42
1.0
 10
4421.581075805558
 20
2367.83842017386
 42
1.0
 10
4421.581449796081
 20
2367.838107574204
 42
1.0
 10
4421.582200167715
 20
2367.837477652317
 42
1.0
 10
4421.58257593747
 20
2367.837159998468
 42
1.0
 10
4421.583694787252
 20
2367.836204062045
 42
1.0
 10
4421.584433116314
 20
2367.835561104677
 42
1.0
 10
4421.588089327764
 20
2367.832318129586
 42
1.0
 10
4421.590900888642
 20
2367.829633556352
 42
1.0
 10
4421.593630182116
 20
2367.826860576965
 42
1.0
 97
        0
 92
       48
 93
        2
 72
     4
 94
        3
 73
     1
 74
     0
 95
       41
 96
       37
 40
0.0
 40
0.0
 40
0.0
 40
0.0
 40
0.03125
 40
0.03125
 40
0.0624999999999999
 40
0.0937499999999998
 40
0.0937499999999998
 40
0.1093749999999996
 40
0.1093749999999996
 40
0.1249999999999994
 40
0.1249999999999994
 40
0.1874999999999989
 40
0.1874999999999989
 40
0.2499999999999984
 40
0.2499999999999984
 40
0.312499999999998
 40
0.312499999999998
 40
0.3749999999999976
 40
0.3749999999999976
 40
0.4374999999999972
 40
0.4374999999999972
 40
0.4999999999999967
 40
0.4999999999999967
 40
0.624999999999996
 40
0.624999999999996
 40
0.7499999999999952
 40
0.7499999999999952
 40
0.8124999999999943
 40
0.8124999999999943
 40
0.8281249999999946
 40
0.8281249999999946
 40
0.8437499999999948
 40
0.8437499999999948
 40
0.8749999999999959
 40
0.8749999999999959
 40
1.0
 40
1.0
 40
1.0
 40
1.0
 10
4421.544419368617
 20
2367.917206755856
 42
1.0
 10
4421.544590251492
 20
2367.915792376622
 42
1.0
 10
4421.544762133151
 20
2367.914370390072
 42
1.0
 10
4421.545107891062
 20
2367.9115144974
 42
1.0
 10
4421.545455205142
 20
2367.908648767741
 42
1.0
 10
4421.545801531602
 20
2367.90578963963
 42
1.0
 10
4421.546059369062
 20
2367.903657618047
 42
1.0
 10
4421.546143905096
 20
2367.902948523827
 42
1.0
 10
4421.546319282564
 20
2367.901547545845
 42
1.0
 10
4421.546411980203
 20
2367.900855345175
 42
1.0
 10
4421.546915316756
 20
2367.897413778855
 42
1.0
 10
4421.547431164261
 20
2367.894739249409
 42
1.0
 10
4421.548632087859
 20
2367.889593695491
 42
1.0
 10
4421.549316622182
 20
2367.887124227289
 42
1.0
 10
4421.550799953137
 20
2367.882427729803
 42
1.0
 10
4421.551600259177
 20
2367.880196291147
 42
1.0
 10
4421.553282060261
 20
2367.875951498916
 42
1.0
 10
4421.554161190299
 20
2367.873941540704
 42
1.0
 10
4421.556025017756
 20
2367.870023138364
 42
1.0
 10
4421.557005545992
 20
2367.868125161976
 42
1.0
 10
4421.559052556143
 20
2367.864449255155
 42
1.0
 10
4421.560119807844
 20
2367.862670310034
 42
1.0
 10
4421.563445192509
 20
2367.857494775949
 42
1.0
 10
4421.565825921226
 20
2367.854255397956
 42
1.0
 10
4421.570881331649
 20
2367.848156573678
 42
1.0
 10
4421.573557662847
 20
2367.845298887545
 42
1.0
 10
4421.577783707707
 20
2367.841280220727
 42
1.0
 10
4421.57922650708
 20
2367.839986388953
 42
1.0
 10
4421.581075805558
 20
2367.83842017386
 42
1.0
 10
4421.581449796081
 20
2367.838107574204
 42
1.0
 10
4421.582200167715
 20
2367.837477652317
 42
1.0
 10
4421.58257593747
 20
2367.837159998468
 42
1.0
 10
4421.583694787252
 20
2367.836204062045
 42
1.0
 10
4421.584433116314
 20
2367.835561104677
 42
1.0
 10
4421.588089327764
 20
2367.832318129586
 42
1.0
 10
4421.590900888642
 20
2367.829633556352
 42
1.0
 10
4421.593630182116
 20
2367.826860576965
 42
1.0
 72
     4
 94
        3
 73
     1
 74
     0
 95
       41
 96
       37
 40
0.0
 40
0.0
 40
0.0
 40
0.0
 40
0.03125
 40
0.03125
 40
0.0624999999999999
 40
0.0937499999999998
 40
0.0937499999999998
 40
0.1093749999999996
 40
0.1093749999999996
 40
0.1249999999999994
 40
0.1249999999999994
 40
0.1874999999999989
 40
0.1874999999999989
 40
0.2499999999999984
 40
0.2499999999999984
 40
0.312499999999998
 40
0.312499999999998
 40
0.3749999999999976
 40
0.3749999999999976
 40
0.4374999999999972
 40
0.4374999999999972
 40
0.4999999999999967
 40
0.4999999999999967
 40
0.624999999999996
 40
0.624999999999996
 40
0.7499999999999952
 40
0.7499999999999952
 40
0.8124999999999943
 40
0.8124999999999943
 40
0.8281249999999946
 40
0.8281249999999946
 40
0.8437499999999948
 40
0.8437499999999948
 40
0.8749999999999959
 40
0.8749999999999959
 40
1.0
 40
1.0
 40
1.0
 40
1.0
 10
4421.544419368617
 20
2367.917206755856
 42
1.0
 10
4421.544590251492
 20
2367.915792376622
 42
1.0
 10
4421.544762133151
 20
2367.914370390072
 42
1.0
 10
4421.545107891062
 20
2367.9115144974
 42
1.0
 10
4421.545455205142
 20
2367.908648767741
 42
1.0
 10
4421.545801531602
 20
2367.90578963963
 42
1.0
 10
4421.546059369062
 20
2367.903657618047
 42
1.0
 10
4421.546143905096
 20
2367.902948523827
 42
1.0
 10
4421.546319282564
 20
2367.901547545845
 42
1.0
 10
4421.546411980203
 20
2367.900855345175
 42
1.0
 10
4421.546915316756
 20
2367.897413778855
 42
1.0
 10
4421.547431164261
 20
2367.894739249409
 42
1.0
 10
4421.548632087859
 20
2367.889593695491
 42
1.0
 10
4421.549316622182
 20
2367.887124227289
 42
1.0
 10
4421.550799953137
 20
2367.882427729803
 42
1.0
 10
4421.551600259177
 20
2367.880196291147
 42
1.0
 10
4421.553282060261
 20
2367.875951498916
 42
1.0
 10
4421.554161190299
 20
2367.873941540704
 42
1.0
 10
4421.556025017756
 20
2367.870023138364
 42
1.0
 10
4421.557005545992
 20
2367.868125161976
 42
1.0
 10
4421.559052556143
 20
2367.864449255155
 42
1.0
 10
4421.560119807844
 20
2367.862670310034
 42
1.0
 10
4421.563445192509
 20
2367.857494775949
 42
1.0
 10
4421.565825921226
 20
2367.854255397956
 42
1.0
 10
4421.570881331649
 20
2367.848156573678
 42
1.0
 10
4421.573557662847
 20
2367.845298887545
 42
1.0
 10
4421.577783707707
 20
2367.841280220727
 42
1.0
 10
4421.57922650708
 20
2367.839986388953
 42
1.0
 10
4421.581075805558
 20
2367.83842017386
 42
1.0
 10
4421.581449796081
 20
2367.838107574204
 42
1.0
 10
4421.582200167715
 20
2367.837477652317
 42
1.0
 10
4421.58257593747
 20
2367.837159998468
 42
1.0
 10
4421.583694787252
 20
2367.836204062045
 42
1.0
 10
4421.584433116314
 20
2367.835561104677
 42
1.0
 10
4421.588089327764
 20
2367.832318129586
 42
1.0
 10
4421.590900888642
 20
2367.829633556352
 42
1.0
 10
4421.593630182116
 20
2367.826860576965
 42
1.0
 97
        0
 92
       48
 93
        2
 72
     4
 94
        3
 73
     1
 74
     0
 95
       28
 96
       24
 40
0.0
 40
0.0
 40
0.0
 40
0.0
 40
0.0625000000000014
 40
0.0625000000000014
 40
0.1250000000000027
 40
0.1250000000000027
 40
0.2500000000000049
 40
0.2500000000000049
 40
0.3750000000000071
 40
0.3750000000000071
 40
0.5000000000000089
 40
0.5000000000000089
 40
0.6250000000000107
 40
0.6250000000000107
 40
0.6875000000000112
 40
0.6875000000000112
 40
0.7031250000000109
 40
0.7031250000000109
 40
0.7187500000000106
 40
0.7187500000000106
 40
0.7500000000000098
 40
0.7500000000000098
 40
1.0
 40
1.0
 40
1.0
 40
1.0
 10
4421.543798270743
 20
2367.872777042923
 42
1.0
 10
4421.544436375364
 20
2367.87123794007
 42
1.0
 10
4421.545096043378
 20
2367.869746163494
 42
1.0
 10
4421.546465610298
 20
2367.866821803514
 42
1.0
 10
4421.547175251917
 20
2367.865390192045
 42
1.0
 10
4421.549371878621
 20
2367.861186085916
 42
1.0
 10
4421.550928426362
 20
2367.85850173395
 42
1.0
 10
4421.554205924211
 20
2367.85335301185
 42
1.0
 10
4421.555924557559
 20
2367.850890384578
 42
1.0
 10
4421.559517702382
 20
2367.846154761387
 42
1.0
 10
4421.561390283597
 20
2367.843885787324
 42
1.0
 10
4421.565283982483
 20
2367.839533002396
 42
1.0
 10
4421.567304309238
 20
2367.837450499491
 42
1.0
 10
4421.570437787219
 20
2367.834463987148
 42
1.0
 10
4421.571499439936
 20
2367.833491346654
 42
1.0
 10
4421.572847183084
 20
2367.832303672373
 42
1.0
 10
4421.573117765562
 20
2367.832067543622
 42
1.0
 10
4421.573660978862
 20
2367.831598086148
 42
1.0
 10
4421.573934598682
 20
2367.831363925526
 42
1.0
 10
4421.57475227141
 20
2367.830670866325
 42
1.0
 10
4421.5752641501
 20
2367.830245038988
 42
1.0
 10
4421.579531556906
 20
2367.826646188686
 42
1.0
 10
4421.583130098984
 20
2367.82327919478
 42
1.0
 10
4421.586615053691
 20
2367.8197321234
 42
1.0
 72
     4
 94
        3
 73
     1
 74
     0
 95
       28
 96
       24
 40
0.0
 40
0.0
 40
0.0
 40
0.0
 40
0.0625000000000014
 40
0.0625000000000014
 40
0.1250000000000027
 40
0.1250000000000027
 40
0.2500000000000049
 40
0.2500000000000049
 40
0.3750000000000071
 40
0.3750000000000071
 40
0.5000000000000089
 40
0.5000000000000089
 40
0.6250000000000107
 40
0.6250000000000107
 40
0.6875000000000112
 40
0.6875000000000112
 40
0.7031250000000109
 40
0.7031250000000109
 40
0.7187500000000106
 40
0.7187500000000106
 40
0.7500000000000098
 40
0.7500000000000098
 40
1.0
 40
1.0
 40
1.0
 40
1.0
 10
4421.543798270743
 20
2367.872777042923
 42
1.0
 10
4421.544436375364
 20
2367.87123794007
 42
1.0
 10
4421.545096043378
 20
2367.869746163494
 42
1.0
 10
4421.546465610298
 20
2367.866821803514
 42
1.0
 10
4421.547175251917
 20
2367.865390192045
 42
1.0
 10
4421.549371878621
 20
2367.861186085916
 42
1.0
 10
4421.550928426362
 20
2367.85850173395
 42
1.0
 10
4421.554205924211
 20
2367.85335301185
 42
1.0
 10
4421.555924557559
 20
2367.850890384578
 42
1.0
 10
4421.559517702382
 20
2367.846154761387
 42
1.0
 10
4421.561390283597
 20
2367.843885787324
 42
1.0
 10
4421.565283982483
 20
2367.839533002396
 42
1.0
 10
4421.567304309238
 20
2367.837450499491
 42
1.0
 10
4421.570437787219
 20
2367.834463987148
 42
1.0
 10
4421.571499439936
 20
2367.833491346654
 42
1.0
 10
4421.572847183084
 20
2367.832303672373
 42
1.0
 10
4421.573117765562
 20
2367.832067543622
 42
1.0
 10
4421.573660978862
 20
2367.831598086148
 42
1.0
 10
4421.573934598682
 20
2367.831363925526
 42
1.0
 10
4421.57475227141
 20
2367.830670866325
 42
1.0
 10
4421.5752641501
 20
2367.830245038988
 42
1.0
 10
4421.579531556906
 20
2367.826646188686
 42
1.0
 10
4421.583130098984
 20
2367.82327919478
 42
1.0
 10
4421.586615053691
 20
2367.8197321234
 42
1.0
 97
        0
 92
       32
 93
        2
 72
     4
 94
        3
 73
     1
 74
     0
 95
       41
 96
       37
 40
0.0
 40
0.0
 40
0.0
 40
0.0
 40
0.03125
 40
0.03125
 40
0.0624999999999999
 40
0.0937499999999998
 40
0.0937499999999998
 40
0.1093749999999996
 40
0.1093749999999996
 40
0.1249999999999994
 40
0.1249999999999994
 40
0.1874999999999989
 40
0.1874999999999989
 40
0.2499999999999984
 40
0.2499999999999984
 40
0.312499999999998
 40
0.312499999999998
 40
0.3749999999999976
 40
0.3749999999999976
 40
0.4374999999999972
 40
0.4374999999999972
 40
0.4999999999999967
 40
0.4999999999999967
 40
0.624999999999996
 40
0.624999999999996
 40
0.7499999999999952
 40
0.7499999999999952
 40
0.8124999999999943
 40
0.8124999999999943
 40
0.8281249999999946
 40
0.8281249999999946
 40
0.8437499999999948
 40
0.8437499999999948
 40
0.8749999999999959
 40
0.8749999999999959
 40
1.0
 40
1.0
 40
1.0
 40
1.0
 10
4421.544419368617
 20
2367.917206755856
 42
1.0
 10
4421.544590251492
 20
2367.915792376622
 42
1.0
 10
4421.544762133151
 20
2367.914370390072
 42
1.0
 10
4421.545107891062
 20
2367.9115144974
 42
1.0
 10
4421.545455205142
 20
2367.908648767741
 42
1.0
 10
4421.545801531602
 20
2367.90578963963
 42
1.0
 10
4421.546059369062
 20
2367.903657618047
 42
1.0
 10
4421.546143905096
 20
2367.902948523827
 42
1.0
 10
4421.546319282564
 20
2367.901547545845
 42
1.0
 10
4421.546411980203
 20
2367.900855345175
 42
1.0
 10
4421.546915316756
 20
2367.897413778855
 42
1.0
 10
4421.547431164261
 20
2367.894739249409
 42
1.0
 10
4421.548632087859
 20
2367.889593695491
 42
1.0
 10
4421.549316622182
 20
2367.887124227289
 42
1.0
 10
4421.550799953137
 20
2367.882427729803
 42
1.0
 10
4421.551600259177
 20
2367.880196291147
 42
1.0
 10
4421.553282060261
 20
2367.875951498916
 42
1.0
 10
4421.554161190299
 20
2367.873941540704
 42
1.0
 10
4421.556025017756
 20
2367.870023138364
 42
1.0
 10
4421.557005545992
 20
2367.868125161976
 42
1.0
 10
4421.559052556143
 20
2367.864449255155
 42
1.0
 10
4421.560119807844
 20
2367.862670310034
 42
1.0
 10
4421.563445192509
 20
2367.857494775949
 42
1.0
 10
4421.565825921226
 20
2367.854255397956
 42
1.0
 10
4421.570881331649
 20
2367.848156573678
 42
1.0
 10
4421.573557662847
 20
2367.845298887545
 42
1.0
 10
4421.577783707707
 20
2367.841280220727
 42
1.0
 10
4421.57922650708
 20
2367.839986388953
 42
1.0
 10
4421.581075805558
 20
2367.83842017386
 42
1.0
 10
4421.581449796081
 20
2367.838107574204
 42
1.0
 10
4421.582200167715
 20
2367.837477652317
 42
1.0
 10
4421.58257593747
 20
2367.837159998468
 42
1.0
 10
4421.583694787252
 20
2367.836204062045
 42
1.0
 10
4421.584433116314
 20
2367.835561104677
 42
1.0
 10
4421.588089327764
 20
2367.832318129586
 42
1.0
 10
4421.590900888642
 20
2367.829633556352
 42
1.0
 10
4421.593630182116
 20
2367.826860576965
 42
1.0
 72
     4
 94
        3
 73
     1
 74
     0
 95
       41
 96
       37
 40
0.0
 40
0.0
 40
0.0
 40
0.0
 40
0.03125
 40
0.03125
 40
0.0624999999999999
 40
0.0937499999999998
 40
0.0937499999999998
 40
0.1093749999999996
 40
0.1093749999999996
 40
0.1249999999999994
 40
0.1249999999999994
 40
0.1874999999999989
 40
0.1874999999999989
 40
0.2499999999999984
 40
0.2499999999999984
 40
0.312499999999998
 40
0.312499999999998
 40
0.3749999999999976
 40
0.3749999999999976
 40
0.4374999999999972
 40
0.4374999999999972
 40
0.4999999999999967
 40
0.4999999999999967
 40
0.624999999999996
 40
0.624999999999996
 40
0.7499999999999952
 40
0.7499999999999952
 40
0.8124999999999943
 40
0.8124999999999943
 40
0.8281249999999946
 40
0.8281249999999946
 40
0.8437499999999948
 40
0.8437499999999948
 40
0.8749999999999959
 40
0.8749999999999959
 40
1.0
 40
1.0
 40
1.0
 40
1.0
 10
4421.544419368617
 20
2367.917206755856
 42
1.0
 10
4421.544590251492
 20
2367.915792376622
 42
1.0
 10
4421.544762133151
 20
2367.914370390072
 42
1.0
 10
4421.545107891062
 20
2367.9115144974
 42
1.0
 10
4421.545455205142
 20
2367.908648767741
 42
1.0
 10
4421.545801531602
 20
2367.90578963963
 42
1.0
 10
4421.546059369062
 20
2367.903657618047
 42
1.0
 10
4421.546143905096
 20
2367.902948523827
 42
1.0
 10
4421.546319282564
 20
2367.901547545845
 42
1.0
 10
4421.546411980203
 20
2367.900855345175
 42
1.0
 10
4421.546915316756
 20
2367.897413778855
 42
1.0
 10
4421.547431164261
 20
2367.894739249409
 42
1.0
 10
4421.548632087859
 20
2367.889593695491
 42
1.0
 10
4421.549316622182
 20
2367.887124227289
 42
1.0
 10
4421.550799953137
 20
2367.882427729803
 42
1.0
 10
4421.551600259177
 20
2367.880196291147
 42
1.0
 10
4421.553282060261
 20
2367.875951498916
 42
1.0
 10
4421.554161190299
 20
2367.873941540704
 42
1.0
 10
4421.556025017756
 20
2367.870023138364
 42
1.0
 10
4421.557005545992
 20
2367.868125161976
 42
1.0
 10
4421.559052556143
 20
2367.864449255155
 42
1.0
 10
4421.560119807844
 20
2367.862670310034
 42
1.0
 10
4421.563445192509
 20
2367.857494775949
 42
1.0
 10
4421.565825921226
 20
2367.854255397956
 42
1.0
 10
4421.570881331649
 20
2367.848156573678
 42
1.0
 10
4421.573557662847
 20
2367.845298887545
 42
1.0
 10
4421.577783707707
 20
2367.841280220727
 42
1.0
 10
4421.57922650708
 20
2367.839986388953
 42
1.0
 10
4421.581075805558
 20
2367.83842017386
 42
1.0
 10
4421.581449796081
 20
2367.838107574204
 42
1.0
 10
4421.582200167715
 20
2367.837477652317
 42
1.0
 10
4421.58257593747
 20
2367.837159998468
 42
1.0
 10
4421.583694787252
 20
2367.836204062045
 42
1.0
 10
4421.584433116314
 20
2367.835561104677
 42
1.0
 10
4421.588089327764
 20
2367.832318129586
 42
1.0
 10
4421.590900888642
 20
2367.829633556352
 42
1.0
 10
4421.593630182116
 20
2367.826860576965
 42
1.0
 97
        0
 92
       32
 93
        2
 72
     4
 94
        3
 73
     1
 74
     0
 95
       28
 96
       24
 40
0.0
 40
0.0
 40
0.0
 40
0.0
 40
0.0625000000000014
 40
0.0625000000000014
 40
0.1250000000000027
 40
0.1250000000000027
 40
0.2500000000000049
 40
0.2500000000000049
 40
0.3750000000000071
 40
0.3750000000000071
 40
0.5000000000000089
 40
0.5000000000000089
 40
0.6250000000000107
 40
0.6250000000000107
 40
0.6875000000000112
 40
0.6875000000000112
 40
0.7031250000000109
 40
0.7031250000000109
 40
0.7187500000000106
 40
0.7187500000000106
 40
0.7500000000000098
 40
0.7500000000000098
 40
1.0
 40
1.0
 40
1.0
 40
1.0
 10
4421.543798270743
 20
2367.872777042923
 42
1.0
 10
4421.544436375364
 20
2367.87123794007
 42
1.0
 10
4421.545096043378
 20
2367.869746163494
 42
1.0
 10
4421.546465610298
 20
2367.866821803514
 42
1.0
 10
4421.547175251917
 20
2367.865390192045
 42
1.0
 10
4421.549371878621
 20
2367.861186085916
 42
1.0
 10
4421.550928426362
 20
2367.85850173395
 42
1.0
 10
4421.554205924211
 20
2367.85335301185
 42
1.0
 10
4421.555924557559
 20
2367.850890384578
 42
1.0
 10
4421.559517702382
 20
2367.846154761387
 42
1.0
 10
4421.561390283597
 20
2367.843885787324
 42
1.0
 10
4421.565283982483
 20
2367.839533002396
 42
1.0
 10
4421.567304309238
 20
2367.837450499491
 42
1.0
 10
4421.570437787219
 20
2367.834463987148
 42
1.0
 10
4421.571499439936
 20
2367.833491346654
 42
1.0
 10
4421.572847183084
 20
2367.832303672373
 42
1.0
 10
4421.573117765562
 20
2367.832067543622
 42
1.0
 10
4421.573660978862
 20
2367.831598086148
 42
1.0
 10
4421.573934598682
 20
2367.831363925526
 42
1.0
 10
4421.57475227141
 20
2367.830670866325
 42
1.0
 10
4421.5752641501
 20
2367.830245038988
 42
1.0
 10
4421.579531556906
 20
2367.826646188686
 42
1.0
 10
4421.583130098984
 20
2367.82327919478
 42
1.0
 10
4421.586615053691
 20
2367.8197321234
 42
1.0
 72
     4
 94
        3
 73
     1
 74
     0
 95
       28
 96
       24
 40
0.0
 40
0.0
 40
0.0
 40
0.0
 40
0.0625000000000014
 40
0.0625000000000014
 40
0.1250000000000027
 40
0.1250000000000027
 40
0.2500000000000049
 40
0.2500000000000049
 40
0.3750000000000071
 40
0.3750000000000071
 40
0.5000000000000089
 40
0.5000000000000089
 40
0.6250000000000107
 40
0.6250000000000107
 40
0.6875000000000112
 40
0.6875000000000112
 40
0.7031250000000109
 40
0.7031250000000109
 40
0.7187500000000106
 40
0.7187500000000106
 40
0.7500000000000098
 40
0.7500000000000098
 40
1.0
 40
1.0
 40
1.0
 40
1.0
 10
4421.543798270743
 20
2367.872777042923
 42
1.0
 10
4421.544436375364
 20
2367.87123794007
 42
1.0
 10
4421.545096043378
 20
2367.869746163494
 42
1.0
 10
4421.546465610298
 20
2367.866821803514
 42
1.0
 10
4421.547175251917
 20
2367.865390192045
 42
1.0
 10
4421.549371878621
 20
2367.861186085916
 42
1.0
 10
4421.550928426362
 20
2367.85850173395
 42
1.0
 10
4421.554205924211
 20
2367.85335301185
 42
1.0
 10
4421.555924557559
 20
2367.850890384578
 42
1.0
 10
4421.559517702382
 20
2367.846154761387
 42
1.0
 10
4421.561390283597
 20
2367.843885787324
 42
1.0
 10
4421.565283982483
 20
2367.839533002396
 42
1.0
 10
4421.567304309238
 20
2367.837450499491
 42
1.0
 10
4421.570437787219
 20
2367.834463987148
 42
1.0
 10
4421.571499439936
 20
2367.833491346654
 42
1.0
 10
4421.572847183084
 20
2367.832303672373
 42
1.0
 10
4421.573117765562
 20
2367.832067543622
 42
1.0
 10
4421.573660978862
 20
2367.831598086148
 42
1.0
 10
4421.573934598682
 20
2367.831363925526
 42
1.0
 10
4421.57475227141
 20
2367.830670866325
 42
1.0
 10
4421.5752641501
 20
2367.830245038988
 42
1.0
 10
4421.579531556906
 20
2367.826646188686
 42
1.0
 10
4421.583130098984
 20
2367.82327919478
 42
1.0
 10
4421.586615053691
 20
2367.8197321234
 42
1.0
 97
        0
 92
       32
 93
        2
 72
     4
 94
        3
 73
     1
 74
     0
 95
       41
 96
       37
 40
0.0
 40
0.0
 40
0.0
 40
0.0
 40
0.03125
 40
0.03125
 40
0.0624999999999999
 40
0.0937499999999998
 40
0.0937499999999998
 40
0.1093749999999996
 40
0.1093749999999996
 40
0.1249999999999994
 40
0.1249999999999994
 40
0.1874999999999989
 40
0.1874999999999989
 40
0.2499999999999984
 40
0.2499999999999984
 40
0.312499999999998
 40
0.312499999999998
 40
0.3749999999999976
 40
0.3749999999999976
 40
0.4374999999999972
 40
0.4374999999999972
 40
0.4999999999999967
 40
0.4999999999999967
 40
0.624999999999996
 40
0.624999999999996
 40
0.7499999999999952
 40
0.7499999999999952
 40
0.8124999999999943
 40
0.8124999999999943
 40
0.8281249999999946
 40
0.8281249999999946
 40
0.8437499999999948
 40
0.8437499999999948
 40
0.8749999999999959
 40
0.8749999999999959
 40
1.0
 40
1.0
 40
1.0
 40
1.0
 10
4421.544419368617
 20
2367.917206755856
 42
1.0
 10
4421.544590251492
 20
2367.915792376622
 42
1.0
 10
4421.544762133151
 20
2367.914370390072
 42
1.0
 10
4421.545107891062
 20
2367.9115144974
 42
1.0
 10
4421.545455205142
 20
2367.908648767741
 42
1.0
 10
4421.545801531602
 20
2367.90578963963
 42
1.0
 10
4421.546059369062
 20
2367.903657618047
 42
1.0
 10
4421.546143905096
 20
2367.902948523827
 42
1.0
 10
4421.546319282564
 20
2367.901547545845
 42
1.0
 10
4421.546411980203
 20
2367.900855345175
 42
1.0
 10
4421.546915316756
 20
2367.897413778855
 42
1.0
 10
4421.547431164261
 20
2367.894739249409
 42
1.0
 10
4421.548632087859
 20
2367.889593695491
 42
1.0
 10
4421.549316622182
 20
2367.887124227289
 42
1.0
 10
4421.550799953137
 20
2367.882427729803
 42
1.0
 10
4421.551600259177
 20
2367.880196291147
 42
1.0
 10
4421.553282060261
 20
2367.875951498916
 42
1.0
 10
4421.554161190299
 20
2367.873941540704
 42
1.0
 10
4421.556025017756
 20
2367.870023138364
 42
1.0
 10
4421.557005545992
 20
2367.868125161976
 42
1.0
 10
4421.559052556143
 20
2367.864449255155
 42
1.0
 10
4421.560119807844
 20
2367.862670310034
 42
1.0
 10
4421.563445192509
 20
2367.857494775949
 42
1.0
 10
4421.565825921226
 20
2367.854255397956
 42
1.0
 10
4421.570881331649
 20
2367.848156573678
 42
1.0
 10
4421.573557662847
 20
2367.845298887545
 42
1.0
 10
4421.577783707707
 20
2367.841280220727
 42
1.0
 10
4421.57922650708
 20
2367.839986388953
 42
1.0
 10
4421.581075805558
 20
2367.83842017386
 42
1.0
 10
4421.581449796081
 20
2367.838107574204
 42
1.0
 10
4421.582200167715
 20
2367.837477652317
 42
1.0
 10
4421.58257593747
 20
2367.837159998468
 42
1.0
 10
4421.583694787252
 20
2367.836204062045
 42
1.0
 10
4421.584433116314
 20
2367.835561104677
 42
1.0
 10
4421.588089327764
 20
2367.832318129586
 42
1.0
 10
4421.590900888642
 20
2367.829633556352
 42
1.0
 10
4421.593630182116
 20
2367.826860576965
 42
1.0
 72
     4
 94
        3
 73
     1
 74
     0
 95
       41
 96
       37
 40
0.0
 40
0.0
 40
0.0
 40
0.0
 40
0.03125
 40
0.03125
 40
0.0624999999999999
 40
0.0937499999999998
 40
0.0937499999999998
 40
0.1093749999999996
 40
0.1093749999999996
 40
0.1249999999999994
 40
0.1249999999999994
 40
0.1874999999999989
 40
0.1874999999999989
 40
0.2499999999999984
 40
0.2499999999999984
 40
0.312499999999998
 40
0.312499999999998
 40
0.3749999999999976
 40
0.3749999999999976
 40
0.4374999999999972
 40
0.4374999999999972
 40
0.4999999999999967
 40
0.4999999999999967
 40
0.624999999999996
 40
0.624999999999996
 40
0.7499999999999952
 40
0.7499999999999952
 40
0.8124999999999943
 40
0.8124999999999943
 40
0.8281249999999946
 40
0.8281249999999946
 40
0.8437499999999948
 40
0.8437499999999948
 40
0.8749999999999959
 40
0.8749999999999959
 40
1.0
 40
1.0
 40
1.0
 40
1.0
 10
4421.544419368617
 20
2367.917206755856
 42
1.0
 10
4421.544590251492
 20
2367.915792376622
 42
1.0
 10
4421.544762133151
 20
2367.914370390072
 42
1.0
 10
4421.545107891062
 20
2367.9115144974
 42
1.0
 10
4421.545455205142
 20
2367.908648767741
 42
1.0
 10
4421.545801531602
 20
2367.90578963963
 42
1.0
 10
4421.546059369062
 20
2367.903657618047
 42
1.0
 10
4421.546143905096
 20
2367.902948523827
 42
1.0
 10
4421.546319282564
 20
2367.901547545845
 42
1.0
 10
4421.546411980203
 20
2367.900855345175
 42
1.0
 10
4421.546915316756
 20
2367.897413778855
 42
1.0
 10
4421.547431164261
 20
2367.894739249409
 42
1.0
 10
4421.548632087859
 20
2367.889593695491
 42
1.0
 10
4421.549316622182
 20
2367.887124227289
 42
1.0
 10
4421.550799953137
 20
2367.882427729803
 42
1.0
 10
4421.551600259177
 20
2367.880196291147
 42
1.0
 10
4421.553282060261
 20
2367.875951498916
 42
1.0
 10
4421.554161190299
 20
2367.873941540704
 42
1.0
 10
4421.556025017756
 20
2367.870023138364
 42
1.0
 10
4421.557005545992
 20
2367.868125161976
 42
1.0
 10
4421.559052556143
 20
2367.864449255155
 42
1.0
 10
4421.560119807844
 20
2367.862670310034
 42
1.0
 10
4421.563445192509
 20
2367.857494775949
 42
1.0
 10
4421.565825921226
 20
2367.854255397956
 42
1.0
 10
4421.570881331649
 20
2367.848156573678
 42
1.0
 10
4421.573557662847
 20
2367.845298887545
 42
1.0
 10
4421.577783707707
 20
2367.841280220727
 42
1.0
 10
4421.57922650708
 20
2367.839986388953
 42
1.0
 10
4421.581075805558
 20
2367.83842017386
 42
1.0
 10
4421.581449796081
 20
2367.838107574204
 42
1.0
 10
4421.582200167715
 20
2367.837477652317
 42
1.0
 10
4421.58257593747
 20
2367.837159998468
 42
1.0
 10
4421.583694787252
 20
2367.836204062045
 42
1.0
 10
4421.584433116314
 20
2367.835561104677
 42
1.0
 10
4421.588089327764
 20
2367.832318129586
 42
1.0
 10
4421.590900888642
 20
2367.829633556352
 42
1.0
 10
4421.593630182116
 20
2367.826860576965
 42
1.0
 97
        0
 92
       32
 93
        2
 72
     4
 94
        3
 73
     1
 74
     0
 95
       28
 96
       24
 40
0.0
 40
0.0
 40
0.0
 40
0.0
 40
0.0625000000000014
 40
0.0625000000000014
 40
0.1250000000000027
 40
0.1250000000000027
 40
0.2500000000000049
 40
0.2500000000000049
 40
0.3750000000000071
 40
0.3750000000000071
 40
0.5000000000000089
 40
0.5000000000000089
 40
0.6250000000000107
 40
0.6250000000000107
 40
0.6875000000000112
 40
0.6875000000000112
 40
0.7031250000000109
 40
0.7031250000000109
 40
0.7187500000000106
 40
0.7187500000000106
 40
0.7500000000000098
 40
0.7500000000000098
 40
1.0
 40
1.0
 40
1.0
 40
1.0
 10
4421.543798270743
 20
2367.872777042923
 42
1.0
 10
4421.544436375364
 20
2367.87123794007
 42
1.0
 10
4421.545096043378
 20
2367.869746163494
 42
1.0
 10
4421.546465610298
 20
2367.866821803514
 42
1.0
 10
4421.547175251917
 20
2367.865390192045
 42
1.0
 10
4421.549371878621
 20
2367.861186085916
 42
1.0
 10
4421.550928426362
 20
2367.85850173395
 42
1.0
 10
4421.554205924211
 20
2367.85335301185
 42
1.0
 10
4421.555924557559
 20
2367.850890384578
 42
1.0
 10
4421.559517702382
 20
2367.846154761387
 42
1.0
 10
4421.561390283597
 20
2367.843885787324
 42
1.0
 10
4421.565283982483
 20
2367.839533002396
 42
1.0
 10
4421.567304309238
 20
2367.837450499491
 42
1.0
 10
4421.570437787219
 20
2367.834463987148
 42
1.0
 10
4421.571499439936
 20
2367.833491346654
 42
1.0
 10
4421.572847183084
 20
2367.832303672373
 42
1.0
 10
4421.573117765562
 20
2367.832067543622
 42
1.0
 10
4421.573660978862
 20
2367.831598086148
 42
1.0
 10
4421.573934598682
 20
2367.831363925526
 42
1.0
 10
4421.57475227141
 20
2367.830670866325
 42
1.0
 10
4421.5752641501
 20
2367.830245038988
 42
1.0
 10
4421.579531556906
 20
2367.826646188686
 42
1.0
 10
4421.583130098984
 20
2367.82327919478
 42
1.0
 10
4421.586615053691
 20
2367.8197321234
 42
1.0
 72
     4
 94
        3
 73
     1
 74
     0
 95
       28
 96
       24
 40
0.0
 40
0.0
 40
0.0
 40
0.0
 40
0.0625000000000014
 40
0.0625000000000014
 40
0.1250000000000027
 40
0.1250000000000027
 40
0.2500000000000049
 40
0.2500000000000049
 40
0.3750000000000071
 40
0.3750000000000071
 40
0.5000000000000089
 40
0.5000000000000089
 40
0.6250000000000107
 40
0.6250000000000107
 40
0.6875000000000112
 40
0.6875000000000112
 40
0.7031250000000109
 40
0.7031250000000109
 40
0.7187500000000106
 40
0.7187500000000106
 40
0.7500000000000098
 40
0.7500000000000098
 40
1.0
 40
1.0
 40
1.0
 40
1.0
 10
4421.543798270743
 20
2367.872777042923
 42
1.0
 10
4421.544436375364
 20
2367.87123794007
 42
1.0
 10
4421.545096043378
 20
2367.869746163494
 42
1.0
 10
4421.546465610298
 20
2367.866821803514
 42
1.0
 10
4421.547175251917
 20
2367.865390192045
 42
1.0
 10
4421.549371878621
 20
2367.861186085916
 42
1.0
 10
4421.550928426362
 20
2367.85850173395
 42
1.0
 10
4421.554205924211
 20
2367.85335301185
 42
1.0
 10
4421.555924557559
 20
2367.850890384578
 42
1.0
 10
4421.559517702382
 20
2367.846154761387
 42
1.0
 10
4421.561390283597
 20
2367.843885787324
 42
1.0
 10
4421.565283982483
 20
2367.839533002396
 42
1.0
 10
4421.567304309238
 20
2367.837450499491
 42
1.0
 10
4421.570437787219
 20
2367.834463987148
 42
1.0
 10
4421.571499439936
 20
2367.833491346654
 42
1.0
 10
4421.572847183084
 20
2367.832303672373
 42
1.0
 10
4421.573117765562
 20
2367.832067543622
 42
1.0
 10
4421.573660978862
 20
2367.831598086148
 42
1.0
 10
4421.573934598682
 20
2367.831363925526
 42
1.0
 10
4421.57475227141
 20
2367.830670866325
 42
1.0
 10
4421.5752641501
 20
2367.830245038988
 42
1.0
 10
4421.579531556906
 20
2367.826646188686
 42
1.0
 10
4421.583130098984
 20
2367.82327919478
 42
1.0
 10
4421.586615053691
 20
2367.8197321234
 42
1.0
 97
        0
 75
     0
 76
     1
 52
0.0
 41
0.003
 77
     0
 78
     1
 53
45.0
 43
4415.506948206871
 44
2366.15461272579
 45
-0.0067351920908019
 46
0.0067351920908019
 79
     0
 98
        1
 10
4415.506948206871
 20
2366.15461272579
1001
ACAD
1010
0.0
1020
0.0
1030
0.0
  0
ARC
  5
148F
330
1F
100
AcDbEntity
  8
SANINDUSA
100
AcDbCircle
 10
4421.531434949612
 20
2367.902843873987
 30
0.0
 40
0.0046248888275416
100
AcDbArc
 50
5.49747045276733
 51
54.53330689388062
  0
SPLINE
  5
1491
330
1F
100
AcDbEntity
  8
SANINDUSA
100
AcDbSpline
210
0.0
220
0.0
230
1.0
 70
    12
 71
     3
 72
    10
 73
     6
 74
     0
 42
0.0000000001
 43
0.0000000001
 40
0.0
 40
0.0
 40
0.0
 40
0.0
 40
0.4999999999999999
 40
0.4999999999999999
 40
1.0
 40
1.0
 40
1.0
 40
1.0
 10
4421.809693680704
 20
2367.874311951228
 30
0.0
 41
1.0
 10
4421.804548671539
 20
2367.863006387064
 30
0.0
 41
1.0
 10
4421.79736425705
 20
2367.852783312399
 30
0.0
 41
1.0
 10
4421.779755591107
 20
2367.835499807811
 30
0.0
 41
1.0
 10
4421.769326904852
 20
2367.828437410875
 30
0.0
 41
1.0
 10
4421.757701486094
 20
2367.823469929676
 30
0.0
 41
1.0
  0
ARC
  5
1492
330
1F
100
AcDbEntity
  8
SANINDUSA
100
AcDbCircle
 10
4421.765560032082
 20
2367.805078538892
 30
0.0
 40
0.03
100
AcDbArc
 50
113.1367676024986
 51
171.9999999871818
  0
SPLINE
  5
1493
330
1F
100
AcDbEntity
  8
SANINDUSA
100
AcDbSpline
210
0.0
220
0.0
230
1.0
 70
    12
 71
     3
 72
    28
 73
    24
 74
     0
 42
0.0000000001
 43
0.0000000001
 40
0.0
 40
0.0
 40
0.0
 40
0.0
 40
0.1250000000000006
 40
0.1875000000000009
 40
0.1875000000000009
 40
0.218750000000001
 40
0.218750000000001
 40
0.2500000000000011
 40
0.2500000000000011
 40
0.2812500000000012
 40
0.2812500000000012
 40
0.2968750000000012
 40
0.2968750000000012
 40
0.3125000000000012
 40
0.3125000000000012
 40
0.3281250000000012
 40
0.3281250000000012
 40
0.3437500000000013
 40
0.3750000000000013
 40
0.3750000000000013
 40
0.5000000000000013
 40
0.5000000000000013
 40
1.0
 40
1.0
 40
1.0
 40
1.0
 10
4421.808693680704
 20
2367.965887669006
 30
0.0
 41
1.0
 10
4421.808693680704
 20
2367.959150391175
 30
0.0
 41
1.0
 10
4421.808693931244
 20
2367.949044441267
 30
0.0
 41
1.0
 10
4421.808693908817
 20
2367.938938582902
 30
0.0
 41
1.0
 10
4421.808693798046
 20
2367.933885680751
 30
0.0
 41
1.0
 10
4421.80869354283
 20
2367.932201628257
 30
0.0
 41
1.0
 10
4421.808693917204
 20
2367.928832279629
 30
0.0
 41
1.0
 10
4421.808697858629
 20
2367.927148301671
 30
0.0
 41
1.0
 10
4421.80869624909
 20
2367.923783046926
 30
0.0
 41
1.0
 10
4421.808692400514
 20
2367.922097280154
 30
0.0
 41
1.0
 10
4421.808691453612
 20
2367.919569453848
 30
0.0
 41
1.0
 10
4421.808691660281
 20
2367.918726728976
 30
0.0
 41
1.0
 10
4421.808693594165
 20
2367.917040797374
 30
0.0
 41
1.0
 10
4421.808696686936
 20
2367.91619894744
 30
0.0
 41
1.0
 10
4421.808687006283
 20
2367.914529798484
 30
0.0
 41
1.0
 10
4421.808672311212
 20
2367.913701510091
 30
0.0
 41
1.0
 10
4421.808618466456
 20
2367.912047166195
 30
0.0
 41
1.0
 10
4421.808503290529
 20
2367.909573058156
 30
0.0
 41
1.0
 10
4421.808287145142
 20
2367.9071224122
 30
0.0
 41
1.0
 10
4421.807352296983
 20
2367.89901129013
 30
0.0
 41
1.0
 10
4421.805917259436
 20
2367.8927111011
 30
0.0
 41
1.0
 10
4421.795627616254
 20
2367.86256496781
 30
0.0
 41
1.0
 10
4421.777452210286
 20
2367.842783965169
 30
0.0
 41
1.0
 10
4421.753772213101
 20
2367.832665625068
 30
0.0
 41
1.0
  0
LINE
  5
1494
330
1F
100
AcDbEntity
  8
SANINDUSA
100
AcDbLine
 10
4421.808693680466
 20
2367.96588766923
 30
0.0
 11
4421.790856990517
 21
2367.96588766923
 31
0.0
  0
LINE
  5
1495
330
1F
100
AcDbEntity
  8
SANINDUSA
100
AcDbLine
 10
4421.786979127229
 20
2367.921563522646
 30
0.0
 11
4421.790856990517
 21
2367.96588766923
 31
0.0
  0
LINE
  5
1496
330
1F
100
AcDbEntity
  8
SANINDUSA
100
AcDbLine
 10
4421.77688180238
 20
2367.920887669304
 30
0.0
 11
4421.786979127229
 21
2367.921563522646
 31
0.0
  0
LINE
  5
1497
330
1F
100
AcDbEntity
  8
SANINDUSA
100
AcDbLine
 10
4421.77688180238
 20
2367.920887669304
 30
0.0
 11
4421.781294363085
 21
2367.97132344772
 31
0.0
  0
ARC
  5
1498
330
1F
100
AcDbEntity
  8
SANINDUSA
100
AcDbCircle
 10
4421.786275336574
 20
2367.970887669006
 30
0.0
 40
0.0050000000000001
100
AcDbArc
 50
90.0
 51
175.0000000037089
  0
LINE
  5
1499
330
1F
100
AcDbEntity
  8
SANINDUSA
100
AcDbLine
 10
4421.814793680704
 20
2367.975887669006
 30
0.0
 11
4421.786275336574
 21
2367.975887669006
 31
0.0
  0
ARC
  5
149A
330
1F
100
AcDbEntity
  8
SANINDUSA
100
AcDbCircle
 10
4421.814793680704
 20
2367.970987669006
 30
0.0
 40
0.0049000000000001
100
AcDbArc
 50
0.0
 51
90.0
  0
LINE
  5
149B
330
1F
100
AcDbEntity
  8
SANINDUSA
100
AcDbLine
 10
4421.819693680705
 20
2367.867887669006
 30
0.0
 11
4421.819693680705
 21
2367.970987669006
 31
0.0
  0
ARC
  5
149C
330
1F
100
AcDbEntity
  8
SANINDUSA
100
AcDbCircle
 10
4421.682693680704
 20
2367.867887669006
 30
0.0
 40
0.1370000000000002
100
AcDbArc
 50
311.8096372250958
 51
0.0
  0
ARC
  5
149D
330
1F
100
AcDbEntity
  8
SANINDUSA
100
AcDbCircle
 10
4421.790692252533
 20
2367.74713872084
 30
0.0
 40
0.025
100
AcDbArc
 50
131.8096372250957
 51
181.4999999971548
  0
LINE
  5
149E
330
1F
100
AcDbEntity
  8
SANINDUSA
100
AcDbLine
 10
4421.767757573612
 20
2367.667940022903
 30
0.0
 11
4421.765700819408
 21
2367.746484297132
 31
0.0
  0
ARC
  5
149F
330
1F
100
AcDbEntity
  8
SANINDUSA
100
AcDbCircle
 10
4421.765758258962
 20
2367.667887669006
 30
0.0
 40
0.0020000000000001
100
AcDbArc
 50
270.0
 51
1.49999999715483
  0
LINE
  5
14A0
330
1F
100
AcDbEntity
  8
SANINDUSA
100
AcDbLine
 10
4421.765758258962
 20
2367.665887669006
 30
0.0
 11
4421.759756202208
 21
2367.665887669006
 31
0.0
  0
ARC
  5
14A1
330
1F
100
AcDbEntity
  8
SANINDUSA
100
AcDbCircle
 10
4421.759756202208
 20
2367.667887669006
 30
0.0
 40
0.0020000000000002
100
AcDbArc
 50
181.4999999971548
 51
270.0
  0
LINE
  5
14A2
330
1F
100
AcDbEntity
  8
SANINDUSA
100
AcDbLine
 10
4421.757756887557
 20
2367.667835315109
 30
0.0
 11
4421.75758647796
 21
2367.674342995079
 31
0.0
  0
ARC
  5
14A3
330
1F
100
AcDbEntity
  8
SANINDUSA
100
AcDbCircle
 10
4421.752588191335
 20
2367.674212110338
 30
0.0
 40
0.0050000000000002
100
AcDbArc
 50
1.49999999715483
 51
66.19467380461165
  0
LINE
  5
14A4
330
1F
100
AcDbEntity
  8
SANINDUSA
100
AcDbLine
 10
4421.735417785894
 20
2367.68725201404
 30
0.0
 11
4421.75460634308
 21
2367.678786721091
 31
0.0
  0
ARC
  5
14A5
330
1F
100
AcDbEntity
  8
SANINDUSA
100
AcDbCircle
 10
4421.737435937639
 20
2367.691826624793
 30
0.0
 40
0.0050000000000001
100
AcDbArc
 50
184.9999999962911
 51
246.1946738046117
  0
LINE
  5
14A6
330
1F
100
AcDbEntity
  8
SANINDUSA
100
AcDbLine
 10
4421.732454964148
 20
2367.691390846079
 30
0.0
 11
4421.731293649671
 21
2367.704664731286
 31
0.0
  0
LINE
  5
14A7
330
1F
100
AcDbEntity
  8
SANINDUSA
100
AcDbLine
 10
4421.742358144885
 20
2367.692934104743
 30
0.0
 11
4421.741255596653
 21
2367.705536288713
 31
0.0
  0
ARC
  5
14A8
330
1F
100
AcDbEntity
  8
SANINDUSA
100
AcDbCircle
 10
4421.72631267618
 20
2367.704228952573
 30
0.0
 40
0.0050000000000001
100
AcDbArc
 50
4.999999996291116
 51
144.9713503638578
  0
ARC
  5
14A9
330
1F
100
AcDbEntity
  8
SANINDUSA
100
AcDbCircle
 10
4421.72631267618
 20
2367.704228952573
 30
0.0
 40
0.0150000000000001
100
AcDbArc
 50
4.999999996291116
 51
79.01342625481162
  0
ARC
  5
14AA
330
1F
100
AcDbEntity
  8
SANINDUSA
100
AcDbCircle
 10
4421.652614813933
 20
2367.755887689492
 30
0.0
 40
0.085
100
AcDbArc
 50
270.0192391933354
 51
324.9713503638578
  0
ARC
  5
14AB
330
1F
100
AcDbEntity
  8
SANINDUSA
100
AcDbCircle
 10
4421.652492795497
 20
2368.119267884952
 30
0.0
 40
0.4483802159457559
100
AcDbArc
 50
268.8724271949287
 51
270.0192391933354
  0
ARC
  5
14AC
330
1F
100
AcDbEntity
  8
SANINDUSA
100
AcDbCircle
 10
4421.645341986049
 20
2367.755958034734
 30
0.0
 40
0.085
100
AcDbArc
 50
194.9999999902221
 51
268.8724271949287
  0
LINE
  5
14AD
330
1F
100
AcDbEntity
  8
SANINDUSA
100
AcDbLine
 10
4421.553156328147
 20
2367.77158481282
 30
0.0
 11
4421.563238290814
 21
2367.7339584159
 31
0.0
  0
ARC
  5
14AE
330
1F
100
AcDbEntity
  8
SANINDUSA
100
AcDbCircle
 10
4421.543497069883
 20
2367.768996622368
 30
0.0
 40
0.01
100
AcDbArc
 50
14.99999999022217
 51
88.00000002228562
  0
LINE
  5
14AF
330
1F
100
AcDbEntity
  8
SANINDUSA
100
AcDbLine
 10
4421.494344685737
 20
2367.780893760736
 30
0.0
 11
4421.543846064849
 21
2367.778990530639
 31
0.0
  0
LINE
  5
14B0
330
1F
100
AcDbEntity
  8
SANINDUSA
100
AcDbLine
 10
4421.494693680704
 20
2367.790887669006
 30
0.0
 11
4421.494344685737
 21
2367.780893760736
 31
0.0
  0
LINE
  5
14B1
330
1F
100
AcDbEntity
  8
SANINDUSA
100
AcDbLine
 10
4421.49468759083
 20
2367.790887669006
 30
0.0
 11
4421.544195059817
 21
2367.788984438909
 31
0.0
  0
ARC
  5
14B2
330
1F
100
AcDbEntity
  8
SANINDUSA
100
AcDbCircle
 10
4421.543497069883
 20
2367.768996622368
 30
0.0
 40
0.02
100
AcDbArc
 50
14.99999999022217
 51
88.00000002228562
  0
LINE
  5
14B3
330
1F
100
AcDbEntity
  8
SANINDUSA
100
AcDbLine
 10
4421.562815586408
 20
2367.774173003271
 30
0.0
 11
4421.572897549078
 21
2367.736546606352
 31
0.0
  0
ARC
  5
14B4
330
1F
100
AcDbEntity
  8
SANINDUSA
100
AcDbCircle
 10
4421.645341986049
 20
2367.755958034734
 30
0.0
 40
0.075
100
AcDbArc
 50
194.9999999902221
 51
268.8724271949287
  0
ARC
  5
14B5
330
1F
100
AcDbEntity
  8
SANINDUSA
100
AcDbCircle
 10
4421.652492795497
 20
2368.119267884952
 30
0.0
 40
0.4383802159457559
100
AcDbArc
 50
268.8724271949287
 51
270.0192391933354
  0
ARC
  5
14B6
330
1F
100
AcDbEntity
  8
SANINDUSA
100
AcDbCircle
 10
4421.652614813933
 20
2367.755887689492
 30
0.0
 40
0.075
100
AcDbArc
 50
270.0192391933354
 51
351.9999999871818
  0
ARC
  5
14B7
330
1F
100
AcDbEntity
  8
SANINDUSA
100
AcDbCircle
 10
4421.652614813933
 20
2367.755887689492
 30
0.0
 40
0.085
100
AcDbArc
 50
270.0192391933354
 51
324.9713503638578
  0
ARC
  5
14B8
330
1F
100
AcDbEntity
  8
SANINDUSA
100
AcDbCircle
 10
4421.652614813933
 20
2367.755887689492
 30
0.0
 40
0.085
100
AcDbArc
 50
334.2456503108032
 51
351.9999999871818
  0
LINE
  5
14B9
330
1F
100
AcDbEntity
  8
SANINDUSA
100
AcDbLine
 10
4421.726884919089
 20
2367.74544970692
 30
0.0
 11
4421.73585199002
 21
2367.809253731921
 31
0.0
  0
LINE
  5
14BA
330
1F
100
AcDbEntity
  8
SANINDUSA
100
AcDbLine
 10
4421.809693680704
 20
2367.867887669006
 30
0.0
 11
4421.809693682492
 21
2367.874311951676
 31
0.0
  0
SPLINE
  5
14BB
330
1F
100
AcDbEntity
  8
SANINDUSA
100
AcDbSpline
210
0.0
220
0.0
230
1.0
 70
    12
 71
     3
 72
    14
 73
    10
 74
     0
 42
0.0000000001
 43
0.0000000001
 40
0.0
 40
0.0
 40
0.0
 40
0.0
 40
0.25
 40
0.25
 40
0.5
 40
0.5
 40
0.75
 40
0.75
 40
1.0
 40
1.0
 40
1.0
 40
1.0
 10
4421.757701486094
 20
2367.823469929676
 30
0.0
 41
1.0
 10
4421.756195278944
 20
2367.822826335165
 30
0.0
 41
1.0
 10
4421.75471913636
 20
2367.821973439992
 30
0.0
 41
1.0
 10
4421.751991892509
 20
2367.8198727368
 30
0.0
 41
1.0
 10
4421.750742687172
 20
2367.818625201117
 30
0.0
 41
1.0
 10
4421.748614203177
 20
2367.815844441098
 30
0.0
 41
1.0
 10
4421.747736147927
 20
2367.814312815089
 30
0.0
 41
1.0
 10
4421.746420476941
 20
2367.811131648197
 30
0.0
 41
1.0
 10
4421.745982629019
 20
2367.809484008583
 30
0.0
 41
1.0
 10
4421.745754670708
 20
2367.807862000912
 30
0.0
 41
1.0
  0
LINE
  5
14BC
330
1F
100
AcDbEntity
  8
SANINDUSA
100
AcDbLine
 10
4421.736787599777
 20
2367.74405797591
 30
0.0
 11
4421.745754669905
 21
2367.807861996571
 31
0.0
  0
LINE
  5
14BD
330
1F
100
AcDbEntity
  8
SANINDUSA
100
AcDbLine
 10
4421.755713011623
 20
2367.745887664834
 30
0.0
 11
4421.755704246158
 21
2367.746222527649
 31
0.0
  0
ARC
  5
14BE
330
1F
100
AcDbEntity
  8
SANINDUSA
100
AcDbCircle
 10
4421.790692252533
 20
2367.74713872084
 30
0.0
 40
0.0350000000000001
100
AcDbArc
 50
131.8096372250957
 51
181.4999999971548
  0
ARC
  5
14BF
330
1F
100
AcDbEntity
  8
SANINDUSA
100
AcDbCircle
 10
4421.682693680704
 20
2367.867887669006
 30
0.0
 40
0.1269999999999999
100
AcDbArc
 50
311.8096372250958
 51
0.0
  0
LINE
  5
14C0
330
1F
100
AcDbEntity
  8
SANINDUSA
100
AcDbLine
 10
4421.742358144885
 20
2367.692934104743
 30
0.0
 11
4421.757271941305
 21
2367.686354679743
 31
0.0
  0
LINE
  5
14C1
330
1F
100
AcDbEntity
  8
SANINDUSA
100
AcDbLine
 10
4421.757271941305
 20
2367.686354679743
 30
0.0
 11
4421.755713011623
 21
2367.745887664834
 31
0.0
  0
SPLINE
  5
14C4
330
1F
100
AcDbEntity
  8
SANINDUSA
100
AcDbSpline
210
0.0
220
0.0
230
1.0
 70
    12
 71
     3
 72
    41
 73
    37
 74
     0
 42
0.0000000001
 43
0.0000000001
 40
0.0
 40
0.0
 40
0.0
 40
0.0
 40
0.0312500000000004
 40
0.0312500000000004
 40
0.0625000000000007
 40
0.0937500000000011
 40
0.0937500000000011
 40
0.1093750000000012
 40
0.1093750000000012
 40
0.1250000000000014
 40
0.1250000000000014
 40
0.1875000000000013
 40
0.1875000000000013
 40
0.2500000000000011
 40
0.2500000000000011
 40
0.312500000000001
 40
0.312500000000001
 40
0.3750000000000009
 40
0.3750000000000009
 40
0.4375000000000007
 40
0.4375000000000007
 40
0.5000000000000006
 40
0.5000000000000006
 40
0.6250000000000009
 40
0.6250000000000009
 40
0.7500000000000009
 40
0.7500000000000009
 40
0.8125000000000005
 40
0.8125000000000005
 40
0.8281250000000001
 40
0.8281250000000001
 40
0.8437499999999998
 40
0.8437499999999998
 40
0.8749999999999996
 40
0.8749999999999996
 40
1.0
 40
1.0
 40
1.0
 40
1.0
 10
4421.544419368617
 20
2367.917206755856
 30
0.0
 41
1.0
 10
4421.544588515206
 20
2367.915806747677
 30
0.0
 41
1.0
 10
4421.544758636014
 20
2367.914399306741
 30
0.0
 41
1.0
 10
4421.545100849277
 20
2367.911572631102
 30
0.0
 41
1.0
 10
4421.545444607658
 20
2367.908736186533
 30
0.0
 41
1.0
 10
4421.545787480009
 20
2367.905905686976
 30
0.0
 41
1.0
 10
4421.546042811351
 20
2367.903794593543
 30
0.0
 41
1.0
 10
4421.54612665949
 20
2367.903092037288
 30
0.0
 41
1.0
 10
4421.546299221219
 20
2367.901703192469
 30
0.0
 41
1.0
 10
4421.546389736154
 20
2367.901017087827
 30
0.0
 41
1.0
 10
4421.546882253318
 20
2367.897606542654
 30
0.0
 41
1.0
 10
4421.54738772349
 20
2367.894954781212
 30
0.0
 41
1.0
 10
4421.548566182083
 20
2367.889849270617
 30
0.0
 41
1.0
 10
4421.549238768265
 20
2367.887396676058
 30
0.0
 41
1.0
 10
4421.550697530927
 20
2367.8827290751
 30
0.0
 41
1.0
 10
4421.551485087646
 20
2367.880510033396
 30
0.0
 41
1.0
 10
4421.553141541626
 20
2367.876286396995
 30
0.0
 41
1.0
 10
4421.55400676648
 20
2367.874287887994
 30
0.0
 41
1.0
 10
4421.555839667582
 20
2367.870394778538
 30
0.0
 41
1.0
 10
4421.556804393694
 20
2367.868507891873
 30
0.0
 41
1.0
 10
4421.558818258891
 20
2367.864852664114
 30
0.0
 41
1.0
 10
4421.559868231905
 20
2367.863083232036
 30
0.0
 41
1.0
 10
4421.563139883164
 20
2367.857934224506
 30
0.0
 41
1.0
 10
4421.565482477613
 20
2367.854709981213
 30
0.0
 41
1.0
 10
4421.570456583052
 20
2367.84863448637
 30
0.0
 41
1.0
 10
4421.573089639948
 20
2367.845785252192
 30
0.0
 41
1.0
 10
4421.577247169874
 20
2367.841775012869
 30
0.0
 41
1.0
 10
4421.578667673734
 20
2367.840482206567
 30
0.0
 41
1.0
 10
4421.580485489593
 20
2367.838919167881
 30
0.0
 41
1.0
 10
4421.580851091802
 20
2367.838609967036
 30
0.0
 41
1.0
 10
4421.581589604777
 20
2367.837989754457
 30
0.0
 41
1.0
 10
4421.581962046917
 20
2367.837678441075
 30
0.0
 41
1.0
 10
4421.583075749938
 20
2367.836736837005
 30
0.0
 41
1.0
 10
4421.583810670974
 20
2367.836103541355
 30
0.0
 41
1.0
 10
4421.587449883587
 20
2367.832909404722
 30
0.0
 41
1.0
 10
4421.590247978077
 20
2367.830265596653
 30
0.0
 41
1.0
 10
4421.59296297959
 20
2367.827535031956
 30
0.0
 41
1.0
  0
ARC
  5
14C5
330
1F
100
AcDbEntity
  8
SANINDUSA
100
AcDbCircle
 10
4421.377519823828
 20
2367.928337557111
 30
0.0
 40
0.1672702964671253
100
AcDbArc
 50
356.1845012276695
 51
12.97274742960557
  0
LINE
  5
14C6
330
1F
100
AcDbEntity
  8
SANINDUSA
100
AcDbLine
 10
4421.753785896464
 20
2367.83279244898
 30
0.0
 11
4421.753772213101
 21
2367.832665625068
 31
0.0
  0
ARC
  5
14CC
330
1F
100
AcDbEntity
  8
SANINDUSA
100
AcDbCircle
 10
4421.552112024834
 20
2367.970887669006
 30
0.0
 40
0.0050000000000001
100
AcDbArc
 50
4.999999996291116
 51
90.0
  0
LINE
  5
14CD
330
1F
100
AcDbEntity
  8
SANINDUSA
100
AcDbLine
 10
4421.552112024834
 20
2367.975887669006
 30
0.0
 11
4421.626026470987
 21
2367.975887669006
 31
0.0
  0
LWPOLYLINE
  5
14CF
330
1F
100
AcDbEntity
  8
SANINDUSA
100
AcDbPolyline
 90
       16
 70
   128
 43
0.0
 10
4421.562759447396
 20
2367.906555650511
 10
4421.563205781877
 20
2367.90658552734
 10
4421.56455901593
 20
2367.906676104048
 10
4421.566840495468
 20
2367.906828811148
 10
4421.570071581305
 20
2367.907045079151
 10
4421.573808628619
 20
2367.907295217493
 10
4421.578404262215
 20
2367.907602814713
 10
4421.583886973113
 20
2367.907969800511
 10
4421.588460802585
 20
2367.908275937418
 10
4421.593560877741
 20
2367.908617308119
 10
4421.599163386524
 20
2367.908992303291
 10
4421.603846411705
 20
2367.909305756668
 10
4421.608821374849
 20
2367.909638752917
 10
4421.614021108971
 20
2367.909986791888
 10
4421.619962837101
 20
2367.910384488979
 10
4421.626026470699
 20
2367.910790351907
  0
LWPOLYLINE
  5
14D0
330
1F
100
AcDbEntity
  8
SANINDUSA
100
AcDbPolyline
 90
        4
 70
   128
 43
0.0
 10
4421.55709299773
 20
2367.971323447523
 10
4421.558785330057
 20
2367.951980013156
 10
4421.560875404179
 20
2367.928090354183
 10
4421.562759447396
 20
2367.906555650511
  0
ARC
  5
14D1
330
1F
100
AcDbEntity
  8
SANINDUSA
100
AcDbCircle
 10
4421.572028164863
 20
2367.806691063389
 30
0.0
 40
0.0295421330324658
100
AcDbArc
 50
40.3517839657045
 51
44.87540644440971
  0
ARC
  5
14D2
330
1F
100
AcDbEntity
  8
SANINDUSA
100
AcDbCircle
 10
4421.366319524671
 20
2367.63160348248
 30
0.0
 40
0.2996748781609719
100
AcDbArc
 50
20.56856680191058
 51
40.39754813988174
  0
LINE
  5
14D3
330
1F
100
AcDbEntity
  8
SANINDUSA
100
AcDbLine
 10
4421.636177372021
 20
2367.736887669006
 30
0.0
 11
4421.646890854481
 21
2367.736887676397
 31
0.0
  0
ARC
  5
14D4
330
1F
100
AcDbEntity
  8
SANINDUSA
100
AcDbCircle
 10
4421.366024534985
 20
2367.631448375377
 30
0.0
 40
0.2900000000000005
100
AcDbArc
 50
21.32045151865673
 51
40.53516640300828
  0
LINE
  5
14D5
330
1F
100
AcDbEntity
  8
SANINDUSA
100
AcDbLine
 10
4421.54379827112
 20
2367.872777042666
 30
0.0
 11
4421.494693680704
 21
2367.870887669006
 31
0.0
  0
LINE
  5
14D6
330
1F
100
AcDbEntity
  8
SANINDUSA
100
AcDbLine
 10
4421.494344685737
 20
2367.880881577276
 30
0.0
 11
4421.494693680704
 21
2367.870887669006
 31
0.0
  0
LINE
  5
14D7
330
1F
100
AcDbEntity
  8
SANINDUSA
100
AcDbLine
 10
4421.533915590049
 20
2367.882438024262
 30
0.0
 11
4421.494344685737
 21
2367.880881577276
 31
0.0
  0
SPLINE
  5
14D8
330
1F
100
AcDbEntity
  8
SANINDUSA
100
AcDbSpline
210
0.0
220
0.0
230
1.0
 70
    12
 71
     3
 72
    22
 73
    18
 74
     0
 42
0.0000000001
 43
0.0000000001
 40
0.0
 40
0.0
 40
0.0
 40
0.0
 40
0.125
 40
0.125
 40
0.25
 40
0.25
 40
0.375
 40
0.375
 40
0.5
 40
0.5
 40
0.625
 40
0.625
 40
0.75
 40
0.75
 40
0.875
 40
0.875
 40
1.0
 40
1.0
 40
1.0
 40
1.0
 10
4421.533915590644
 20
2367.882438027573
 30
0.0
 41
1.0
 10
4421.534238787083
 20
2367.882449313841
 30
0.0
 41
1.0
 10
4421.534576201946
 20
2367.882492677051
 30
0.0
 41
1.0
 10
4421.535260079994
 20
2367.882658323775
 30
0.0
 41
1.0
 10
4421.535606447957
 20
2367.882780803113
 30
0.0
 41
1.0
 10
4421.536280493812
 20
2367.883111514206
 30
0.0
 41
1.0
 10
4421.536607936496
 20
2367.883319864421
 30
0.0
 41
1.0
 10
4421.537212963188
 20
2367.883815713893
 30
0.0
 41
1.0
 10
4421.537490257384
 20
2367.884103148575
 30
0.0
 41
1.0
 10
4421.537968704135
 20
2367.884735972659
 30
0.0
 41
1.0
 10
4421.538169670122
 20
2367.885081115295
 30
0.0
 41
1.0
 10
4421.538481826004
 20
2367.885798389791
 30
0.0
 41
1.0
 10
4421.538593032764
 20
2367.886170225211
 30
0.0
 41
1.0
 10
4421.538727490322
 20
2367.886908892123
 30
0.0
 41
1.0
 10
4421.538750919207
 20
2367.887275529602
 30
0.0
 41
1.0
 10
4421.538723882768
 20
2367.88797866334
 30
0.0
 41
1.0
 10
4421.538673631808
 20
2367.888315121359
 30
0.0
 41
1.0
 10
4421.53859639419
 20
2367.888629155862
 30
0.0
 41
1.0
  0
SPLINE
  5
14D9
330
1F
100
AcDbEntity
  8
SANINDUSA
100
AcDbSpline
210
0.0
220
0.0
230
1.0
 70
    12
 71
     3
 72
    16
 73
    12
 74
     0
 42
0.0000000001
 43
0.0000000001
 40
0.0
 40
0.0
 40
0.0
 40
0.0
 40
0.1249999999999987
 40
0.1249999999999987
 40
0.1874999999999981
 40
0.1874999999999981
 40
0.2499999999999974
 40
0.2499999999999974
 40
0.4999999999999984
 40
0.4999999999999984
 40
1.0
 40
1.0
 40
1.0
 40
1.0
 10
4421.536033354073
 20
2367.903270244896
 30
0.0
 41
1.0
 10
4421.53610472864
 20
2367.902680104158
 30
0.0
 41
1.0
 10
4421.536174612625
 20
2367.902097011352
 30
0.0
 41
1.0
 10
4421.536286714768
 20
2367.901183291155
 30
0.0
 41
1.0
 10
4421.536325272611
 20
2367.900873630086
 30
0.0
 41
1.0
 10
4421.536406067555
 20
2367.9002443343
 30
0.0
 41
1.0
 10
4421.53644857987
 20
2367.899923394933
 30
0.0
 41
1.0
 10
4421.53666733442
 20
2367.898332075494
 30
0.0
 41
1.0
 10
4421.536864229095
 20
2367.897075459682
 30
0.0
 41
1.0
 10
4421.537513642118
 20
2367.893359145003
 30
0.0
 41
1.0
 10
4421.538024837679
 20
2367.89095300361
 30
0.0
 41
1.0
 10
4421.538596394189
 20
2367.888629155864
 30
0.0
 41
1.0
  0
ARC
  5
14DA
330
1F
100
AcDbEntity
  8
SANINDUSA
100
AcDbCircle
 10
4421.531069526936
 20
2367.902669894879
 30
0.0
 40
0.0050000000000002
100
AcDbArc
 50
6.896142698057228
 51
88.00000002228562
  0
LINE
  5
14DB
330
1F
100
AcDbEntity
  8
SANINDUSA
100
AcDbLine
 10
4421.424693677128
 20
2367.911387672404
 30
0.0
 11
4421.53124402442
 21
2367.907666849014
 31
0.0
  0
LINE
  5
14DC
330
1F
100
AcDbEntity
  8
SANINDUSA
100
AcDbLine
 10
4421.424693680704
 20
2367.921387669006
 30
0.0
 11
4421.424693677128
 21
2367.911387672404
 31
0.0
  0
LINE
  5
14DD
330
1F
100
AcDbEntity
  8
SANINDUSA
100
AcDbLine
 10
4421.464693680705
 20
2367.931387669006
 30
0.0
 11
4421.464693683319
 21
2367.921387668818
 31
0.0
  0
LINE
  5
14DE
330
1F
100
AcDbEntity
  8
SANINDUSA
100
AcDbLine
 10
4421.474693680703
 20
2367.931387669006
 30
0.0
 11
4421.464693680705
 21
2367.931387669006
 31
0.0
  0
LINE
  5
14DF
330
1F
100
AcDbEntity
  8
SANINDUSA
100
AcDbLine
 10
4421.474693680703
 20
2367.931387669006
 30
0.0
 11
4421.474693674148
 21
2367.91964163048
 31
0.0
  0
LINE
  5
14E0
330
1F
100
AcDbEntity
  8
SANINDUSA
100
AcDbLine
 10
4421.544419366419
 20
2367.917206754664
 30
0.0
 11
4421.474693674148
 21
2367.91964163048
 31
0.0
  0
SPLINE
  5
14E1
330
1F
100
AcDbEntity
  8
SANINDUSA
100
AcDbSpline
210
0.0
220
0.0
230
1.0
 70
    12
 71
     3
 72
    35
 73
    31
 74
     0
 42
0.0000000001
 43
0.0000000001
 40
0.0
 40
0.0
 40
0.0
 40
0.0
 40
0.0624999999999991
 40
0.0624999999999991
 40
0.1249999999999981
 40
0.1249999999999981
 40
0.2499999999999957
 40
0.2499999999999957
 40
0.3749999999999929
 40
0.3749999999999929
 40
0.4999999999999905
 40
0.4999999999999905
 40
0.6249999999999881
 40
0.6249999999999881
 40
0.6874999999999872
 40
0.6874999999999872
 40
0.7187499999999867
 40
0.7187499999999867
 40
0.7343749999999867
 40
0.7343749999999867
 40
0.7499999999999867
 40
0.7499999999999867
 40
0.7578124999999865
 40
0.7578124999999865
 40
0.7656249999999863
 40
0.7812499999999874
 40
0.8124999999999891
 40
0.8749999999999927
 40
0.8749999999999927
 40
1.0
 40
1.0
 40
1.0
 40
1.0
 10
4421.543798270743
 20
2367.872777042923
 30
0.0
 41
1.0
 10
4421.544433501934
 20
2367.871244870757
 30
0.0
 41
1.0
 10
4421.545090102181
 20
2367.869759605219
 30
0.0
 41
1.0
 10
4421.546453052776
 20
2367.86684787126
 30
0.0
 41
1.0
 10
4421.547159184199
 20
2367.865422282012
 30
0.0
 41
1.0
 10
4421.549344681478
 20
2367.86123551587
 30
0.0
 41
1.0
 10
4421.550893022434
 20
2367.858561694858
 30
0.0
 41
1.0
 10
4421.55415281531
 20
2367.853432214763
 30
0.0
 41
1.0
 10
4421.555861908324
 20
2367.85097844849
 30
0.0
 41
1.0
 10
4421.559434812621
 20
2367.846258731324
 30
0.0
 41
1.0
 10
4421.561296556034
 20
2367.843997049459
 30
0.0
 41
1.0
 10
4421.565167449928
 20
2367.839657133668
 30
0.0
 41
1.0
 10
4421.567175797252
 20
2367.837580258103
 30
0.0
 41
1.0
 10
4421.570290545843
 20
2367.834601043572
 30
0.0
 41
1.0
 10
4421.571345828721
 20
2367.833630645369
 30
0.0
 41
1.0
 10
4421.572953388425
 20
2367.832208524547
 30
0.0
 41
1.0
 10
4421.573493347481
 20
2367.831740063019
 30
0.0
 41
1.0
 10
4421.574309330302
 20
2367.831045666164
 30
0.0
 41
1.0
 10
4421.574578218789
 20
2367.830819272045
 30
0.0
 41
1.0
 10
4421.575094458038
 20
2367.830385895112
 30
0.0
 41
1.0
 10
4421.575343821495
 20
2367.830177165048
 30
0.0
 41
1.0
 10
4421.575703371098
 20
2367.829874711163
 30
0.0
 41
1.0
 10
4421.575820617581
 20
2367.829775805785
 30
0.0
 41
1.0
 10
4421.57605620194
 20
2367.829576402214
 30
0.0
 41
1.0
 10
4421.576409015623
 20
2367.829276808982
 30
0.0
 41
1.0
 10
4421.577228361164
 20
2367.828574334787
 30
0.0
 41
1.0
 10
4421.578851933601
 20
2367.827155627691
 30
0.0
 41
1.0
 10
4421.580219106031
 20
2367.825915781287
 30
0.0
 41
1.0
 10
4421.582924637515
 20
2367.82340375735
 30
0.0
 41
1.0
 10
4421.584689934842
 20
2367.821685948398
 30
0.0
 41
1.0
 10
4421.586426626156
 20
2367.819923620987
 30
0.0
 41
1.0
  0
LINE
  5
14E4
330
1F
100
AcDbEntity
  8
SANINDUSA
100
AcDbLine
 10
4421.544183867909
 20
2367.789012844519
 30
0.0
 11
4421.544195059817
 21
2367.788984438909
 31
0.0
  0
LWPOLYLINE
  5
14E7
330
1F
100
AcDbEntity
  8
SANINDUSA
100
AcDbPolyline
 90
        4
 70
   128
 43
0.0
 10
4421.646741662193
 20
2367.737264914194
 10
4421.646884898208
 20
2367.736919460574
 10
4421.646884919163
 20
2367.736919400969
 10
4421.646884919163
 20
2367.736919400969
  0
ARC
  5
14E8
330
1F
100
AcDbEntity
  8
SANINDUSA
100
AcDbCircle
 10
4421.594541275427
 20
2367.825819586858
 30
0.0
 40
0.0000007705815337
100
AcDbArc
 50
306.6586922437511
 51
313.5431228482326
  0
LINE
  5
14E9
330
1F
100
AcDbEntity
  8
SANINDUSA
100
AcDbLine
 10
4421.494344685737
 20
2367.780893760736
 30
0.0
 11
4421.494344685737
 21
2367.880881577276
 31
0.0
  0
ARC
  5
14F0
330
1F
100
AcDbEntity
  8
SANINDUSA
100
AcDbCircle
 10
4421.571632409771
 20
2367.806325352585
 30
0.0
 40
0.0300806223538054
100
AcDbArc
 50
40.39456196797179
 51
44.83717144226521
  0
LWPOLYLINE
  5
14F3
330
1F
100
AcDbEntity
  8
SANINDUSA
100
AcDbPolyline
 90
       26
 70
   128
 43
0.0
 10
4421.682193681151
 20
2367.914549836645
 10
4421.688127584308
 20
2367.914947015921
 10
4421.694040085673
 20
2367.91534276096
 10
4421.699907678664
 20
2367.915735499689
 10
4421.705707031787
 20
2367.916123671213
 10
4421.711415085495
 20
2367.916505733261
 10
4421.717009152771
 20
2367.916880165914
 10
4421.722466978729
 20
2367.917245479056
 10
4421.72776686728
 20
2367.917600219825
 10
4421.732887755633
 20
2367.91794298006
 10
4421.737809273898
 20
2367.918272396305
 10
4421.742511849404
 20
2367.918587157259
 10
4421.746976796091
 20
2367.918886014948
 10
4421.751186351776
 20
2367.919167777279
 10
4421.755123789907
 20
2367.919431322941
 10
4421.758773441911
 20
2367.919675608852
 10
4421.762120808959
 20
2367.919899658987
 10
4421.765152576864
 20
2367.920102586726
 10
4421.767856690586
 20
2367.92028358368
 10
4421.770222398937
 20
2367.920441930869
 10
4421.772240284384
 20
2367.920576994995
 10
4421.773902345002
 20
2367.920688243339
 10
4421.775201964677
 20
2367.920775232593
 10
4421.776133972705
 20
2367.920837612579
 10
4421.776694658697
 20
2367.920875141153
 10
4421.77688180238
 20
2367.920887669304
  0
LINE
  5
14F4
330
1F
100
AcDbEntity
  8
SANINDUSA
100
AcDbLine
 10
4421.41892737478
 20
2367.714279098192
 30
0.0
 11
4421.401346384349
 21
2367.71117908525
 31
0.0
  0
LINE
  5
14F5
330
1F
100
AcDbEntity
  8
SANINDUSA
100
AcDbLine
 10
4421.41529085107
 20
2367.672713357521
 30
0.0
 11
4421.41892737478
 21
2367.714279098192
 31
0.0
  0
ARC
  5
14F6
330
1F
100
AcDbEntity
  8
SANINDUSA
100
AcDbCircle
 10
4421.413298461675
 20
2367.672887669006
 30
0.0
 40
0.0020000000000002
100
AcDbArc
 50
270.0
 51
355.0000000037089
  0
LINE
  5
14F7
330
1F
100
AcDbEntity
  8
SANINDUSA
100
AcDbLine
 10
4421.401693680705
 20
2367.670887669006
 30
0.0
 11
4421.413298461675
 21
2367.670887669006
 31
0.0
  0
ARC
  5
14F8
330
1F
100
AcDbEntity
  8
SANINDUSA
100
AcDbCircle
 10
4421.401693680705
 20
2367.672887669006
 30
0.0
 40
0.0020000000000002
100
AcDbArc
 50
180.0
 51
270.0
  0
ARC
  5
14F9
330
1F
100
AcDbEntity
  8
SANINDUSA
100
AcDbCircle
 10
4421.401693680705
 20
2367.709209469744
 30
0.0
 40
0.0020000000000002
100
AcDbArc
 50
99.99999997556374
 51
180.0
  0
LINE
  5
14FA
330
1F
100
AcDbEntity
  8
SANINDUSA
100
AcDbLine
 10
4421.399693680704
 20
2367.709209469744
 30
0.0
 11
4421.399693680704
 21
2367.672887669006
 31
0.0
  0
ARC
  5
14FF
330
1F
100
AcDbEntity
  8
SANINDUSA
100
AcDbCircle
 10
4421.415140474934
 20
2367.667435634615
 30
0.0
 40
0.0015482855947636
100
AcDbArc
 50
268.8394585709465
 51
275.8185266411901
  0
LINE
  5
1500
330
1F
100
AcDbEntity
  8
SANINDUSA
100
AcDbLine
 10
4421.414693686664
 20
2367.665887666622
 30
0.0
 11
4421.415109116137
 21
2367.665887666622
 31
0.0
  0
LINE
  5
1501
330
1F
100
AcDbEntity
  8
SANINDUSA
100
AcDbLine
 10
4421.401693680705
 20
2367.665887669006
 30
0.0
 11
4421.414693686664
 21
2367.665887666622
 31
0.0
  0
LINE
  5
1505
330
1F
100
AcDbEntity
  8
SANINDUSA
100
AcDbLine
 10
4421.424693680704
 20
2367.921387669006
 30
0.0
 11
4421.424693680704
 21
2367.976387669006
 31
0.0
  0
LINE
  5
1506
330
1F
100
AcDbEntity
  8
SANINDUSA
100
AcDbLine
 10
4421.464693680705
 20
2367.966387669006
 30
0.0
 11
4421.474693680703
 21
2367.966387669006
 31
0.0
  0
LINE
  5
1507
330
1F
100
AcDbEntity
  8
SANINDUSA
100
AcDbLine
 10
4421.464693680705
 20
2367.931387669006
 30
0.0
 11
4421.464693680705
 21
2367.966387669006
 31
0.0
  0
LINE
  5
1508
330
1F
100
AcDbEntity
  8
SANINDUSA
100
AcDbLine
 10
4421.474693680703
 20
2367.931387669006
 30
0.0
 11
4421.474693680703
 21
2367.966387669006
 31
0.0
  0
ARC
  5
1509
330
1F
100
AcDbEntity
  8
SANINDUSA
100
AcDbCircle
 10
4421.480797045511
 20
2367.979887669006
 30
0.0
 40
0.0140000000000001
100
AcDbArc
 50
244.1539460188996
 51
270.0
  0
LINE
  5
150A
330
1F
100
AcDbEntity
  8
SANINDUSA
100
AcDbLine
 10
4421.424693677128
 20
2367.977966313472
 30
0.0
 11
4421.401681437863
 21
2367.978107183736
 31
0.0
  0
ARC
  5
150B
330
1F
100
AcDbEntity
  8
SANINDUSA
100
AcDbCircle
 10
4421.401693680705
 20
2367.980107146264
 30
0.0
 40
0.0020000000000002
100
AcDbArc
 50
180.0
 51
269.6492662511368
  0
LINE
  5
150C
330
1F
100
AcDbEntity
  8
SANINDUSA
100
AcDbLine
 10
4421.471827652615
 20
2367.987677968574
 30
0.0
 11
4421.401705923545
 21
2367.98810722121
 31
0.0
  0
ARC
  5
150D
330
1F
100
AcDbEntity
  8
SANINDUSA
100
AcDbCircle
 10
4421.471797045511
 20
2367.982678062254
 30
0.0
 40
0.005
100
AcDbArc
 50
0.0
 51
89.64926625113688
  0
LINE
  5
150E
330
1F
100
AcDbEntity
  8
SANINDUSA
100
AcDbLine
 10
4421.476797045511
 20
2367.979887669006
 30
0.0
 11
4421.476797045511
 21
2367.982678062254
 31
0.0
  0
ARC
  5
150F
330
1F
100
AcDbEntity
  8
SANINDUSA
100
AcDbCircle
 10
4421.480797045511
 20
2367.979887669006
 30
0.0
 40
0.0040000000000003
100
AcDbArc
 50
180.0
 51
270.0
  0
ARC
  5
1510
330
1F
100
AcDbEntity
  8
SANINDUSA
100
AcDbCircle
 10
4421.401693680705
 20
2367.986107258682
 30
0.0
 40
0.0020000000000002
100
AcDbArc
 50
89.64926625113688
 51
180.0
  0
LINE
  5
1511
330
1F
100
AcDbEntity
  8
SANINDUSA
100
AcDbLine
 10
4421.464693683319
 20
2367.976387669006
 30
0.0
 11
4421.464693680705
 21
2367.966387669006
 31
0.0
  0
LINE
  5
1512
330
1F
100
AcDbEntity
  8
SANINDUSA
100
AcDbLine
 10
4421.474693680703
 20
2367.967288107981
 30
0.0
 11
4421.474693680703
 21
2367.966387669006
 31
0.0
  0
LINE
  5
1513
330
1F
100
AcDbEntity
  8
SANINDUSA
100
AcDbLine
 10
4421.424693677128
 20
2367.977966313472
 30
0.0
 11
4421.424693680704
 21
2367.976387669006
 31
0.0
  0
LINE
  5
1514
330
1F
100
AcDbEntity
  8
SANINDUSA
100
AcDbLine
 10
4421.399693680704
 20
2367.986107258682
 30
0.0
 11
4421.399693680704
 21
2367.980107146264
 31
0.0
  0
LINE
  5
1515
330
1F
100
AcDbEntity
  8
SANINDUSA
100
AcDbLine
 10
4421.552779685259
 20
2367.905887668708
 30
0.0
 11
4421.562759447396
 21
2367.906555650511
 31
0.0
  0
LWPOLYLINE
  5
1516
330
1F
100
AcDbEntity
  8
SANINDUSA
100
AcDbPolyline
 90
        3
 70
   128
 43
0.0
 10
4421.547530371249
 20
2367.96588766923
 10
4421.550155024529
 20
2367.935887692252
 10
4421.552779685259
 20
2367.905887668708
  0
LINE
  5
1517
330
1F
100
AcDbEntity
  8
SANINDUSA
100
AcDbLine
 10
4421.547530371249
 20
2367.96588766923
 30
0.0
 11
4421.480797045511
 21
2367.965887669006
 31
0.0
  0
LINE
  5
1518
330
1F
100
AcDbEntity
  8
SANINDUSA
100
AcDbLine
 10
4421.552112024834
 20
2367.975887669006
 30
0.0
 11
4421.480797045511
 21
2367.975887669006
 31
0.0
  0
LINE
  5
151B
330
1F
100
AcDbEntity
  8
SANINDUSA
100
AcDbLine
 10
4421.735869254471
 20
2367.809376550594
 30
0.0
 11
4421.735874222092
 21
2367.809411921325
 31
0.0
  0
LINE
  5
151E
330
1F
100
AcDbEntity
  8
SANINDUSA
100
AcDbLine
 10
4421.759756202208
 20
2367.665887669006
 30
0.0
 11
4421.678490964846
 21
2367.665887669006
 31
0.0
  0
ARC
  5
1520
330
1F
100
AcDbEntity
  8
SANINDUSA
100
AcDbCircle
 10
4421.401683759945
 20
2367.974953273813
 30
0.0
 40
0.001990097619066
100
AcDbArc
 50
180.2798751387597
 51
269.8204169342813
  0
LINE
  5
1521
330
1F
100
AcDbEntity
  8
SANINDUSA
100
AcDbLine
 10
4421.399693680704
 20
2367.974943552716
 30
0.0
 11
4421.399693680704
 21
2367.980107146264
 31
0.0
  0
LINE
  5
1523
330
1F
100
AcDbEntity
  8
SANINDUSA
100
AcDbLine
 10
4421.682193680704
 20
2367.975887669006
 30
0.0
 11
4421.786275336574
 21
2367.975887669006
 31
0.0
  0
ARC
  5
1524
330
1F
100
AcDbEntity
  8
SANINDUSA
100
AcDbCircle
 10
4421.401693512825
 20
2367.667887493379
 30
0.0
 40
0.0019998267634106
100
AcDbArc
 50
179.9949204011454
 51
270.0046527120284
  0
LINE
  5
1525
330
1F
100
AcDbEntity
  8
SANINDUSA
100
AcDbLine
 10
4421.399693680704
 20
2367.667887669006
 30
0.0
 11
4421.399693680704
 21
2367.672887669006
 31
0.0
  0
LWPOLYLINE
  5
1539
330
1F
100
AcDbEntity
  8
SANINDUSA
100
AcDbPolyline
 90
        7
 70
   128
 43
0.0
 10
4421.419472258086
 20
2367.720507091267
 10
4421.419376391471
 20
2367.719411296526
 10
4421.419219288528
 20
2367.7176156768
 10
4421.419093597234
 20
2367.71617893664
 10
4421.419001895488
 20
2367.715130818764
 10
4421.41894610554
 20
2367.714493138471
 10
4421.41892737478
 20
2367.714279098192
  0
LINE
  5
153B
330
1F
100
AcDbEntity
  8
SANINDUSA
100
AcDbLine
 10
4421.399693680704
 20
2367.709209469744
 30
0.0
 11
4421.399693680704
 21
2367.732057070004
 31
0.0
  0
CIRCLE
  5
1540
330
1F
100
AcDbEntity
  8
SANINDUSA
100
AcDbCircle
 10
4421.559693680705
 20
2367.715887669006
 30
0.0
 40
0.0060000000000001
  0
LINE
  5
1543
330
1F
100
AcDbEntity
  8
SANINDUSA
100
AcDbLine
 10
4421.399693680704
 20
2367.968195882787
 30
0.0
 11
4421.399693680704
 21
2367.974943552716
 31
0.0
  0
LWPOLYLINE
  5
1544
330
1F
100
AcDbEntity
  8
SANINDUSA
100
AcDbPolyline
 90
        4
 70
   128
 43
0.0
 10
4421.478893760145
 20
2367.882276242355
 10
4421.478926214874
 20
2367.882294906059
 10
4421.484596419633
 20
2367.885529672483
 10
4421.487693450831
 20
2367.887181953543
  0
ARC
  5
1545
330
1F
100
AcDbEntity
  8
SANINDUSA
100
AcDbCircle
 10
4421.544262647115
 20
2367.635818960302
 30
0.0
 40
0.2549789859193052
100
AcDbArc
 50
102.8182015257349
 51
104.8547616799099
  0
LINE
  5
1548
330
1F
100
AcDbEntity
  8
SANINDUSA
100
AcDbLine
 10
4421.399693680704
 20
2367.732057070004
 30
0.0
 11
4421.399693680704
 21
2367.968195882787
 31
0.0
  0
LINE
  5
154B
330
1F
100
AcDbEntity
  8
SANINDUSA
100
AcDbLine
 10
4421.678490964846
 20
2367.665887669006
 30
0.0
 11
4421.534693450832
 21
2367.665887669006
 31
0.0
  0
LINE
  5
154C
330
1F
100
AcDbEntity
  8
SANINDUSA
100
AcDbLine
 10
4421.444693450831
 20
2367.665887669006
 30
0.0
 11
4421.419993850897
 21
2367.665887669006
 31
0.0
  0
LINE
  5
154D
330
1F
100
AcDbEntity
  8
SANINDUSA
100
AcDbLine
 10
4421.419993850897
 20
2367.665887669006
 30
0.0
 11
4421.415109116137
 21
2367.665887666622
 31
0.0
  0
LINE
  5
154F
330
1F
100
AcDbEntity
  8
SANINDUSA
100
AcDbLine
 10
4421.626026470699
 20
2367.910790351907
 30
0.0
 11
4421.682193681151
 21
2367.914549836645
 31
0.0
  0
LINE
  5
1550
330
1F
100
AcDbEntity
  8
SANINDUSA
100
AcDbLine
 10
4421.626026470987
 20
2367.975887669006
 30
0.0
 11
4421.682193680704
 21
2367.975887669006
 31
0.0
  0
LINE
  5
1551
330
1F
100
AcDbEntity
  8
SANINDUSA
100
AcDbLine
 10
4421.809693680704
 20
2367.867887669006
 30
0.0
 11
4421.806447847434
 21
2367.867887669006
 31
0.0
  0
LWPOLYLINE
  5
1552
330
1F
100
AcDbEntity
  8
SANINDUSA
100
AcDbPolyline
 90
       10
 70
   128
 43
0.0
 10
4421.767359230221
 20
2367.773226452747
 10
4421.766736480893
 20
2367.773252216855
 10
4421.765558335483
 20
2367.773300958553
 10
4421.763779203891
 20
2367.773374614993
 10
4421.761331822277
 20
2367.773476017395
 10
4421.75827911079
 20
2367.773602677265
 10
4421.754751231075
 20
2367.773749245086
 10
4421.750696997643
 20
2367.773917956034
 10
4421.746003310681
 20
2367.774113652984
 10
4421.74104079187
 20
2367.774321017543
  0
LWPOLYLINE
  5
1553
330
1F
100
AcDbEntity
  8
SANINDUSA
100
AcDbPolyline
 90
        8
 70
   128
 43
0.0
 10
4421.737247641683
 20
2367.747331363836
 10
4421.738207023144
 20
2367.747273398319
 10
4421.7433735165
 20
2367.746962142864
 10
4421.74769477129
 20
2367.746702430526
 10
4421.751115995944
 20
2367.746497196833
 10
4421.753618534207
 20
2367.746347306052
 10
4421.755154910981
 20
2367.746255380788
 10
4421.75570424974
 20
2367.746222523728
  0
LWPOLYLINE
  5
1559
330
1F
100
AcDbEntity
  8
SANINDUSA
100
AcDbPolyline
 90
        3
 70
   128
 43
0.0
 10
4421.401677522362
 20
2367.97296318597
 10
4421.409692037403
 20
2367.972917220311
 10
4421.424693677128
 20
2367.972831204755
  0
ELLIPSE
  5
155D
330
1F
100
AcDbEntity
  8
SANINDUSA
100
AcDbEllipse
 10
4421.594083055796
 20
2372.045571181984
 30
0.0
 11
-0.0027943005045711
 21
6.110153487086094
 31
0.0
210
0.0
220
0.0
230
1.0
 40
0.0261819278545014
 41
2.314347237413402
 42
2.32042149777145
  0
LINE
  5
155E
330
1F
100
AcDbEntity
  8
SANINDUSA
100
AcDbLine
 10
4421.487693450831
 20
2367.882272221967
 30
0.0
 11
4421.478893760145
 21
2367.882276242355
 31
0.0
  0
ELLIPSE
  5
155F
330
1F
100
AcDbEntity
  8
SANINDUSA
100
AcDbEllipse
 10
4421.594693680704
 20
2372.046487375175
 30
0.0
 11
-0.0021824639301764
 21
6.110153487361009
 31
0.0
210
0.0
220
0.0
230
1.0
 40
0.0204546328027721
 41
2.314757498405275
 42
2.317479727234253
  0
ELLIPSE
  5
1560
330
1F
100
AcDbEntity
  8
SANINDUSA
100
AcDbEllipse
 10
4421.594693680704
 20
2367.861970197697
 30
0.0
 11
0.1249995389377202
 21
0.0008979601654398
 31
0.0
210
0.0
220
0.0
230
1.0
 40
0.3780875086289889
 41
2.056783328404296
 42
2.163683929173235
  0
ELLIPSE
  5
1561
330
1F
100
AcDbEntity
  8
SANINDUSA
100
AcDbEllipse
 10
4421.594693680704
 20
2367.861970197697
 30
0.0
 11
0.1249995389377202
 21
0.0008979601654398
 31
0.0
210
0.0
220
0.0
230
1.0
 40
0.3780875086289889
 41
2.262580922247412
 42
2.307027233074038
  0
LINE
  5
1563
330
1F
100
AcDbEntity
  8
SANINDUSA
100
AcDbLine
 10
4421.424693680704
 20
2367.976387669006
 30
0.0
 11
4421.464693683319
 21
2367.976387669006
 31
0.0
  0
LINE
  5
1564
330
1F
100
AcDbEntity
  8
SANINDUSA
100
AcDbLine
 10
4421.424693680704
 20
2367.921387668818
 30
0.0
 11
4421.464693683319
 21
2367.921387668818
 31
0.0
  0
LINE
  5
156E
330
1F
100
AcDbEntity
  8
SANINDUSA
100
AcDbLine
 10
4421.446693450831
 20
2367.680635004824
 30
0.0
 11
4421.446693450831
 21
2367.592387669006
 31
0.0
  0
LINE
  5
156F
330
1F
100
AcDbEntity
  8
SANINDUSA
100
AcDbLine
 10
4421.532693450831
 20
2367.592387669006
 30
0.0
 11
4421.532693450831
 21
2367.703808717787
 31
0.0
  0
LINE
  5
1570
330
1F
100
AcDbEntity
  8
SANINDUSA
100
AcDbLine
 10
4421.534693450832
 20
2367.596119719813
 30
0.0
 11
4421.534693450832
 21
2367.703808720737
 31
0.0
  0
LINE
  5
1571
330
1F
100
AcDbEntity
  8
SANINDUSA
100
AcDbLine
 10
4421.446693450831
 20
2367.592387669006
 30
0.0
 11
4421.532693450831
 21
2367.592387669006
 31
0.0
  0
LINE
  5
1572
330
1F
100
AcDbEntity
  8
SANINDUSA
100
AcDbLine
 10
4421.444693450831
 20
2367.596119719813
 30
0.0
 11
4421.445693450832
 21
2367.592387669006
 31
0.0
  0
LINE
  5
1573
330
1F
100
AcDbEntity
  8
SANINDUSA
100
AcDbLine
 10
4421.445693450832
 20
2367.592387669006
 30
0.0
 11
4421.446693450831
 21
2367.592387669006
 31
0.0
  0
LINE
  5
1574
330
1F
100
AcDbEntity
  8
SANINDUSA
100
AcDbLine
 10
4421.532693450831
 20
2367.592387669006
 30
0.0
 11
4421.533693450832
 21
2367.592387669006
 31
0.0
  0
LINE
  5
1575
330
1F
100
AcDbEntity
  8
SANINDUSA
100
AcDbLine
 10
4421.533693450832
 20
2367.592387669006
 30
0.0
 11
4421.534693450832
 21
2367.596119719813
 31
0.0
  0
ARC
  5
1576
330
1F
100
AcDbEntity
  8
SANINDUSA
100
AcDbCircle
 10
4421.460693450831
 20
2367.822387669006
 30
0.0
 40
0.056
100
AcDbArc
 50
100.2865606062312
 51
180.0
  0
ARC
  5
1577
330
1F
100
AcDbEntity
  8
SANINDUSA
100
AcDbCircle
 10
4421.460693450831
 20
2367.822387669006
 30
0.0
 40
0.0539999999999999
100
AcDbArc
 50
90.0
 51
180.0
  0
LINE
  5
1578
330
1F
100
AcDbEntity
  8
SANINDUSA
100
AcDbLine
 10
4421.406693450831
 20
2367.746664491833
 30
0.0
 11
4421.406693450831
 21
2367.779917090955
 31
0.0
  0
LINE
  5
1579
330
1F
100
AcDbEntity
  8
SANINDUSA
100
AcDbLine
 10
4421.40469345083
 20
2367.746664491833
 30
0.0
 11
4421.40469345083
 21
2367.779917090956
 31
0.0
  0
LINE
  5
157A
330
1F
100
AcDbEntity
  8
SANINDUSA
100
AcDbLine
 10
4421.406693450831
 20
2367.822387669006
 30
0.0
 11
4421.406693450831
 21
2367.779917090955
 31
0.0
  0
LINE
  5
157B
330
1F
100
AcDbEntity
  8
SANINDUSA
100
AcDbLine
 10
4421.40469345083
 20
2367.822387669006
 30
0.0
 11
4421.40469345083
 21
2367.779917090955
 31
0.0
  0
LINE
  5
157C
330
1F
100
AcDbEntity
  8
SANINDUSA
100
AcDbLine
 10
4421.406693450831
 20
2367.779917090955
 30
0.0
 11
4421.406693450836
 21
2367.779917090955
 31
0.0
  0
LINE
  5
157D
330
1F
100
AcDbEntity
  8
SANINDUSA
100
AcDbLine
 10
4421.530693450832
 20
2367.765387669006
 30
0.0
 11
4421.530693450832
 21
2367.763387669006
 31
0.0
  0
LINE
  5
157E
330
1F
100
AcDbEntity
  8
SANINDUSA
100
AcDbLine
 10
4421.50069345083
 20
2367.763999130369
 30
0.0
 11
4421.50069345083
 21
2367.765387669006
 31
0.0
  0
LINE
  5
157F
330
1F
100
AcDbEntity
  8
SANINDUSA
100
AcDbLine
 10
4421.49937724958
 20
2367.761764513014
 30
0.0
 11
4421.527906528665
 21
2367.719466038677
 31
0.0
  0
LINE
  5
1580
330
1F
100
AcDbEntity
  8
SANINDUSA
100
AcDbLine
 10
4421.501035375687
 20
2367.762880744562
 30
0.0
 11
4421.529564602895
 21
2367.720584425841
 31
0.0
  0
ARC
  5
1581
330
1F
100
AcDbEntity
  8
SANINDUSA
100
AcDbCircle
 10
4421.502693450831
 20
2367.763999130369
 30
0.0
 40
0.0020000000000001
100
AcDbArc
 50
180.0
 51
213.9999999951693
  0
ARC
  5
1582
330
1F
100
AcDbEntity
  8
SANINDUSA
100
AcDbCircle
 10
4421.504693626706
 20
2367.70380874124
 30
0.0
 40
0.0299998176965208
100
AcDbArc
 50
0.0
 51
33.99999865838566
  0
ARC
  5
1583
330
1F
100
AcDbEntity
  8
SANINDUSA
100
AcDbCircle
 10
4421.504693656093
 20
2367.703808761236
 30
0.0
 40
0.0279997830701829
100
AcDbArc
 50
0.0
 51
33.99999524734699
  0
LINE
  5
1584
330
1F
100
AcDbEntity
  8
SANINDUSA
100
AcDbLine
 10
4421.530693450832
 20
2367.763387669006
 30
0.0
 11
4421.534693450832
 21
2367.763387669006
 31
0.0
  0
LINE
  5
1585
330
1F
100
AcDbEntity
  8
SANINDUSA
100
AcDbLine
 10
4421.534693450832
 20
2367.767387669006
 30
0.0
 11
4421.498693450831
 21
2367.767387669006
 31
0.0
  0
LINE
  5
1586
330
1F
100
AcDbEntity
  8
SANINDUSA
100
AcDbLine
 10
4421.530693450832
 20
2367.765387669006
 30
0.0
 11
4421.50069345083
 21
2367.765387669006
 31
0.0
  0
LINE
  5
1587
330
1F
100
AcDbEntity
  8
SANINDUSA
100
AcDbLine
 10
4421.498693450831
 20
2367.767362167865
 30
0.0
 11
4421.498693450831
 21
2367.767387669006
 31
0.0
  0
LINE
  5
1588
330
1F
100
AcDbEntity
  8
SANINDUSA
100
AcDbLine
 10
4421.491693450831
 20
2367.894387669006
 30
0.0
 11
4421.534693450832
 21
2367.894387669006
 31
0.0
  0
LINE
  5
1589
330
1F
100
AcDbEntity
  8
SANINDUSA
100
AcDbLine
 10
4421.491693450831
 20
2367.896387669006
 30
0.0
 11
4421.530693450832
 21
2367.896387669006
 31
0.0
  0
LINE
  5
158A
330
1F
100
AcDbEntity
  8
SANINDUSA
100
AcDbLine
 10
4421.489693450832
 20
2367.892387669006
 30
0.0
 11
4421.489693450832
 21
2367.881387669006
 31
0.0
  0
LINE
  5
158B
330
1F
100
AcDbEntity
  8
SANINDUSA
100
AcDbLine
 10
4421.487693450831
 20
2367.892387669006
 30
0.0
 11
4421.487693450831
 21
2367.881387669006
 31
0.0
  0
LINE
  5
158C
330
1F
100
AcDbEntity
  8
SANINDUSA
100
AcDbLine
 10
4421.465693450832
 20
2367.895387669006
 30
0.0
 11
4421.465693450832
 21
2367.891387669006
 31
0.0
  0
LINE
  5
158D
330
1F
100
AcDbEntity
  8
SANINDUSA
100
AcDbLine
 10
4421.450693450831
 20
2367.895387669006
 30
0.0
 11
4421.450693450831
 21
2367.891387669006
 31
0.0
  0
LINE
  5
158E
330
1F
100
AcDbEntity
  8
SANINDUSA
100
AcDbLine
 10
4421.465693450832
 20
2367.878387669006
 30
0.0
 11
4421.484693450831
 21
2367.878387669006
 31
0.0
  0
LINE
  5
158F
330
1F
100
AcDbEntity
  8
SANINDUSA
100
AcDbLine
 10
4421.460693450831
 20
2367.876387669006
 30
0.0
 11
4421.484693450831
 21
2367.876387669006
 31
0.0
  0
LINE
  5
1590
330
1F
100
AcDbEntity
  8
SANINDUSA
100
AcDbLine
 10
4421.465693450832
 20
2367.891387669006
 30
0.0
 11
4421.450693450831
 21
2367.891387669006
 31
0.0
  0
LINE
  5
1591
330
1F
100
AcDbEntity
  8
SANINDUSA
100
AcDbLine
 10
4421.450693450831
 20
2367.883387669006
 30
0.0
 11
4421.465693450832
 21
2367.883387669006
 31
0.0
  0
LINE
  5
1592
330
1F
100
AcDbEntity
  8
SANINDUSA
100
AcDbLine
 10
4421.465693450832
 20
2367.883388278225
 30
0.0
 11
4421.450693450831
 21
2367.883388278225
 31
0.0
  0
LINE
  5
1593
330
1F
100
AcDbEntity
  8
SANINDUSA
100
AcDbLine
 10
4421.450693450831
 20
2367.891276986924
 30
0.0
 11
4421.450693450831
 21
2367.883509245148
 31
0.0
  0
LINE
  5
1594
330
1F
100
AcDbEntity
  8
SANINDUSA
100
AcDbLine
 10
4421.450693450831
 20
2367.891387059787
 30
0.0
 11
4421.450693450831
 21
2367.891387669006
 31
0.0
  0
LINE
  5
1595
330
1F
100
AcDbEntity
  8
SANINDUSA
100
AcDbLine
 10
4421.450693450831
 20
2367.891276986924
 30
0.0
 11
4421.450693450831
 21
2367.891387059787
 31
0.0
  0
LINE
  5
1596
330
1F
100
AcDbEntity
  8
SANINDUSA
100
AcDbLine
 10
4421.450693450831
 20
2367.883387669006
 30
0.0
 11
4421.450693450831
 21
2367.883388278225
 31
0.0
  0
LINE
  5
1597
330
1F
100
AcDbEntity
  8
SANINDUSA
100
AcDbLine
 10
4421.450693450831
 20
2367.883388278225
 30
0.0
 11
4421.450693450831
 21
2367.883509245148
 31
0.0
  0
LINE
  5
1598
330
1F
100
AcDbEntity
  8
SANINDUSA
100
AcDbLine
 10
4421.450693450831
 20
2367.883387669006
 30
0.0
 11
4421.450693450831
 21
2367.877487578262
 31
0.0
  0
LINE
  5
1599
330
1F
100
AcDbEntity
  8
SANINDUSA
100
AcDbLine
 10
4421.465693450832
 20
2367.891276986924
 30
0.0
 11
4421.465693450832
 21
2367.883509245148
 31
0.0
  0
LINE
  5
159A
330
1F
100
AcDbEntity
  8
SANINDUSA
100
AcDbLine
 10
4421.465693450832
 20
2367.891387059787
 30
0.0
 11
4421.465693450832
 21
2367.891387669006
 31
0.0
  0
LINE
  5
159B
330
1F
100
AcDbEntity
  8
SANINDUSA
100
AcDbLine
 10
4421.465693450832
 20
2367.891276986924
 30
0.0
 11
4421.465693450832
 21
2367.891387059787
 31
0.0
  0
LINE
  5
159C
330
1F
100
AcDbEntity
  8
SANINDUSA
100
AcDbLine
 10
4421.465693450832
 20
2367.883387669006
 30
0.0
 11
4421.465693450832
 21
2367.883388278225
 31
0.0
  0
LINE
  5
159D
330
1F
100
AcDbEntity
  8
SANINDUSA
100
AcDbLine
 10
4421.465693450832
 20
2367.883388278225
 30
0.0
 11
4421.465693450832
 21
2367.883509245148
 31
0.0
  0
LINE
  5
159E
330
1F
100
AcDbEntity
  8
SANINDUSA
100
AcDbLine
 10
4421.465693450832
 20
2367.883387669006
 30
0.0
 11
4421.465693450832
 21
2367.878387669006
 31
0.0
  0
ARC
  5
159F
330
1F
100
AcDbEntity
  8
SANINDUSA
100
AcDbCircle
 10
4421.484693450831
 20
2367.881387669006
 30
0.0
 40
0.003
100
AcDbArc
 50
270.0
 51
0.0
  0
ARC
  5
15A0
330
1F
100
AcDbEntity
  8
SANINDUSA
100
AcDbCircle
 10
4421.484693450831
 20
2367.881387669006
 30
0.0
 40
0.005
100
AcDbArc
 50
270.0
 51
0.0
  0
LINE
  5
15A1
330
1F
100
AcDbEntity
  8
SANINDUSA
100
AcDbLine
 10
4421.450693450831
 20
2367.895387669006
 30
0.0
 11
4421.465693450832
 21
2367.895387669006
 31
0.0
  0
ARC
  5
15A2
330
1F
100
AcDbEntity
  8
SANINDUSA
100
AcDbCircle
 10
4421.491693450831
 20
2367.892387669006
 30
0.0
 40
0.002
100
AcDbArc
 50
90.0
 51
180.0
  0
ARC
  5
15A3
330
1F
100
AcDbEntity
  8
SANINDUSA
100
AcDbCircle
 10
4421.491693450831
 20
2367.892387669006
 30
0.0
 40
0.0040000000000001
100
AcDbArc
 50
90.0
 51
180.0
  0
LINE
  5
15A4
330
1F
100
AcDbEntity
  8
SANINDUSA
100
AcDbLine
 10
4421.534693450832
 20
2367.898387669006
 30
0.0
 11
4421.530693450832
 21
2367.898387669006
 31
0.0
  0
LINE
  5
15A5
330
1F
100
AcDbEntity
  8
SANINDUSA
100
AcDbLine
 10
4421.530693450832
 20
2367.898387669006
 30
0.0
 11
4421.530693450832
 21
2367.896387669006
 31
0.0
  0
LINE
  5
15A6
330
1F
100
AcDbEntity
  8
SANINDUSA
100
AcDbLine
 10
4421.534693450832
 20
2367.898387669006
 30
0.0
 11
4421.534693450832
 21
2367.894387669006
 31
0.0
  0
LINE
  5
15A7
330
1F
100
AcDbEntity
  8
SANINDUSA
100
AcDbLine
 10
4421.534693450832
 20
2367.767387669006
 30
0.0
 11
4421.534693450832
 21
2367.763387669006
 31
0.0
  0
LINE
  5
15A8
330
1F
100
AcDbEntity
  8
SANINDUSA
100
AcDbLine
 10
4421.498693450831
 20
2367.767362167865
 30
0.0
 11
4421.498693450831
 21
2367.764001209076
 31
0.0
  0
ARC
  5
15A9
330
1F
100
AcDbEntity
  8
SANINDUSA
100
AcDbCircle
 10
4421.502693450831
 20
2367.764001209076
 30
0.0
 40
0.004
100
AcDbArc
 50
180.0
 51
213.9986946234155
  0
LINE
  5
15AA
330
1F
100
AcDbEntity
  8
SANINDUSA
100
AcDbLine
 10
4421.444693450831
 20
2367.680635004824
 30
0.0
 11
4421.444693450831
 21
2367.596119719813
 31
0.0
  0
ARC
  5
15AB
330
1F
100
AcDbEntity
  8
SANINDUSA
100
AcDbCircle
 10
4421.424693450831
 20
2367.680635004824
 30
0.0
 40
0.02
100
AcDbArc
 50
0.0
 51
37.28570791495347
  0
LINE
  5
15AC
330
1F
100
AcDbEntity
  8
SANINDUSA
100
AcDbLine
 10
4421.40878095851
 20
2367.734548692721
 30
0.0
 11
4421.440605943153
 21
2367.692750803935
 31
0.0
  0
ARC
  5
15AD
330
1F
100
AcDbEntity
  8
SANINDUSA
100
AcDbCircle
 10
4421.424693450831
 20
2367.746664491833
 30
0.0
 40
0.02
100
AcDbArc
 50
180.0
 51
217.2857079149534
  0
ARC
  5
15AE
330
1F
100
AcDbEntity
  8
SANINDUSA
100
AcDbCircle
 10
4421.424693450831
 20
2367.680635004824
 30
0.0
 40
0.022
100
AcDbArc
 50
0.0
 51
37.28570791495347
  0
LINE
  5
15AF
330
1F
100
AcDbEntity
  8
SANINDUSA
100
AcDbLine
 10
4421.410372207741
 20
2367.735760272632
 30
0.0
 11
4421.442197192385
 21
2367.693962383847
 31
0.0
  0
ARC
  5
15B0
330
1F
100
AcDbEntity
  8
SANINDUSA
100
AcDbCircle
 10
4421.424693450831
 20
2367.746664491833
 30
0.0
 40
0.018
100
AcDbArc
 50
180.0
 51
217.2857079149534
  0
LINE
  5
15B1
330
1F
100
AcDbEntity
  8
SANINDUSA
100
AcDbLine
 10
4421.514693450832
 20
2367.760887669006
 30
0.0
 11
4421.534738893643
 21
2367.761343247252
 31
0.0
  0
LINE
  5
15B2
330
1F
100
AcDbEntity
  8
SANINDUSA
100
AcDbLine
 10
4421.534738893643
 20
2367.90043209076
 30
0.0
 11
4421.514693450832
 21
2367.900887669006
 31
0.0
  0
LINE
  5
15B3
330
1F
100
AcDbEntity
  8
SANINDUSA
100
AcDbLine
 10
4421.514693450832
 20
2367.765387669006
 30
0.0
 11
4421.514693450832
 21
2367.760887669006
 31
0.0
  0
LINE
  5
15B4
330
1F
100
AcDbEntity
  8
SANINDUSA
100
AcDbLine
 10
4421.514693450832
 20
2367.900887669006
 30
0.0
 11
4421.514693450832
 21
2367.896387669006
 31
0.0
  0
LINE
  5
15B5
330
1F
100
AcDbEntity
  8
SANINDUSA
100
AcDbLine
 10
4421.536693450831
 20
2367.889387669006
 30
0.0
 11
4421.536693450831
 21
2367.882702519464
 31
0.0
  0
LINE
  5
15B6
330
1F
100
AcDbEntity
  8
SANINDUSA
100
AcDbLine
 10
4421.536693450831
 20
2367.779072818548
 30
0.0
 11
4421.536693450831
 21
2367.772387669006
 31
0.0
  0
LINE
  5
15B7
330
1F
100
AcDbEntity
  8
SANINDUSA
100
AcDbLine
 10
4421.536693450831
 20
2367.763342730922
 30
0.0
 11
4421.536693450831
 21
2367.772387669006
 31
0.0
  0
LINE
  5
15B8
330
1F
100
AcDbEntity
  8
SANINDUSA
100
AcDbLine
 10
4421.534693450832
 20
2367.771387669006
 30
0.0
 11
4421.534693450832
 21
2367.763342730922
 31
0.0
  0
LINE
  5
15B9
330
1F
100
AcDbEntity
  8
SANINDUSA
100
AcDbLine
 10
4421.534693450832
 20
2367.763342730922
 30
0.0
 11
4421.529716172237
 21
2367.763229610955
 31
0.0
  0
LINE
  5
15BA
330
1F
100
AcDbEntity
  8
SANINDUSA
100
AcDbLine
 10
4421.516693450832
 20
2367.763956625518
 30
0.0
 11
4421.516693450832
 21
2367.765387669006
 31
0.0
  0
LINE
  5
15BB
330
1F
100
AcDbEntity
  8
SANINDUSA
100
AcDbLine
 10
4421.528693450832
 20
2367.76422935279
 30
0.0
 11
4421.528693450832
 21
2367.765387669006
 31
0.0
  0
LINE
  5
15BC
330
1F
100
AcDbEntity
  8
SANINDUSA
100
AcDbLine
 10
4421.526693450831
 20
2367.765387669006
 30
0.0
 11
4421.526693450831
 21
2367.764138443699
 31
0.0
  0
LINE
  5
15BD
330
1F
100
AcDbEntity
  8
SANINDUSA
100
AcDbLine
 10
4421.524693450831
 20
2367.764138443699
 30
0.0
 11
4421.524693450831
 21
2367.765387669006
 31
0.0
  0
LINE
  5
15BE
330
1F
100
AcDbEntity
  8
SANINDUSA
100
AcDbLine
 10
4421.522693450832
 20
2367.765387669006
 30
0.0
 11
4421.522693450832
 21
2367.764047534608
 31
0.0
  0
LINE
  5
15BF
330
1F
100
AcDbEntity
  8
SANINDUSA
100
AcDbLine
 10
4421.520693450831
 20
2367.764047534608
 30
0.0
 11
4421.520693450831
 21
2367.765387669006
 31
0.0
  0
LINE
  5
15C0
330
1F
100
AcDbEntity
  8
SANINDUSA
100
AcDbLine
 10
4421.51869345083
 20
2367.765387669006
 30
0.0
 11
4421.51869345083
 21
2367.763956625518
 31
0.0
  0
LINE
  5
15C1
330
1F
100
AcDbEntity
  8
SANINDUSA
100
AcDbLine
 10
4421.530011612227
 20
2367.779190733347
 30
0.0
 11
4421.534693450832
 21
2367.771387669006
 31
0.0
  0
LINE
  5
15C2
330
1F
100
AcDbEntity
  8
SANINDUSA
100
AcDbLine
 10
4421.536693450831
 20
2367.772387669006
 30
0.0
 11
4421.533698785688
 21
2367.77912566558
 31
0.0
  0
LINE
  5
15C3
330
1F
100
AcDbEntity
  8
SANINDUSA
100
AcDbLine
 10
4421.534693450832
 20
2367.898432607089
 30
0.0
 11
4421.534693450832
 21
2367.890387669006
 31
0.0
  0
LINE
  5
15C4
330
1F
100
AcDbEntity
  8
SANINDUSA
100
AcDbLine
 10
4421.536693450831
 20
2367.889387669006
 30
0.0
 11
4421.536693450831
 21
2367.898432607089
 31
0.0
  0
LINE
  5
15C5
330
1F
100
AcDbEntity
  8
SANINDUSA
100
AcDbLine
 10
4421.534693450832
 20
2367.890387669006
 30
0.0
 11
4421.530011612227
 21
2367.882584604665
 31
0.0
  0
LINE
  5
15C6
330
1F
100
AcDbEntity
  8
SANINDUSA
100
AcDbLine
 10
4421.533698785688
 20
2367.882649672432
 30
0.0
 11
4421.536693450831
 21
2367.889387669006
 31
0.0
  0
LINE
  5
15C7
330
1F
100
AcDbEntity
  8
SANINDUSA
100
AcDbLine
 10
4421.529716172237
 20
2367.898545727057
 30
0.0
 11
4421.534693450832
 21
2367.898432607089
 31
0.0
  0
LINE
  5
15C8
330
1F
100
AcDbEntity
  8
SANINDUSA
100
AcDbLine
 10
4421.516693450832
 20
2367.896387669006
 30
0.0
 11
4421.516693450832
 21
2367.897818712494
 31
0.0
  0
LINE
  5
15C9
330
1F
100
AcDbEntity
  8
SANINDUSA
100
AcDbLine
 10
4421.51869345083
 20
2367.897818712494
 30
0.0
 11
4421.51869345083
 21
2367.896387669006
 31
0.0
  0
LINE
  5
15CA
330
1F
100
AcDbEntity
  8
SANINDUSA
100
AcDbLine
 10
4421.520693450831
 20
2367.896387669006
 30
0.0
 11
4421.520693450831
 21
2367.897727803404
 31
0.0
  0
LINE
  5
15CB
330
1F
100
AcDbEntity
  8
SANINDUSA
100
AcDbLine
 10
4421.522693450832
 20
2367.897727803404
 30
0.0
 11
4421.522693450832
 21
2367.896387669006
 31
0.0
  0
LINE
  5
15CC
330
1F
100
AcDbEntity
  8
SANINDUSA
100
AcDbLine
 10
4421.524693450831
 20
2367.896387669006
 30
0.0
 11
4421.524693450831
 21
2367.897636894312
 31
0.0
  0
LINE
  5
15CD
330
1F
100
AcDbEntity
  8
SANINDUSA
100
AcDbLine
 10
4421.526693450831
 20
2367.897636894312
 30
0.0
 11
4421.526693450831
 21
2367.896387669006
 31
0.0
  0
LINE
  5
15CE
330
1F
100
AcDbEntity
  8
SANINDUSA
100
AcDbLine
 10
4421.528693450832
 20
2367.896387669006
 30
0.0
 11
4421.528693450832
 21
2367.897545985222
 31
0.0
  0
ARC
  5
15CF
330
1F
100
AcDbEntity
  8
SANINDUSA
100
AcDbCircle
 10
4421.517693450832
 20
2367.763956625518
 30
0.0
 40
0.0010000000000002
100
AcDbArc
 50
180.0
 51
0.0
  0
ARC
  5
15D0
330
1F
100
AcDbEntity
  8
SANINDUSA
100
AcDbCircle
 10
4421.521693450832
 20
2367.764047534608
 30
0.0
 40
0.0010000000000002
100
AcDbArc
 50
180.0
 51
0.0
  0
ARC
  5
15D1
330
1F
100
AcDbEntity
  8
SANINDUSA
100
AcDbCircle
 10
4421.525693450831
 20
2367.764138443699
 30
0.0
 40
0.0010000000000002
100
AcDbArc
 50
180.0
 51
0.0
  0
ARC
  5
15D2
330
1F
100
AcDbEntity
  8
SANINDUSA
100
AcDbCircle
 10
4421.529693450831
 20
2367.76422935279
 30
0.0
 40
0.0010000000000002
100
AcDbArc
 50
180.0
 51
271.3019526524506
  0
ARC
  5
15D3
330
1F
100
AcDbEntity
  8
SANINDUSA
100
AcDbCircle
 10
4421.525693450831
 20
2367.897636894312
 30
0.0
 40
0.0010000000000002
100
AcDbArc
 50
0.0
 51
180.0
  0
ARC
  5
15D4
330
1F
100
AcDbEntity
  8
SANINDUSA
100
AcDbCircle
 10
4421.517693450832
 20
2367.897818712494
 30
0.0
 40
0.0010000000000002
100
AcDbArc
 50
0.0
 51
180.0
  0
LINE
  5
15D5
330
1F
100
AcDbEntity
  8
SANINDUSA
100
AcDbLine
 10
4421.516693450832
 20
2367.897818712494
 30
0.0
 11
4421.516693450832
 21
2367.896387669006
 31
0.0
  0
ARC
  5
15D6
330
1F
100
AcDbEntity
  8
SANINDUSA
100
AcDbCircle
 10
4421.521693450832
 20
2367.897727803404
 30
0.0
 40
0.0010000000000002
100
AcDbArc
 50
0.0
 51
180.0
  0
LINE
  5
15D7
330
1F
100
AcDbEntity
  8
SANINDUSA
100
AcDbLine
 10
4421.51869345083
 20
2367.896387669006
 30
0.0
 11
4421.51869345083
 21
2367.897818712494
 31
0.0
  0
LINE
  5
15D8
330
1F
100
AcDbEntity
  8
SANINDUSA
100
AcDbLine
 10
4421.520693450831
 20
2367.897727803404
 30
0.0
 11
4421.520693450831
 21
2367.896387669006
 31
0.0
  0
LINE
  5
15D9
330
1F
100
AcDbEntity
  8
SANINDUSA
100
AcDbLine
 10
4421.522693450832
 20
2367.896387669006
 30
0.0
 11
4421.522693450832
 21
2367.897727803404
 31
0.0
  0
LINE
  5
15DA
330
1F
100
AcDbEntity
  8
SANINDUSA
100
AcDbLine
 10
4421.524693450831
 20
2367.897636894312
 30
0.0
 11
4421.524693450831
 21
2367.896387669006
 31
0.0
  0
ARC
  5
15DB
330
1F
100
AcDbEntity
  8
SANINDUSA
100
AcDbCircle
 10
4421.529693450831
 20
2367.897545985222
 30
0.0
 40
0.0010000000000002
100
AcDbArc
 50
88.69804734754941
 51
180.0
  0
LINE
  5
15DC
330
1F
100
AcDbEntity
  8
SANINDUSA
100
AcDbLine
 10
4421.526693450831
 20
2367.896387669006
 30
0.0
 11
4421.526693450831
 21
2367.897636894312
 31
0.0
  0
LINE
  5
15DD
330
1F
100
AcDbEntity
  8
SANINDUSA
100
AcDbLine
 10
4421.528693450832
 20
2367.897545985222
 30
0.0
 11
4421.528693450832
 21
2367.896387669006
 31
0.0
  0
ARC
  5
15DE
330
1F
100
AcDbEntity
  8
SANINDUSA
100
AcDbCircle
 10
4421.534693450832
 20
2367.898432607089
 30
0.0
 40
0.002
100
AcDbArc
 50
0.0
 51
88.69804734754941
  0
ARC
  5
15DF
330
1F
100
AcDbEntity
  8
SANINDUSA
100
AcDbCircle
 10
4421.534693450832
 20
2367.763342730922
 30
0.0
 40
0.002
100
AcDbArc
 50
271.3019526524506
 51
0.0
  0
ARC
  5
17A1
330
1F
100
AcDbEntity
  8
SANINDUSA
100
AcDbCircle
 10
4421.110156638327
 20
2367.867887771086
 30
0.0
 40
0.1370004345857199
100
AcDbArc
 50
311.7871686538936
 51
359.9999572956846
  0
LINE
  5
17A2
330
1F
100
AcDbEntity
  8
SANINDUSA
100
AcDbLine
 10
4421.247157072914
 20
2367.867887669006
 30
0.0
 11
4421.247157072914
 21
2367.970987669006
 31
0.0
  0
ARC
  5
17A3
330
1F
100
AcDbEntity
  8
SANINDUSA
100
AcDbCircle
 10
4421.242257072913
 20
2367.970987669006
 30
0.0
 40
0.0049000000000001
100
AcDbArc
 50
0.0
 51
90.0
  0
ARC
  5
17A4
330
1F
100
AcDbEntity
  8
SANINDUSA
100
AcDbCircle
 10
4421.21815564474
 20
2367.74713872084
 30
0.0
 40
0.0250000000323404
100
AcDbArc
 50
131.9333519417693
 51
181.5056199064837
  0
LINE
  5
17A5
330
1F
100
AcDbEntity
  8
SANINDUSA
100
AcDbLine
 10
4421.195220965822
 20
2367.667940022903
 30
0.0
 11
4421.193164139377
 21
2367.746487060406
 31
0.0
  0
ARC
  5
17A6
330
1F
100
AcDbEntity
  8
SANINDUSA
100
AcDbCircle
 10
4421.193221651172
 20
2367.667887669006
 30
0.0
 40
0.0020000000000002
100
AcDbArc
 50
270.0
 51
1.49999999715483
  0
ARC
  5
17A7
330
1F
100
AcDbEntity
  8
SANINDUSA
100
AcDbCircle
 10
4420.829157072914
 20
2367.986107258682
 30
0.0
 40
0.0020000000000002
100
AcDbArc
 50
89.63312542307939
 51
180.0
  0
LINE
  5
17A8
330
1F
100
AcDbEntity
  8
SANINDUSA
100
AcDbLine
 10
4420.899288488882
 20
2367.987677983567
 30
0.0
 11
4420.829169879165
 21
2367.988107217681
 31
0.0
  0
ARC
  5
17A9
330
1F
100
AcDbEntity
  8
SANINDUSA
100
AcDbCircle
 10
4420.89926043772
 20
2367.982678062254
 30
0.0
 40
0.005
100
AcDbArc
 50
0.0
 51
89.67855566248713
  0
LINE
  5
17AE
330
1F
100
AcDbEntity
  8
SANINDUSA
100
AcDbLine
 10
4421.109657072913
 20
2367.975887669006
 30
0.0
 11
4421.022157072914
 21
2367.975887669006
 31
0.0
  0
LINE
  5
17B2
330
1F
100
AcDbEntity
  8
SANINDUSA
100
AcDbLine
 10
4421.109657072913
 20
2367.975887669006
 30
0.0
 11
4421.242257072913
 21
2367.975887669006
 31
0.0
  0
LINE
  5
17B8
330
1F
100
AcDbEntity
  8
SANINDUSA
100
AcDbLine
 10
4421.022157072914
 20
2367.975887669006
 30
0.0
 11
4420.926754820564
 21
2367.975887669006
 31
0.0
  0
ARC
  5
17BC
330
1F
100
AcDbEntity
  8
SANINDUSA
100
AcDbCircle
 10
4421.024450425376
 20
2367.870114230768
 30
0.0
 40
0.1175728073394257
100
AcDbArc
 50
181.4041076714956
 51
268.9559869069739
  0
ELLIPSE
  5
17C0
330
1F
100
AcDbEntity
  8
SANINDUSA
100
AcDbEllipse
 10
4427.405951073612
 20
2367.867233245299
 30
0.0
 11
9.284156201156214
 21
-0.0042426020165649
 31
0.0
210
0.0
220
0.0
230
1.0
 40
0.0174430968651856
 41
3.95423967260506
 42
3.966590910958224
  0
ELLIPSE
  5
17C7
330
1F
100
AcDbEntity
  8
SANINDUSA
100
AcDbEllipse
 10
4421.021720912264
 20
2372.045832951467
 30
0.0
 11
-0.0027943005045711
 21
6.110153487086095
 31
0.0
210
0.0
220
0.0
230
0.9999999999999996
 40
0.0261819278545014
 41
2.30066094909263
 42
2.323849140709578
  0
CIRCLE
  5
17C9
330
1F
100
AcDbEntity
  8
SANINDUSA
100
AcDbCircle
 10
4420.987157072914
 20
2367.715887669006
 30
0.0
 40
0.006
  0
LINE
  5
17CC
330
1F
100
AcDbEntity
  8
SANINDUSA
100
AcDbLine
 10
4421.106055969763
 20
2367.751156363117
 30
0.0
 11
4421.108524189471
 21
2367.751062066101
 31
0.0
  0
LINE
  5
17CE
330
1F
100
AcDbEntity
  8
SANINDUSA
100
AcDbLine
 10
4420.926754820564
 20
2367.975887669006
 30
0.0
 11
4420.907493494605
 21
2367.975887669006
 31
0.0
  0
ARC
  5
17D1
330
1F
100
AcDbEntity
  8
SANINDUSA
100
AcDbCircle
 10
4420.829157072914
 20
2367.667887669006
 30
0.0
 40
0.002
100
AcDbArc
 50
180.0
 51
270.0
  0
LINE
  5
17D3
330
1F
100
AcDbEntity
  8
SANINDUSA
100
AcDbLine
 10
4420.829157072914
 20
2367.665887669006
 30
0.0
 11
4421.10605910739
 21
2367.665887669006
 31
0.0
  0
LINE
  5
17D4
330
1F
100
AcDbEntity
  8
SANINDUSA
100
AcDbLine
 10
4420.827157072913
 20
2367.976826826947
 30
0.0
 11
4420.827157072913
 21
2367.667887669006
 31
0.0
  0
LINE
  5
17D6
330
1F
100
AcDbEntity
  8
SANINDUSA
100
AcDbLine
 10
4421.193221651172
 20
2367.665887669006
 30
0.0
 11
4421.10605910739
 21
2367.665887669006
 31
0.0
  0
LWPOLYLINE
  5
17D8
330
1F
100
AcDbEntity
  8
SANINDUSA
100
AcDbPolyline
 90
        6
 70
   128
 43
0.0
 10
4420.899303359878
 20
2367.981173185388
 10
4420.889504967225
 20
2367.981231550442
 10
4420.869908211719
 20
2367.981348289864
 10
4420.848532644998
 20
2367.981475639844
 10
4420.840933559429
 20
2367.981520917023
 10
4420.829174188864
 20
2367.981590985542
  0
ARC
  5
17DA
330
1F
100
AcDbEntity
  8
SANINDUSA
100
AcDbCircle
 10
4420.829145213597
 20
2367.979603022949
 30
0.0
 40
0.0019881737437211
100
AcDbArc
 50
89.1649526625223
 51
179.6437866284546
  0
LINE
  5
17DB
330
1F
100
AcDbEntity
  8
SANINDUSA
100
AcDbLine
 10
4420.827157072913
 20
2367.979615383572
 30
0.0
 11
4420.827157072913
 21
2367.976826826947
 31
0.0
  0
ARC
  5
17DC
330
1F
100
AcDbEntity
  8
SANINDUSA
100
AcDbCircle
 10
4420.907469812563
 20
2367.979894447263
 30
0.0
 40
0.0039988571274184
100
AcDbArc
 50
204.0632075814619
 51
249.0989496677528
  0
ARC
  5
17DD
330
1F
100
AcDbEntity
  8
SANINDUSA
100
AcDbCircle
 10
4420.734486563326
 20
2368.038664913476
 30
0.0
 40
0.1825888916069254
100
AcDbArc
 50
338.4909511720156
 51
339.9809273102129
  0
LWPOLYLINE
  5
17DF
330
1F
100
AcDbEntity
  8
SANINDUSA
100
AcDbPolyline
 90
        3
 70
   128
 43
0.0
 10
4420.907493500005
 20
2367.975887669006
 10
4420.906324995649
 20
2367.976061957237
 10
4420.906043199789
 20
2367.976158723195
  0
ARC
  5
17E0
330
1F
100
AcDbEntity
  8
SANINDUSA
100
AcDbCircle
 10
4420.899278163301
 20
2367.976175763008
 30
0.0
 40
0.0049974858989022
100
AcDbArc
 50
24.6985947474363
 51
89.71112203461885
  0
LINE
  5
17E1
330
1F
100
AcDbEntity
  8
SANINDUSA
100
AcDbLine
 10
4420.827157072913
 20
2367.979615383572
 30
0.0
 11
4420.827157072913
 21
2367.986107258682
 31
0.0
  0
LINE
  5
17E2
330
1F
100
AcDbEntity
  8
SANINDUSA
100
AcDbLine
 10
4420.904260437721
 20
2367.979887669006
 30
0.0
 11
4420.904260437721
 21
2367.982678062254
 31
0.0
  0
LWPOLYLINE
  5
17E3
330
1F
100
AcDbEntity
  8
SANINDUSA
100
AcDbPolyline
 90
        3
 70
   128
 43
0.0
 10
4420.904260439765
 20
2367.979887669196
 10
4420.904111830485
 20
2367.978928968998
 10
4420.903818471324
 20
2367.97826393646
  0
ARC
  5
17E4
330
1F
100
AcDbEntity
  8
SANINDUSA
100
AcDbCircle
 10
4420.908260437721
 20
2367.979887669006
 30
0.0
 40
0.0040000000000002
100
AcDbArc
 50
180.0
 51
270.0
  0
LWPOLYLINE
  5
17E8
330
1F
100
AcDbEntity
  8
SANINDUSA
100
AcDbPolyline
 90
       15
 70
   128
 43
0.0
 10
4421.193128941548
 20
2367.746486155072
 10
4421.192653996837
 20
2367.746511352936
 10
4421.191050058197
 20
2367.746596527973
 10
4421.188341131401
 20
2367.746740488092
 10
4421.18456935693
 20
2367.746941221634
 10
4421.179806208205
 20
2367.747195197025
 10
4421.174078023028
 20
2367.747501341382
 10
4421.167456870866
 20
2367.747856182734
 10
4421.160067958725
 20
2367.748253417889
 10
4421.151966212284
 20
2367.74869051365
 10
4421.143243072521
 20
2367.749162910262
 10
4421.13406297375
 20
2367.749662084261
 10
4421.125731537085
 20
2367.750116986909
 10
4421.117177644712
 20
2367.750585851947
 10
4421.10852419023
 20
2367.751062063256
  0
ENDSEC
  0
SECTION
  2
OBJECTS
  0
DICTIONARY
  5
C
330
0
100
AcDbDictionary
281
     1
  3
ACAD_COLOR
350
EE6
  3
ACAD_GROUP
350
D
  3
ACAD_LAYOUT
350
1A
  3
ACAD_MATERIAL
350
EE5
  3
ACAD_MLINESTYLE
350
17
  3
ACAD_PLOTSETTINGS
350
19
  3
ACAD_PLOTSTYLENAME
350
E
  3
ACAD_TABLESTYLE
350
EE7
  3
ACDBHEADERROUNDTRIPXREC
350
18BD
  3
AcDbVariableDictionary
350
3D
  3
ASE_INDEX_DICTIONARY
350
1066
  0
DICTIONARY
  5
1051
330
2
100
AcDbDictionary
280
     1
281
     1
  3
ACAD_LAYERFILTERS
360
1065
  3
ACLYDICTIONARY
360
1064
  0
DICTIONARY
  5
EE6
102
{ACAD_REACTORS
330
C
102
}
330
C
100
AcDbDictionary
281
     1
  0
DICTIONARY
  5
D
102
{ACAD_REACTORS
330
C
102
}
330
C
100
AcDbDictionary
281
     1
  0
DICTIONARY
  5
1A
102
{ACAD_REACTORS
330
C
102
}
330
C
100
AcDbDictionary
281
     1
  3
Layout1
350
1E
  3
Layout2
350
26
  3
Model
350
22
  0
DICTIONARY
  5
EE5
102
{ACAD_REACTORS
330
C
102
}
330
C
100
AcDbDictionary
281
     1
  0
DICTIONARY
  5
17
102
{ACAD_REACTORS
330
C
102
}
330
C
100
AcDbDictionary
281
     1
  3
Standard
350
18
  0
DICTIONARY
  5
19
102
{ACAD_REACTORS
330
C
102
}
330
C
100
AcDbDictionary
281
     1
  0
ACDBDICTIONARYWDFLT
  5
E
102
{ACAD_REACTORS
330
C
102
}
330
C
100
AcDbDictionary
281
     1
  3
Normal
350
F
100
AcDbDictionaryWithDefault
340
F
  0
DICTIONARY
  5
EE7
102
{ACAD_REACTORS
330
C
102
}
330
C
100
AcDbDictionary
281
     1
  3
Standard
350
EE8
  0
DICTIONARY
  5
18BD
102
{ACAD_REACTORS
330
C
102
}
330
C
100
AcDbDictionary
281
     1
  0
DICTIONARY
  5
3D
102
{ACAD_REACTORS
330
C
102
}
330
C
100
AcDbDictionary
281
     1
  3
CTABLESTYLE
350
1049
  3
DIMASSOC
350
3F
  3
HIDETEXT
350
3E
  3
PROJECTNAME
350
18BB
  0
DICTIONARY
  5
1066
102
{ACAD_REACTORS
330
C
102
}
330
C
100
AcDbDictionary
281
     1
  3
ASEBlockHierarchyIndexRecord
350
1067
1001
DCO15
1040
1602247867.484
  0
DICTIONARY
  5
1065
102
{ACAD_REACTORS
330
1051
102
}
330
1051
100
AcDbDictionary
281
     1
  0
DICTIONARY
  5
1064
102
{ACAD_REACTORS
330
1051
102
}
330
1051
100
AcDbDictionary
281
     1
1001
ACAD
1000
<All
  0
LAYOUT
  5
1E
102
{ACAD_XDICTIONARY
360
18BE
102
}
102
{ACAD_REACTORS
330
1A
102
}
330
1A
100
AcDbPlotSettings
  1

  2
Ploter HP500
  4

  6

 40
0.0
 41
0.0
 42
0.0
 43
0.0
 44
0.0
 45
0.0
 46
0.0
 47
0.0
 48
0.0
 49
0.0
140
0.0
141
0.0
142
1.0
143
1.0
 70
   688
 72
     0
 73
     0
 74
     5
  7
sanindusa.ctb
 75
    16
147
1.0
148
0.0
149
0.0
100
AcDbLayout
  1
Layout1
 70
     1
 71
     1
 10
0.0
 20
0.0
 11
420.0
 21
297.0
 12
0.0
 22
0.0
 32
0.0
 14
1.000000000000000E+20
 24
1.000000000000000E+20
 34
1.000000000000000E+20
 15
-1.000000000000000E+20
 25
-1.000000000000000E+20
 35
-1.000000000000000E+20
146
0.0
 13
0.0
 23
0.0
 33
0.0
 16
1.0
 26
0.0
 36
0.0
 17
0.0
 27
1.0
 37
0.0
 76
     0
330
1B
  0
LAYOUT
  5
26
102
{ACAD_XDICTIONARY
360
18C2
102
}
102
{ACAD_REACTORS
330
1A
102
}
330
1A
100
AcDbPlotSettings
  1

  2
Ploter HP500
  4

  6

 40
0.0
 41
0.0
 42
0.0
 43
0.0
 44
0.0
 45
0.0
 46
0.0
 47
0.0
 48
0.0
 49
0.0
140
0.0
141
0.0
142
1.0
143
1.0
 70
   688
 72
     0
 73
     0
 74
     5
  7
sanindusa.ctb
 75
    16
147
1.0
148
0.0
149
0.0
100
AcDbLayout
  1
Layout2
 70
     1
 71
     2
 10
0.0
 20
0.0
 11
12.0
 21
9.0
 12
0.0
 22
0.0
 32
0.0
 14
0.0
 24
0.0
 34
0.0
 15
0.0
 25
0.0
 35
0.0
146
0.0
 13
0.0
 23
0.0
 33
0.0
 16
1.0
 26
0.0
 36
0.0
 17
0.0
 27
1.0
 37
0.0
 76
     0
330
23
  0
LAYOUT
  5
22
102
{ACAD_XDICTIONARY
360
18C0
102
}
102
{ACAD_REACTORS
330
1A
102
}
330
1A
100
AcDbPlotSettings
  1

  2
Ploter HP500
  4
User268
  6

 40
4.995333194732666
 41
16.97565841674804
 42
4.995330810546875
 43
16.97567749023437
 44
209.9733276367187
 45
296.9259948730469
 46
0.0
 47
0.0
 48
0.0
 49
0.0
140
0.0
141
0.0
142
1.0
143
1.0
 70
 11952
 72
     1
 73
     1
 74
     0
  7
sanindusa.ctb
 75
     0
147
1.0
148
-427.5957866592534
149
7.362384574453926
100
AcDbLayout
  1
Model
 70
     1
 71
     0
 10
0.0
 20
0.0
 11
12.0
 21
9.0
 12
0.0
 22
0.0
 32
0.0
 14
0.0
 24
0.0
 34
0.0
 15
0.0
 25
0.0
 35
0.0
146
0.0
 13
0.0
 23
0.0
 33
0.0
 16
1.0
 26
0.0
 36
0.0
 17
0.0
 27
1.0
 37
0.0
 76
     0
330
1F
  0
MLINESTYLE
  5
18
102
{ACAD_REACTORS
330
17
102
}
330
17
100
AcDbMlineStyle
  2
STANDARD
 70
     0
  3

 62
   256
 51
90.0
 52
90.0
 71
     2
 49
0.5
 62
   256
  6
BYLAYER
 49
-0.5
 62
   256
  6
BYLAYER
  0
ACDBPLACEHOLDER
  5
F
102
{ACAD_REACTORS
330
E
102
}
330
E
  0
TABLESTYLE
  5
EE8
102
{ACAD_REACTORS
330
EE7
102
}
330
EE7
100
AcDbTableStyle
  3
Standard
 70
     0
 71
     0
 40
1.5
 41
1.5
280
     0
281
     0
  7
Standard
140
4.5
170
     2
 62
     0
 63
     7
283
     0
274
    -2
284
     1
 64
     0
275
    -2
285
     1
 65
     0
276
    -2
286
     1
 66
     0
277
    -2
287
     1
 67
     0
278
    -2
288
     1
 68
     0
279
    -2
289
     1
 69
     0
  7
Standard
140
6.0
170
     5
 62
     0
 63
     7
283
     0
274
    -2
284
     1
 64
     0
275
    -2
285
     1
 65
     0
276
    -2
286
     1
 66
     0
277
    -2
287
     1
 67
     0
278
    -2
288
     1
 68
     0
279
    -2
289
     1
 69
     0
  7
Standard
140
4.5
170
     5
 62
     0
 63
     7
283
     0
274
    -2
284
     1
 64
     0
275
    -2
285
     1
 65
     0
276
    -2
286
     1
 66
     0
277
    -2
287
     1
 67
     0
278
    -2
288
     1
 68
     0
279
    -2
289
     1
 69
     0
  0
DICTIONARYVAR
  5
1049
102
{ACAD_REACTORS
330
3D
102
}
330
3D
100
DictionaryVariables
280
     0
  1
STANDARD
  0
DICTIONARYVAR
  5
3F
102
{ACAD_REACTORS
330
3D
102
}
330
3D
100
DictionaryVariables
280
     0
  1
2
  0
DICTIONARYVAR
  5
3E
102
{ACAD_REACTORS
330
3D
102
}
330
3D
100
DictionaryVariables
280
     0
  1
1
  0
DICTIONARYVAR
  5
18BB
102
{ACAD_REACTORS
330
3D
102
}
330
3D
100
DictionaryVariables
280
     0
  1

  0
XRECORD
  5
1067
102
{ACAD_REACTORS
330
1066
102
}
330
1066
100
AcDbXrecord
280
     1
  0
DICTIONARY
  5
18BE
330
1E
100
AcDbDictionary
280
     1
281
     1
  3
ACAD_XREC_ROUNDTRIP
360
18BF
  0
DICTIONARY
  5
18C2
330
26
100
AcDbDictionary
280
     1
281
     1
  3
ACAD_XREC_ROUNDTRIP
360
18C3
  0
DICTIONARY
  5
18C0
330
22
100
AcDbDictionary
280
     1
281
     1
  3
ACAD_XREC_ROUNDTRIP
360
18C1
  0
XRECORD
  5
18BF
102
{ACAD_REACTORS
330
18BE
102
}
330
18BE
100
AcDbXrecord
280
     1
102
SHADEPLOT
 70
     0
102
SHADEPLOTRESLEVEL
 70
     2
102
SHADEPLOTCUSTOMDPI
 70
   300
  0
XRECORD
  5
18C3
102
{ACAD_REACTORS
330
18C2
102
}
330
18C2
100
AcDbXrecord
280
     1
102
SHADEPLOT
 70
     0
102
SHADEPLOTRESLEVEL
 70
     2
102
SHADEPLOTCUSTOMDPI
 70
   300
  0
XRECORD
  5
18C1
102
{ACAD_REACTORS
330
18C0
102
}
330
18C0
100
AcDbXrecord
280
     1
102
SHADEPLOT
 70
     0
102
SHADEPLOTRESLEVEL
 70
     2
102
SHADEPLOTCUSTOMDPI
 70
   300
  0
ENDSEC
  0
EOF
