  0
SECTION
  2
HEADER
  9
$ACADVER
  1
AC1015
  9
$ACADMAINTVER
 70
    20
  9
$DWGCODEPAGE
  3
ANSI_1252
  9
$INSBASE
 10
0.0
 20
0.0
 30
0.0
  9
$EXTMIN
 10
762.6906140351041
 20
1170.7777345969
 30
0.0
  9
$EXTMAX
 10
765.1063424825268
 20
1171.1527345969
 30
0.0
  9
$LIMMIN
 10
0.0
 20
0.0
  9
$LIMMAX
 10
420.0
 20
297.0
  9
$ORTHOMODE
 70
     1
  9
$REGENMODE
 70
     1
  9
$FILLMODE
 70
     1
  9
$QTEXTMODE
 70
     0
  9
$MIRRTEXT
 70
     0
  9
$LTSCALE
 40
1.0
  9
$ATTMODE
 70
     1
  9
$TEXTSIZE
 40
2.5
  9
$TRACEWID
 40
1.0
  9
$TEXTSTYLE
  7
Standard
  9
$CLAYER
  8
0
  9
$CELTYPE
  6
ByLayer
  9
$CECOLOR
 62
   256
  9
$CELTSCALE
 40
1.0
  9
$DISPSILH
 70
     0
  9
$DIMSCALE
 40
1.0
  9
$DIMASZ
 40
2.5
  9
$DIMEXO
 40
0.625
  9
$DIMDLI
 40
3.75
  9
$DIMRND
 40
0.0
  9
$DIMDLE
 40
0.0
  9
$DIMEXE
 40
1.25
  9
$DIMTP
 40
0.0
  9
$DIMTM
 40
0.0
  9
$DIMTXT
 40
2.5
  9
$DIMCEN
 40
2.5
  9
$DIMTSZ
 40
0.0
  9
$DIMTOL
 70
     0
  9
$DIMLIM
 70
     0
  9
$DIMTIH
 70
     0
  9
$DIMTOH
 70
     0
  9
$DIMSE1
 70
     0
  9
$DIMSE2
 70
     0
  9
$DIMTAD
 70
     1
  9
$DIMZIN
 70
     8
  9
$DIMBLK
  1

  9
$DIMASO
 70
     1
  9
$DIMSHO
 70
     1
  9
$DIMPOST
  1

  9
$DIMAPOST
  1

  9
$DIMALT
 70
     0
  9
$DIMALTD
 70
     3
  9
$DIMALTF
 40
0.03937007874016
  9
$DIMLFAC
 40
1.0
  9
$DIMTOFL
 70
     1
  9
$DIMTVP
 40
0.0
  9
$DIMTIX
 70
     0
  9
$DIMSOXD
 70
     0
  9
$DIMSAH
 70
     0
  9
$DIMBLK1
  1

  9
$DIMBLK2
  1

  9
$DIMSTYLE
  2
ISO-25
  9
$DIMCLRD
 70
     0
  9
$DIMCLRE
 70
     0
  9
$DIMCLRT
 70
     0
  9
$DIMTFAC
 40
1.0
  9
$DIMGAP
 40
0.625
  9
$DIMJUST
 70
     0
  9
$DIMSD1
 70
     0
  9
$DIMSD2
 70
     0
  9
$DIMTOLJ
 70
     0
  9
$DIMTZIN
 70
     8
  9
$DIMALTZ
 70
     0
  9
$DIMALTTZ
 70
     0
  9
$DIMUPT
 70
     0
  9
$DIMDEC
 70
     2
  9
$DIMTDEC
 70
     2
  9
$DIMALTU
 70
     2
  9
$DIMALTTD
 70
     3
  9
$DIMTXSTY
  7
Standard
  9
$DIMAUNIT
 70
     0
  9
$DIMADEC
 70
     0
  9
$DIMALTRND
 40
0.0
  9
$DIMAZIN
 70
     0
  9
$DIMDSEP
 70
    44
  9
$DIMATFIT
 70
     3
  9
$DIMFRAC
 70
     0
  9
$DIMLDRBLK
  1

  9
$DIMLUNIT
 70
     2
  9
$DIMLWD
 70
    -2
  9
$DIMLWE
 70
    -2
  9
$DIMTMOVE
 70
     0
  9
$LUNITS
 70
     2
  9
$LUPREC
 70
     4
  9
$SKETCHINC
 40
1.0
  9
$FILLETRAD
 40
0.0
  9
$AUNITS
 70
     0
  9
$AUPREC
 70
     0
  9
$MENU
  1
.
  9
$ELEVATION
 40
0.0
  9
$PELEVATION
 40
0.0
  9
$THICKNESS
 40
0.0
  9
$LIMCHECK
 70
     0
  9
$CHAMFERA
 40
0.0
  9
$CHAMFERB
 40
0.0
  9
$CHAMFERC
 40
0.0
  9
$CHAMFERD
 40
0.0
  9
$SKPOLY
 70
     0
  9
$TDCREATE
 40
2454929.649225070
  9
$TDUCREATE
 40
2454929.607558403
  9
$TDUPDATE
 40
2454929.652054931
  9
$TDUUPDATE
 40
2454929.610388264
  9
$TDINDWG
 40
0.0028304051
  9
$TDUSRTIMER
 40
0.0028304051
  9
$USRTIMER
 70
     1
  9
$ANGBASE
 50
0.0
  9
$ANGDIR
 70
     0
  9
$PDMODE
 70
     0
  9
$PDSIZE
 40
0.0
  9
$PLINEWID
 40
0.0
  9
$SPLFRAME
 70
     0
  9
$SPLINETYPE
 70
     6
  9
$SPLINESEGS
 70
     8
  9
$HANDSEED
  5
A6B
  9
$SURFTAB1
 70
     6
  9
$SURFTAB2
 70
     6
  9
$SURFTYPE
 70
     6
  9
$SURFU
 70
     6
  9
$SURFV
 70
     6
  9
$UCSBASE
  2

  9
$UCSNAME
  2

  9
$UCSORG
 10
0.0
 20
0.0
 30
0.0
  9
$UCSXDIR
 10
1.0
 20
0.0
 30
0.0
  9
$UCSYDIR
 10
0.0
 20
1.0
 30
0.0
  9
$UCSORTHOREF
  2

  9
$UCSORTHOVIEW
 70
     0
  9
$UCSORGTOP
 10
0.0
 20
0.0
 30
0.0
  9
$UCSORGBOTTOM
 10
0.0
 20
0.0
 30
0.0
  9
$UCSORGLEFT
 10
0.0
 20
0.0
 30
0.0
  9
$UCSORGRIGHT
 10
0.0
 20
0.0
 30
0.0
  9
$UCSORGFRONT
 10
0.0
 20
0.0
 30
0.0
  9
$UCSORGBACK
 10
0.0
 20
0.0
 30
0.0
  9
$PUCSBASE
  2

  9
$PUCSNAME
  2

  9
$PUCSORG
 10
0.0
 20
0.0
 30
0.0
  9
$PUCSXDIR
 10
1.0
 20
0.0
 30
0.0
  9
$PUCSYDIR
 10
0.0
 20
1.0
 30
0.0
  9
$PUCSORTHOREF
  2

  9
$PUCSORTHOVIEW
 70
     0
  9
$PUCSORGTOP
 10
0.0
 20
0.0
 30
0.0
  9
$PUCSORGBOTTOM
 10
0.0
 20
0.0
 30
0.0
  9
$PUCSORGLEFT
 10
0.0
 20
0.0
 30
0.0
  9
$PUCSORGRIGHT
 10
0.0
 20
0.0
 30
0.0
  9
$PUCSORGFRONT
 10
0.0
 20
0.0
 30
0.0
  9
$PUCSORGBACK
 10
0.0
 20
0.0
 30
0.0
  9
$USERI1
 70
     0
  9
$USERI2
 70
     0
  9
$USERI3
 70
     0
  9
$USERI4
 70
     0
  9
$USERI5
 70
     0
  9
$USERR1
 40
0.0
  9
$USERR2
 40
0.0
  9
$USERR3
 40
0.0
  9
$USERR4
 40
0.0
  9
$USERR5
 40
0.0
  9
$WORLDVIEW
 70
     1
  9
$SHADEDGE
 70
     3
  9
$SHADEDIF
 70
    70
  9
$TILEMODE
 70
     1
  9
$MAXACTVP
 70
    64
  9
$PINSBASE
 10
0.0
 20
0.0
 30
0.0
  9
$PLIMCHECK
 70
     0
  9
$PEXTMIN
 10
1.000000000000000E+20
 20
1.000000000000000E+20
 30
1.000000000000000E+20
  9
$PEXTMAX
 10
-1.000000000000000E+20
 20
-1.000000000000000E+20
 30
-1.000000000000000E+20
  9
$PLIMMIN
 10
0.0
 20
0.0
  9
$PLIMMAX
 10
420.0
 20
297.0
  9
$UNITMODE
 70
     0
  9
$VISRETAIN
 70
     1
  9
$PLINEGEN
 70
     0
  9
$PSLTSCALE
 70
     1
  9
$TREEDEPTH
 70
  3020
  9
$CMLSTYLE
  2
Standard
  9
$CMLJUST
 70
     0
  9
$CMLSCALE
 40
20.0
  9
$PROXYGRAPHICS
 70
     1
  9
$MEASUREMENT
 70
     1
  9
$CELWEIGHT
370
    -1
  9
$ENDCAPS
280
     0
  9
$JOINSTYLE
280
     0
  9
$LWDISPLAY
290
     0
  9
$INSUNITS
 70
     4
  9
$HYPERLINKBASE
  1

  9
$STYLESHEET
  1

  9
$XEDIT
290
     1
  9
$CEPSNTYPE
380
     0
  9
$PSTYLEMODE
290
     1
  9
$FINGERPRINTGUID
  2
{7728F60E-2A08-4245-BC3C-7F64570DB8EC}
  9
$VERSIONGUID
  2
{DC13260D-927D-4CF4-9BFD-FA33422D2CC1}
  9
$EXTNAMES
290
     1
  9
$PSVPSCALE
 40
0.0
  9
$OLESTARTUP
290
     0
  0
ENDSEC
  0
SECTION
  2
CLASSES
  0
CLASS
  1
ACDBDICTIONARYWDFLT
  2
AcDbDictionaryWithDefault
  3
ObjectDBX Classes
 90
        0
280
     0
281
     0
  0
CLASS
  1
TABLESTYLE
  2
AcDbTableStyle
  3
ObjectDBX Classes
 90
     2047
280
     0
281
     0
  0
CLASS
  1
DIMASSOC
  2
AcDbDimAssoc
  3
"AcDbDimAssoc|Product Desc:     AcDim ARX App For Dimension|Company:          Autodesk, Inc.|WEB Address:      www.autodesk.com"
 90
        0
280
     0
281
     0
  0
CLASS
  1
SORTENTSTABLE
  2
AcDbSortentsTable
  3
ObjectDBX Classes
 90
        0
280
     0
281
     0
  0
CLASS
  1
DICTIONARYVAR
  2
AcDbDictionaryVar
  3
ObjectDBX Classes
 90
        0
280
     0
281
     0
  0
CLASS
  1
ACDBPLACEHOLDER
  2
AcDbPlaceHolder
  3
ObjectDBX Classes
 90
        0
280
     0
281
     0
  0
CLASS
  1
LAYOUT
  2
AcDbLayout
  3
ObjectDBX Classes
 90
        0
280
     0
281
     0
  0
ENDSEC
  0
SECTION
  2
TABLES
  0
TABLE
  2
VPORT
  5
8
330
0
100
AcDbSymbolTable
 70
     9
  0
VPORT
  5
A63
330
8
100
AcDbSymbolTableRecord
100
AcDbViewportTableRecord
  2
*Active
 70
     0
 10
0.0
 20
0.0
 11
1.0
 21
1.0
 12
763.8984782588154
 22
1170.9652345969
 13
0.0
 23
0.0
 14
10.0
 24
10.0
 15
10.0
 25
10.0
 16
0.0
 26
0.0
 36
1.0
 17
0.0
 27
0.0
 37
0.0
 40
1.51364438835635
 41
1.602030456852791
 42
50.0
 43
0.0
 44
0.0
 50
0.0
 51
0.0
 71
     0
 72
  1000
 73
     1
 74
     3
 75
     0
 76
     0
 77
     0
 78
     0
281
     0
 65
     1
110
0.0
120
0.0
130
0.0
111
1.0
121
0.0
131
0.0
112
0.0
122
1.0
132
0.0
 79
     0
146
0.0
  0
ENDTAB
  0
TABLE
  2
LTYPE
  5
5
330
0
100
AcDbSymbolTable
 70
     3
  0
LTYPE
  5
14
330
5
100
AcDbSymbolTableRecord
100
AcDbLinetypeTableRecord
  2
ByBlock
 70
     0
  3

 72
    65
 73
     0
 40
0.0
  0
LTYPE
  5
15
330
5
100
AcDbSymbolTableRecord
100
AcDbLinetypeTableRecord
  2
ByLayer
 70
     0
  3

 72
    65
 73
     0
 40
0.0
  0
LTYPE
  5
16
330
5
100
AcDbSymbolTableRecord
100
AcDbLinetypeTableRecord
  2
Continuous
 70
     0
  3
Solid line
 72
    65
 73
     0
 40
0.0
  0
LTYPE
  5
211
330
5
100
AcDbSymbolTableRecord
100
AcDbLinetypeTableRecord
  2
DASHDOT
 70
     0
  3
Dash dot __ . __ . __ . __ . __ . __ . __ . __
 72
    65
 73
     4
 40
25.4
 49
12.7
 74
     0
 49
-6.349999999999999
 74
     0
 49
0.0
 74
     0
 49
-6.349999999999999
 74
     0
  0
LTYPE
  5
212
330
5
100
AcDbSymbolTableRecord
100
AcDbLinetypeTableRecord
  2
HIDDEN
 70
     0
  3
Hidden __ __ __ __ __ __ __ __ __ __ __ __ __ _
 72
    65
 73
     2
 40
9.524999999999998
 49
6.349999999999999
 74
     0
 49
-3.174999999999999
 74
     0
  0
ENDTAB
  0
TABLE
  2
LAYER
  5
2
330
0
100
AcDbSymbolTable
 70
    10
  0
LAYER
  5
10
330
2
100
AcDbSymbolTableRecord
100
AcDbLayerTableRecord
  2
0
 70
     0
 62
     7
  6
Continuous
370
    -3
390
F
  0
LAYER
  5
213
330
2
100
AcDbSymbolTableRecord
100
AcDbLayerTableRecord
  2
2
 70
     0
 62
     2
  6
Continuous
370
    -3
390
F
  0
LAYER
  5
214
330
2
100
AcDbSymbolTableRecord
100
AcDbLayerTableRecord
  2
4
 70
     0
 62
     4
  6
Continuous
370
    -3
390
F
  0
LAYER
  5
215
330
2
100
AcDbSymbolTableRecord
100
AcDbLayerTableRecord
  2
cen
 70
     0
 62
     7
  6
DASHDOT
370
    -3
390
F
  0
LAYER
  5
216
330
2
100
AcDbSymbolTableRecord
100
AcDbLayerTableRecord
  2
hid
 70
     0
 62
     7
  6
HIDDEN
370
    -3
390
F
  0
LAYER
  5
217
330
2
100
AcDbSymbolTableRecord
100
AcDbLayerTableRecord
  2
hatch
 70
     0
 62
     9
  6
Continuous
370
    -3
390
F
  0
LAYER
  5
218
330
2
100
AcDbSymbolTableRecord
100
AcDbLayerTableRecord
  2
9
 70
     0
 62
     9
  6
Continuous
370
    -3
390
F
  0
LAYER
  5
219
330
2
100
AcDbSymbolTableRecord
100
AcDbLayerTableRecord
  2
cotas
 70
     0
 62
     1
  6
Continuous
370
    -3
390
F
  0
LAYER
  5
21A
330
2
100
AcDbSymbolTableRecord
100
AcDbLayerTableRecord
  2
Defpoints
 70
     0
 62
     7
  6
Continuous
290
     0
370
    -3
390
F
  0
LAYER
  5
21B
330
2
100
AcDbSymbolTableRecord
100
AcDbLayerTableRecord
  2
SANINDUSA
 70
     0
 62
     3
  6
Continuous
370
    -3
390
F
  0
ENDTAB
  0
TABLE
  2
STYLE
  5
3
330
0
100
AcDbSymbolTable
 70
     2
  0
STYLE
  5
11
330
3
100
AcDbSymbolTableRecord
100
AcDbTextStyleTableRecord
  2
Standard
 70
     0
 40
0.0
 41
1.0
 50
0.0
 71
     0
 42
2.5
  3
txt
  4

  0
STYLE
  5
21C
330
3
100
AcDbSymbolTableRecord
100
AcDbTextStyleTableRecord
  2
SANINDUSA
 70
     0
 40
0.0
 41
1.0
 50
0.0
 71
     0
 42
2.5
  3
verdana.TTF
  4

1001
ACAD
1000
Verdana
1071
       34
  0
ENDTAB
  0
TABLE
  2
VIEW
  5
6
330
0
100
AcDbSymbolTable
 70
     0
  0
ENDTAB
  0
TABLE
  2
UCS
  5
7
330
0
100
AcDbSymbolTable
 70
     0
  0
ENDTAB
  0
TABLE
  2
APPID
  5
9
330
0
100
AcDbSymbolTable
 70
     5
  0
APPID
  5
12
330
9
100
AcDbSymbolTableRecord
100
AcDbRegAppTableRecord
  2
ACAD
 70
     0
  0
APPID
  5
21E
330
9
100
AcDbSymbolTableRecord
100
AcDbRegAppTableRecord
  2
ACAD_DSTYLE_DIMEXT_LENGTH
 70
     0
  0
APPID
  5
21F
330
9
100
AcDbSymbolTableRecord
100
AcDbRegAppTableRecord
  2
ACAD_DSTYLE_DIMEXT_ENABLED
 70
     0
  0
APPID
  5
220
330
9
100
AcDbSymbolTableRecord
100
AcDbRegAppTableRecord
  2
ACAD_DSTYLE_DIMJOGGED_JOGANGLE_SYMBOL
 70
     0
  0
APPID
  5
221
330
9
100
AcDbSymbolTableRecord
100
AcDbRegAppTableRecord
  2
ACAD_DSTYLE_DIMARC_LENGTH_SYMBOL
 70
     0
  0
ENDTAB
  0
TABLE
  2
DIMSTYLE
  5
A
330
0
100
AcDbSymbolTable
 70
     2
100
AcDbDimStyleTable
 71
     0
  0
DIMSTYLE
105
2B
330
A
100
AcDbSymbolTableRecord
100
AcDbDimStyleTableRecord
  2
ISO-25
 70
     0
 41
2.5
 42
0.625
 43
3.75
 44
1.25
 73
     0
 74
     0
 77
     1
 78
     8
140
2.5
141
2.5
143
0.03937007874016
147
0.625
171
     3
172
     1
271
     2
272
     2
274
     3
278
    44
283
     0
284
     8
340
11
  0
DIMSTYLE
105
21D
102
{ACAD_REACTORS
330
3EF
330
3F2
330
3F6
330
3F9
330
3FC
330
3FF
330
402
330
405
330
408
330
40B
330
40E
330
411
330
414
330
417
330
41A
330
41D
330
431
330
434
330
437
330
43A
330
43D
330
43E
330
441
330
444
330
445
330
448
330
44B
330
480
330
483
330
489
330
48C
330
48D
330
491
330
494
330
497
330
49A
330
49D
330
4A0
330
4A3
330
4A6
330
4A9
330
4AC
330
4B0
330
4B1
102
}
330
A
100
AcDbSymbolTableRecord
100
AcDbDimStyleTableRecord
  2
SANINDUSA
 70
     0
 40
5.0
 41
2.0
 42
1.0
 43
1.0
 44
1.0
 73
     0
 74
     0
 77
     1
 78
     8
140
2.0
141
0.0
143
0.03937007874016
147
1.0
171
     3
172
     1
176
   256
177
   256
178
   256
179
     1
271
     0
272
     0
274
     3
278
    44
283
     0
284
     8
340
21C
371
    -1
372
    -1
1001
ACAD_DSTYLE_DIMEXT_LENGTH
1070
   378
1040
1.0
1001
ACAD_DSTYLE_DIMEXT_ENABLED
1070
   383
1070
     0
1001
ACAD_DSTYLE_DIMARC_LENGTH_SYMBOL
1070
   379
1070
     0
1001
ACAD_DSTYLE_DIMJOGGED_JOGANGLE_SYMBOL
1070
   384
1040
1.570796326794896
  0
ENDTAB
  0
TABLE
  2
BLOCK_RECORD
  5
1
330
0
100
AcDbSymbolTable
 70
    90
  0
BLOCK_RECORD
  5
23
330
1
100
AcDbSymbolTableRecord
100
AcDbBlockTableRecord
  2
*Model_Space
340
26
  0
BLOCK_RECORD
  5
1F
330
1
100
AcDbSymbolTableRecord
100
AcDbBlockTableRecord
  2
*Paper_Space
340
22
  0
BLOCK_RECORD
  5
27
330
1
100
AcDbSymbolTableRecord
100
AcDbBlockTableRecord
  2
*Paper_Space0
340
2A
  0
BLOCK_RECORD
  5
2F
330
1
100
AcDbSymbolTableRecord
100
AcDbBlockTableRecord
  2
*D1
340
0
  0
BLOCK_RECORD
  5
3B
330
1
100
AcDbSymbolTableRecord
100
AcDbBlockTableRecord
  2
*D2
340
0
  0
BLOCK_RECORD
  5
47
330
1
100
AcDbSymbolTableRecord
100
AcDbBlockTableRecord
  2
*D3
340
0
  0
BLOCK_RECORD
  5
53
330
1
100
AcDbSymbolTableRecord
100
AcDbBlockTableRecord
  2
*D4
340
0
  0
BLOCK_RECORD
  5
5E
330
1
100
AcDbSymbolTableRecord
100
AcDbBlockTableRecord
  2
*D5
340
0
  0
BLOCK_RECORD
  5
6A
330
1
100
AcDbSymbolTableRecord
100
AcDbBlockTableRecord
  2
*D6
340
0
  0
BLOCK_RECORD
  5
73
330
1
100
AcDbSymbolTableRecord
100
AcDbBlockTableRecord
  2
*D7
340
0
  0
BLOCK_RECORD
  5
7C
330
1
100
AcDbSymbolTableRecord
100
AcDbBlockTableRecord
  2
*D8
340
0
  0
BLOCK_RECORD
  5
85
330
1
100
AcDbSymbolTableRecord
100
AcDbBlockTableRecord
  2
*D9
340
0
  0
BLOCK_RECORD
  5
91
330
1
100
AcDbSymbolTableRecord
100
AcDbBlockTableRecord
  2
*D10
340
0
  0
BLOCK_RECORD
  5
9D
330
1
100
AcDbSymbolTableRecord
100
AcDbBlockTableRecord
  2
*D11
340
0
  0
BLOCK_RECORD
  5
A6
330
1
100
AcDbSymbolTableRecord
100
AcDbBlockTableRecord
  2
*D12
340
0
  0
BLOCK_RECORD
  5
AF
330
1
100
AcDbSymbolTableRecord
100
AcDbBlockTableRecord
  2
*D13
340
0
  0
BLOCK_RECORD
  5
B8
330
1
100
AcDbSymbolTableRecord
100
AcDbBlockTableRecord
  2
*D14
340
0
  0
BLOCK_RECORD
  5
C1
330
1
100
AcDbSymbolTableRecord
100
AcDbBlockTableRecord
  2
*D15
340
0
  0
BLOCK_RECORD
  5
CA
330
1
100
AcDbSymbolTableRecord
100
AcDbBlockTableRecord
  2
*D16
340
0
  0
BLOCK_RECORD
  5
D3
330
1
100
AcDbSymbolTableRecord
100
AcDbBlockTableRecord
  2
*D17
340
0
  0
BLOCK_RECORD
  5
DE
330
1
100
AcDbSymbolTableRecord
100
AcDbBlockTableRecord
  2
*D18
340
0
  0
BLOCK_RECORD
  5
EA
330
1
100
AcDbSymbolTableRecord
100
AcDbBlockTableRecord
  2
*D19
340
0
  0
BLOCK_RECORD
  5
F6
330
1
100
AcDbSymbolTableRecord
100
AcDbBlockTableRecord
  2
*D20
340
0
  0
BLOCK_RECORD
  5
102
330
1
100
AcDbSymbolTableRecord
100
AcDbBlockTableRecord
  2
*D21
340
0
  0
BLOCK_RECORD
  5
10E
330
1
100
AcDbSymbolTableRecord
100
AcDbBlockTableRecord
  2
*D22
340
0
  0
BLOCK_RECORD
  5
11A
330
1
100
AcDbSymbolTableRecord
100
AcDbBlockTableRecord
  2
*D23
340
0
  0
BLOCK_RECORD
  5
127
330
1
100
AcDbSymbolTableRecord
100
AcDbBlockTableRecord
  2
*D24
340
0
  0
BLOCK_RECORD
  5
133
330
1
100
AcDbSymbolTableRecord
100
AcDbBlockTableRecord
  2
*D25
340
0
  0
BLOCK_RECORD
  5
13F
330
1
100
AcDbSymbolTableRecord
100
AcDbBlockTableRecord
  2
*D26
340
0
  0
BLOCK_RECORD
  5
14D
330
1
100
AcDbSymbolTableRecord
100
AcDbBlockTableRecord
  2
*D27
340
0
  0
BLOCK_RECORD
  5
15A
330
1
100
AcDbSymbolTableRecord
100
AcDbBlockTableRecord
  2
*D28
340
0
  0
BLOCK_RECORD
  5
168
330
1
100
AcDbSymbolTableRecord
100
AcDbBlockTableRecord
  2
*D29
340
0
  0
BLOCK_RECORD
  5
174
330
1
100
AcDbSymbolTableRecord
100
AcDbBlockTableRecord
  2
*D30
340
0
  0
BLOCK_RECORD
  5
182
330
1
100
AcDbSymbolTableRecord
100
AcDbBlockTableRecord
  2
*D31
340
0
  0
BLOCK_RECORD
  5
190
330
1
100
AcDbSymbolTableRecord
100
AcDbBlockTableRecord
  2
*D32
340
0
  0
BLOCK_RECORD
  5
19C
330
1
100
AcDbSymbolTableRecord
100
AcDbBlockTableRecord
  2
*D33
340
0
  0
BLOCK_RECORD
  5
1A8
330
1
100
AcDbSymbolTableRecord
100
AcDbBlockTableRecord
  2
*D34
340
0
  0
BLOCK_RECORD
  5
1B1
330
1
100
AcDbSymbolTableRecord
100
AcDbBlockTableRecord
  2
*D35
340
0
  0
BLOCK_RECORD
  5
1BA
330
1
100
AcDbSymbolTableRecord
100
AcDbBlockTableRecord
  2
*D36
340
0
  0
BLOCK_RECORD
  5
1C3
330
1
100
AcDbSymbolTableRecord
100
AcDbBlockTableRecord
  2
*D37
340
0
  0
BLOCK_RECORD
  5
1CB
330
1
100
AcDbSymbolTableRecord
100
AcDbBlockTableRecord
  2
*D38
340
0
  0
BLOCK_RECORD
  5
1D4
330
1
100
AcDbSymbolTableRecord
100
AcDbBlockTableRecord
  2
*D39
340
0
  0
BLOCK_RECORD
  5
1DD
330
1
100
AcDbSymbolTableRecord
100
AcDbBlockTableRecord
  2
*D40
340
0
  0
BLOCK_RECORD
  5
1E5
330
1
100
AcDbSymbolTableRecord
100
AcDbBlockTableRecord
  2
*D41
340
0
  0
BLOCK_RECORD
  5
1ED
330
1
100
AcDbSymbolTableRecord
100
AcDbBlockTableRecord
  2
*D42
340
0
  0
BLOCK_RECORD
  5
1F9
330
1
100
AcDbSymbolTableRecord
100
AcDbBlockTableRecord
  2
*D43
340
0
  0
BLOCK_RECORD
  5
205
330
1
100
AcDbSymbolTableRecord
100
AcDbBlockTableRecord
  2
*D44
340
0
  0
BLOCK_RECORD
  5
74B
330
1
100
AcDbSymbolTableRecord
100
AcDbBlockTableRecord
  2
*D46
340
0
  0
BLOCK_RECORD
  5
757
330
1
100
AcDbSymbolTableRecord
100
AcDbBlockTableRecord
  2
*D47
340
0
  0
BLOCK_RECORD
  5
763
330
1
100
AcDbSymbolTableRecord
100
AcDbBlockTableRecord
  2
*D48
340
0
  0
BLOCK_RECORD
  5
771
330
1
100
AcDbSymbolTableRecord
100
AcDbBlockTableRecord
  2
*D49
340
0
  0
BLOCK_RECORD
  5
77D
330
1
100
AcDbSymbolTableRecord
100
AcDbBlockTableRecord
  2
*D50
340
0
  0
BLOCK_RECORD
  5
789
330
1
100
AcDbSymbolTableRecord
100
AcDbBlockTableRecord
  2
*D51
340
0
  0
BLOCK_RECORD
  5
795
330
1
100
AcDbSymbolTableRecord
100
AcDbBlockTableRecord
  2
*D52
340
0
  0
BLOCK_RECORD
  5
7A1
330
1
100
AcDbSymbolTableRecord
100
AcDbBlockTableRecord
  2
*D53
340
0
  0
BLOCK_RECORD
  5
7AC
330
1
100
AcDbSymbolTableRecord
100
AcDbBlockTableRecord
  2
*D54
340
0
  0
BLOCK_RECORD
  5
7B8
330
1
100
AcDbSymbolTableRecord
100
AcDbBlockTableRecord
  2
*D55
340
0
  0
BLOCK_RECORD
  5
7C1
330
1
100
AcDbSymbolTableRecord
100
AcDbBlockTableRecord
  2
*D56
340
0
  0
BLOCK_RECORD
  5
7CA
330
1
100
AcDbSymbolTableRecord
100
AcDbBlockTableRecord
  2
*D57
340
0
  0
BLOCK_RECORD
  5
7D3
330
1
100
AcDbSymbolTableRecord
100
AcDbBlockTableRecord
  2
*D58
340
0
  0
BLOCK_RECORD
  5
7DF
330
1
100
AcDbSymbolTableRecord
100
AcDbBlockTableRecord
  2
*D59
340
0
  0
BLOCK_RECORD
  5
7EB
330
1
100
AcDbSymbolTableRecord
100
AcDbBlockTableRecord
  2
*D60
340
0
  0
BLOCK_RECORD
  5
7F4
330
1
100
AcDbSymbolTableRecord
100
AcDbBlockTableRecord
  2
*D61
340
0
  0
BLOCK_RECORD
  5
7FD
330
1
100
AcDbSymbolTableRecord
100
AcDbBlockTableRecord
  2
*D62
340
0
  0
BLOCK_RECORD
  5
806
330
1
100
AcDbSymbolTableRecord
100
AcDbBlockTableRecord
  2
*D63
340
0
  0
BLOCK_RECORD
  5
80F
330
1
100
AcDbSymbolTableRecord
100
AcDbBlockTableRecord
  2
*D64
340
0
  0
BLOCK_RECORD
  5
818
330
1
100
AcDbSymbolTableRecord
100
AcDbBlockTableRecord
  2
*D65
340
0
  0
BLOCK_RECORD
  5
821
330
1
100
AcDbSymbolTableRecord
100
AcDbBlockTableRecord
  2
*D66
340
0
  0
BLOCK_RECORD
  5
82C
330
1
100
AcDbSymbolTableRecord
100
AcDbBlockTableRecord
  2
*D67
340
0
  0
BLOCK_RECORD
  5
838
330
1
100
AcDbSymbolTableRecord
100
AcDbBlockTableRecord
  2
*D68
340
0
  0
BLOCK_RECORD
  5
844
330
1
100
AcDbSymbolTableRecord
100
AcDbBlockTableRecord
  2
*D69
340
0
  0
BLOCK_RECORD
  5
859
330
1
100
AcDbSymbolTableRecord
100
AcDbBlockTableRecord
  2
*D70
340
0
  0
BLOCK_RECORD
  5
865
330
1
100
AcDbSymbolTableRecord
100
AcDbBlockTableRecord
  2
*D71
340
0
  0
BLOCK_RECORD
  5
87B
330
1
100
AcDbSymbolTableRecord
100
AcDbBlockTableRecord
  2
*D72
340
0
  0
BLOCK_RECORD
  5
887
330
1
100
AcDbSymbolTableRecord
100
AcDbBlockTableRecord
  2
*D73
340
0
  0
BLOCK_RECORD
  5
895
330
1
100
AcDbSymbolTableRecord
100
AcDbBlockTableRecord
  2
*D74
340
0
  0
BLOCK_RECORD
  5
8A2
330
1
100
AcDbSymbolTableRecord
100
AcDbBlockTableRecord
  2
*D75
340
0
  0
BLOCK_RECORD
  5
8B0
330
1
100
AcDbSymbolTableRecord
100
AcDbBlockTableRecord
  2
*D76
340
0
  0
BLOCK_RECORD
  5
8BC
330
1
100
AcDbSymbolTableRecord
100
AcDbBlockTableRecord
  2
*D77
340
0
  0
BLOCK_RECORD
  5
8D5
330
1
100
AcDbSymbolTableRecord
100
AcDbBlockTableRecord
  2
*D78
340
0
  0
BLOCK_RECORD
  5
8E1
330
1
100
AcDbSymbolTableRecord
100
AcDbBlockTableRecord
  2
*D79
340
0
  0
BLOCK_RECORD
  5
8ED
330
1
100
AcDbSymbolTableRecord
100
AcDbBlockTableRecord
  2
*D80
340
0
  0
BLOCK_RECORD
  5
8F6
330
1
100
AcDbSymbolTableRecord
100
AcDbBlockTableRecord
  2
*D81
340
0
  0
BLOCK_RECORD
  5
8FF
330
1
100
AcDbSymbolTableRecord
100
AcDbBlockTableRecord
  2
*D82
340
0
  0
BLOCK_RECORD
  5
908
330
1
100
AcDbSymbolTableRecord
100
AcDbBlockTableRecord
  2
*D83
340
0
  0
BLOCK_RECORD
  5
910
330
1
100
AcDbSymbolTableRecord
100
AcDbBlockTableRecord
  2
*D84
340
0
  0
BLOCK_RECORD
  5
919
330
1
100
AcDbSymbolTableRecord
100
AcDbBlockTableRecord
  2
*D85
340
0
  0
BLOCK_RECORD
  5
922
330
1
100
AcDbSymbolTableRecord
100
AcDbBlockTableRecord
  2
*D86
340
0
  0
BLOCK_RECORD
  5
92A
330
1
100
AcDbSymbolTableRecord
100
AcDbBlockTableRecord
  2
*D87
340
0
  0
BLOCK_RECORD
  5
932
330
1
100
AcDbSymbolTableRecord
100
AcDbBlockTableRecord
  2
*D88
340
0
  0
BLOCK_RECORD
  5
947
330
1
100
AcDbSymbolTableRecord
100
AcDbBlockTableRecord
  2
*D89
340
0
  0
ENDTAB
  0
ENDSEC
  0
SECTION
  2
BLOCKS
  0
BLOCK
  5
24
330
23
100
AcDbEntity
  8
0
100
AcDbBlockBegin
  2
*Model_Space
 70
     0
 10
0.0
 20
0.0
 30
0.0
  3
*Model_Space
  1

  0
ENDBLK
  5
25
330
23
100
AcDbEntity
  8
0
100
AcDbBlockEnd
  0
BLOCK
  5
20
330
1F
100
AcDbEntity
 67
     1
  8
0
100
AcDbBlockBegin
  2
*Paper_Space
 70
     0
 10
0.0
 20
0.0
 30
0.0
  3
*Paper_Space
  1

  0
ENDBLK
  5
21
330
1F
100
AcDbEntity
 67
     1
  8
0
100
AcDbBlockEnd
  0
BLOCK
  5
28
330
27
100
AcDbEntity
 67
     1
  8
0
100
AcDbBlockBegin
  2
*Paper_Space0
 70
     0
 10
0.0
 20
0.0
 30
0.0
  3
*Paper_Space0
  1

  0
ENDBLK
  5
29
330
27
100
AcDbEntity
 67
     1
  8
0
100
AcDbBlockEnd
  0
BLOCK
  5
30
330
2F
100
AcDbEntity
  8
0
100
AcDbBlockBegin
  2
*D1
 70
     1
 10
0.0
 20
0.0
 30
0.0
  3
*D1
  1

  0
LINE
  5
31
330
2F
100
AcDbEntity
  8
cotas
100
AcDbLine
 10
7463.995258213508
 20
1949.891460298569
 30
0.0
 11
7505.159615140701
 21
1949.891460298569
 31
0.0
  0
LINE
  5
32
330
2F
100
AcDbEntity
  8
cotas
100
AcDbLine
 10
7463.995258213508
 20
1899.891460298569
 30
0.0
 11
7505.159615140701
 21
1899.891460298569
 31
0.0
  0
LINE
  5
33
330
2F
100
AcDbEntity
  8
cotas
100
AcDbLine
 10
7500.159615140701
 20
1939.89146029857
 30
0.0
 11
7500.159615140701
 21
1909.89146029857
 31
0.0
  0
SOLID
  5
34
330
2F
100
AcDbEntity
  8
cotas
100
AcDbTrace
 10
7498.492948474035
 20
1939.89146029857
 30
0.0
 11
7501.826281807367
 21
1939.89146029857
 31
0.0
 12
7500.159615140701
 22
1949.891460298569
 32
0.0
 13
7500.159615140701
 23
1949.891460298569
 33
0.0
  0
SOLID
  5
35
330
2F
100
AcDbEntity
  8
cotas
100
AcDbTrace
 10
7498.492948474035
 20
1909.89146029857
 30
0.0
 11
7501.826281807367
 21
1909.89146029857
 31
0.0
 12
7500.159615140701
 22
1899.891460298569
 32
0.0
 13
7500.159615140701
 23
1899.891460298569
 33
0.0
  0
MTEXT
  5
36
330
2F
100
AcDbEntity
  8
cotas
100
AcDbMText
 10
7489.954779680662
 20
1924.891460298571
 30
0.0
 40
10.0
 41
0.0
 71
     5
 72
     1
  1
50
  7
SANINDUSA
 11
0.0000000000000001
 21
1.0
 31
0.0
 73
     1
 44
1.0
1001
ACAD
1000
MTEXTBEGIN
1070
    73
1070
     1
1070
    44
1040
1.0
1070
    74
1070
     0
1000
MTEXTEND
  0
POINT
  5
37
330
2F
100
AcDbEntity
  8
Defpoints
 62
     0
100
AcDbPoint
 10
7458.995258213507
 20
1949.891460298569
 30
0.0
  0
POINT
  5
38
330
2F
100
AcDbEntity
  8
Defpoints
 62
     0
100
AcDbPoint
 10
7458.995258213507
 20
1899.891460298569
 30
0.0
  0
POINT
  5
39
330
2F
100
AcDbEntity
  8
Defpoints
 62
     0
100
AcDbPoint
 10
7500.159615140701
 20
1899.891460298569
 30
0.0
  0
ENDBLK
  5
3A
330
2F
100
AcDbEntity
  8
0
100
AcDbBlockEnd
  0
BLOCK
  5
3C
330
3B
100
AcDbEntity
  8
0
100
AcDbBlockBegin
  2
*D2
 70
     1
 10
0.0
 20
0.0
 30
0.0
  3
*D2
  1

  0
LINE
  5
3D
330
3B
100
AcDbEntity
  8
cotas
100
AcDbLine
 10
7033.995258213507
 20
1944.891460298569
 30
0.0
 11
7033.995258213507
 21
1981.504343236916
 31
0.0
  0
LINE
  5
3E
330
3B
100
AcDbEntity
  8
cotas
100
AcDbLine
 10
7463.995258213508
 20
1944.891460298569
 30
0.0
 11
7463.995258213508
 21
1981.504343236916
 31
0.0
  0
LINE
  5
3F
330
3B
100
AcDbEntity
  8
cotas
100
AcDbLine
 10
7043.995258213508
 20
1976.504343236916
 30
0.0
 11
7453.995258213507
 21
1976.504343236916
 31
0.0
  0
SOLID
  5
40
330
3B
100
AcDbEntity
  8
cotas
100
AcDbTrace
 10
7043.995258213508
 20
1978.171009903582
 30
0.0
 11
7043.995258213508
 21
1974.837676570249
 31
0.0
 12
7033.995258213507
 22
1976.504343236916
 32
0.0
 13
7033.995258213507
 23
1976.504343236916
 33
0.0
  0
SOLID
  5
41
330
3B
100
AcDbEntity
  8
cotas
100
AcDbTrace
 10
7453.995258213507
 20
1978.171009903582
 30
0.0
 11
7453.995258213507
 21
1974.837676570249
 31
0.0
 12
7463.995258213508
 22
1976.504343236916
 32
0.0
 13
7463.995258213508
 23
1976.504343236916
 33
0.0
  0
MTEXT
  5
42
330
3B
100
AcDbEntity
  8
cotas
100
AcDbMText
 10
7248.995258213508
 20
1986.712536655317
 30
0.0
 40
10.0
 41
0.0
 71
     5
 72
     1
  1
430
  7
SANINDUSA
 73
     1
 44
1.0
1001
ACAD
1000
MTEXTBEGIN
1070
    73
1070
     1
1070
    44
1040
1.0
1070
    74
1070
     0
1000
MTEXTEND
  0
POINT
  5
43
330
3B
100
AcDbEntity
  8
Defpoints
 62
     0
100
AcDbPoint
 10
7033.995258213507
 20
1939.89146029857
 30
0.0
  0
POINT
  5
44
330
3B
100
AcDbEntity
  8
Defpoints
 62
     0
100
AcDbPoint
 10
7463.995258213508
 20
1939.89146029857
 30
0.0
  0
POINT
  5
45
330
3B
100
AcDbEntity
  8
Defpoints
 62
     0
100
AcDbPoint
 10
7463.995258213508
 20
1976.504343236916
 30
0.0
  0
ENDBLK
  5
46
330
3B
100
AcDbEntity
  8
0
100
AcDbBlockEnd
  0
BLOCK
  5
48
330
47
100
AcDbEntity
  8
0
100
AcDbBlockBegin
  2
*D3
 70
     1
 10
0.0
 20
0.0
 30
0.0
  3
*D3
  1

  0
LINE
  5
49
330
47
100
AcDbEntity
  8
cotas
100
AcDbLine
 10
6735.720701486759
 20
1899.891460298569
 30
0.0
 11
6765.229313305247
 21
1899.891460298569
 31
0.0
  0
LINE
  5
4A
330
47
100
AcDbEntity
  8
cotas
100
AcDbLine
 10
6735.720695407088
 20
1828.673836945565
 30
0.0
 11
6765.229313305247
 21
1828.673836945565
 31
0.0
  0
LINE
  5
4B
330
47
100
AcDbEntity
  8
cotas
100
AcDbLine
 10
6760.229313305247
 20
1889.891460298569
 30
0.0
 11
6760.229313305247
 21
1838.673836945565
 31
0.0
  0
SOLID
  5
4C
330
47
100
AcDbEntity
  8
cotas
100
AcDbTrace
 10
6758.562646638579
 20
1889.891460298569
 30
0.0
 11
6761.895979971914
 21
1889.891460298569
 31
0.0
 12
6760.229313305247
 22
1899.891460298569
 32
0.0
 13
6760.229313305247
 23
1899.891460298569
 33
0.0
  0
SOLID
  5
4D
330
47
100
AcDbEntity
  8
cotas
100
AcDbTrace
 10
6758.562646638579
 20
1838.673836945565
 30
0.0
 11
6761.895979971914
 21
1838.673836945565
 31
0.0
 12
6760.229313305247
 22
1828.673836945565
 32
0.0
 13
6760.229313305247
 23
1828.673836945565
 33
0.0
  0
MTEXT
  5
4E
330
47
100
AcDbEntity
  8
cotas
100
AcDbMText
 10
6750.21252351344
 20
1864.282648622068
 30
0.0
 40
10.0
 41
0.0
 71
     5
 72
     1
  1
71
  7
SANINDUSA
 11
0.0000000000000001
 21
1.0
 31
0.0
 73
     1
 44
1.0
1001
ACAD
1000
MTEXTBEGIN
1070
    73
1070
     1
1070
    44
1040
1.0
1070
    74
1070
     0
1000
MTEXTEND
  0
POINT
  5
4F
330
47
100
AcDbEntity
  8
Defpoints
 62
     0
100
AcDbPoint
 10
6730.72070148676
 20
1899.891460298569
 30
0.0
  0
POINT
  5
50
330
47
100
AcDbEntity
  8
Defpoints
 62
     0
100
AcDbPoint
 10
6730.720695407089
 20
1828.673836945565
 30
0.0
  0
POINT
  5
51
330
47
100
AcDbEntity
  8
Defpoints
 62
     0
100
AcDbPoint
 10
6760.229313305247
 20
1828.673836945565
 30
0.0
  0
ENDBLK
  5
52
330
47
100
AcDbEntity
  8
0
100
AcDbBlockEnd
  0
BLOCK
  5
54
330
53
100
AcDbEntity
  8
0
100
AcDbBlockBegin
  2
*D4
 70
     1
 10
0.0
 20
0.0
 30
0.0
  3
*D4
  1

  0
LINE
  5
55
330
53
100
AcDbEntity
  8
cotas
100
AcDbLine
 10
6735.720701486759
 20
1949.89146029857
 30
0.0
 11
6765.229313305247
 21
1949.89146029857
 31
0.0
  0
LINE
  5
56
330
53
100
AcDbEntity
  8
cotas
100
AcDbLine
 10
6760.229313305247
 20
1909.891460298569
 30
0.0
 11
6760.229313305247
 21
1939.89146029857
 31
0.0
  0
SOLID
  5
57
330
53
100
AcDbEntity
  8
cotas
100
AcDbTrace
 10
6758.562646638579
 20
1909.891460298569
 30
0.0
 11
6761.895979971914
 21
1909.891460298569
 31
0.0
 12
6760.229313305247
 22
1899.891460298569
 32
0.0
 13
6760.229313305247
 23
1899.891460298569
 33
0.0
  0
SOLID
  5
58
330
53
100
AcDbEntity
  8
cotas
100
AcDbTrace
 10
6758.562646638579
 20
1939.89146029857
 30
0.0
 11
6761.895979971914
 21
1939.89146029857
 31
0.0
 12
6760.229313305247
 22
1949.89146029857
 32
0.0
 13
6760.229313305247
 23
1949.89146029857
 33
0.0
  0
MTEXT
  5
59
330
53
100
AcDbEntity
  8
cotas
100
AcDbMText
 10
6750.024477845205
 20
1924.891460298571
 30
0.0
 40
10.0
 41
0.0
 71
     5
 72
     1
  1
50
  7
SANINDUSA
 11
0.0000000000000001
 21
1.0
 31
0.0
 73
     1
 44
1.0
1001
ACAD
1000
MTEXTBEGIN
1070
    73
1070
     1
1070
    44
1040
1.0
1070
    74
1070
     0
1000
MTEXTEND
  0
POINT
  5
5A
330
53
100
AcDbEntity
  8
Defpoints
 62
     0
100
AcDbPoint
 10
6760.229313305247
 20
1899.891460298569
 30
0.0
  0
POINT
  5
5B
330
53
100
AcDbEntity
  8
Defpoints
 62
     0
100
AcDbPoint
 10
6730.72070148676
 20
1949.89146029857
 30
0.0
  0
POINT
  5
5C
330
53
100
AcDbEntity
  8
Defpoints
 62
     0
100
AcDbPoint
 10
6760.229313305247
 20
1949.89146029857
 30
0.0
  0
ENDBLK
  5
5D
330
53
100
AcDbEntity
  8
0
100
AcDbBlockEnd
  0
BLOCK
  5
5F
330
5E
100
AcDbEntity
  8
0
100
AcDbBlockBegin
  2
*D5
 70
     1
 10
0.0
 20
0.0
 30
0.0
  3
*D5
  1

  0
LINE
  5
60
330
5E
100
AcDbEntity
  8
cotas
100
AcDbLine
 10
6527.350701486763
 20
1786.89146029857
 30
0.0
 11
6793.796079941998
 21
1786.89146029857
 31
0.0
  0
LINE
  5
61
330
5E
100
AcDbEntity
  8
cotas
100
AcDbLine
 10
6770.229313305247
 20
1949.89146029857
 30
0.0
 11
6793.796079941998
 21
1949.89146029857
 31
0.0
  0
LINE
  5
62
330
5E
100
AcDbEntity
  8
cotas
100
AcDbLine
 10
6788.796079941999
 20
1796.89146029857
 30
0.0
 11
6788.796079941999
 21
1939.89146029857
 31
0.0
  0
SOLID
  5
63
330
5E
100
AcDbEntity
  8
cotas
100
AcDbTrace
 10
6787.12941327533
 20
1796.89146029857
 30
0.0
 11
6790.462746608665
 21
1796.89146029857
 31
0.0
 12
6788.796079941999
 22
1786.89146029857
 32
0.0
 13
6788.796079941999
 23
1786.89146029857
 33
0.0
  0
SOLID
  5
64
330
5E
100
AcDbEntity
  8
cotas
100
AcDbTrace
 10
6787.12941327533
 20
1939.89146029857
 30
0.0
 11
6790.462746608665
 21
1939.89146029857
 31
0.0
 12
6788.796079941999
 22
1949.89146029857
 32
0.0
 13
6788.796079941999
 23
1949.89146029857
 33
0.0
  0
MTEXT
  5
65
330
5E
100
AcDbEntity
  8
cotas
100
AcDbMText
 10
6778.587886523595
 20
1868.391460298571
 30
0.0
 40
10.0
 41
0.0
 71
     5
 72
     1
  1
163
  7
SANINDUSA
 11
0.0000000000000001
 21
1.0
 31
0.0
 73
     1
 44
1.0
1001
ACAD
1000
MTEXTBEGIN
1070
    73
1070
     1
1070
    44
1040
1.0
1070
    74
1070
     0
1000
MTEXTEND
  0
POINT
  5
66
330
5E
100
AcDbEntity
  8
Defpoints
 62
     0
100
AcDbPoint
 10
6522.350701486764
 20
1786.89146029857
 30
0.0
  0
POINT
  5
67
330
5E
100
AcDbEntity
  8
Defpoints
 62
     0
100
AcDbPoint
 10
6765.229313305247
 20
1949.89146029857
 30
0.0
  0
POINT
  5
68
330
5E
100
AcDbEntity
  8
Defpoints
 62
     0
100
AcDbPoint
 10
6788.796079941999
 20
1949.89146029857
 30
0.0
  0
ENDBLK
  5
69
330
5E
100
AcDbEntity
  8
0
100
AcDbBlockEnd
  0
BLOCK
  5
6B
330
6A
100
AcDbEntity
  8
0
100
AcDbBlockBegin
  2
*D6
 70
     1
 10
0.0
 20
0.0
 30
0.0
  3
*D6
  1

  0
LINE
  5
6C
330
6A
100
AcDbEntity
  8
cotas
100
AcDbLine
 10
6308.472656941376
 20
1963.754755108364
 30
0.0
 11
6350.126165611939
 21
1947.256461018183
 31
0.0
  0
MTEXT
  5
6D
330
6A
100
AcDbEntity
  8
cotas
100
AcDbMText
 10
6328.40870833329
 20
1966.834567196096
 30
0.0
 40
10.0
 41
0.0
 71
     5
 72
     1
  1
R10
  7
SANINDUSA
 11
0.9297267937411165
 21
-0.3682500359808038
 31
0.0
 73
     1
 44
1.0
1001
ACAD
1000
MTEXTBEGIN
1070
    73
1070
     1
1070
    44
1040
1.0
1070
    74
1070
     0
1000
MTEXTEND
  0
LINE
  5
6E
330
6A
100
AcDbEntity
  8
cotas
100
AcDbLine
 10
6368.720701486765
 20
1939.891460298565
 30
0.0
 11
6359.423433549351
 21
1943.573960658375
 31
0.0
  0
SOLID
  5
6F
330
6A
100
AcDbEntity
  8
cotas
100
AcDbTrace
 10
6350.739915671907
 20
1948.806005674418
 30
0.0
 11
6349.512415551972
 21
1945.706916361947
 31
0.0
 12
6359.423433549351
 22
1943.573960658375
 32
0.0
 13
6359.423433549351
 23
1943.573960658375
 33
0.0
  0
POINT
  5
70
330
6A
100
AcDbEntity
  8
Defpoints
 62
     0
100
AcDbPoint
 10
6359.423433549351
 20
1943.573960658375
 30
0.0
  0
POINT
  5
71
330
6A
100
AcDbEntity
  8
Defpoints
 62
     0
100
AcDbPoint
 10
6368.720701486765
 20
1939.891460298565
 30
0.0
  0
ENDBLK
  5
72
330
6A
100
AcDbEntity
  8
0
100
AcDbBlockEnd
  0
BLOCK
  5
74
330
73
100
AcDbEntity
  8
0
100
AcDbBlockBegin
  2
*D7
 70
     1
 10
0.0
 20
0.0
 30
0.0
  3
*D7
  1

  0
LINE
  5
75
330
73
100
AcDbEntity
  8
cotas
100
AcDbLine
 10
6322.899834514996
 20
1864.068629082268
 30
0.0
 11
6354.57886898164
 21
1895.749021562726
 31
0.0
  0
MTEXT
  5
76
330
73
100
AcDbEntity
  8
cotas
100
AcDbMText
 10
6327.987830606888
 20
1883.588969329447
 30
0.0
 40
10.0
 41
0.0
 71
     5
 72
     1
  1
R10
  7
SANINDUSA
 11
0.7070916252561209
 21
0.7071219367921331
 31
0.0
 73
     1
 44
1.0
1001
ACAD
1000
MTEXTBEGIN
1070
    73
1070
     1
1070
    44
1040
1.0
1070
    74
1070
     0
1000
MTEXTEND
  0
LINE
  5
77
330
73
100
AcDbEntity
  8
cotas
100
AcDbLine
 10
6368.720701486765
 20
1909.891460298572
 30
0.0
 11
6361.649785234202
 21
1902.820240930647
 31
0.0
  0
SOLID
  5
78
330
73
100
AcDbEntity
  8
cotas
100
AcDbTrace
 10
6353.400332420321
 20
1896.92750760482
 30
0.0
 11
6355.75740554296
 21
1894.570535520633
 31
0.0
 12
6361.649785234202
 22
1902.820240930647
 32
0.0
 13
6361.649785234202
 23
1902.820240930647
 33
0.0
  0
POINT
  5
79
330
73
100
AcDbEntity
  8
Defpoints
 62
     0
100
AcDbPoint
 10
6361.649785234202
 20
1902.820240930647
 30
0.0
  0
POINT
  5
7A
330
73
100
AcDbEntity
  8
Defpoints
 62
     0
100
AcDbPoint
 10
6368.720701486765
 20
1909.891460298572
 30
0.0
  0
ENDBLK
  5
7B
330
73
100
AcDbEntity
  8
0
100
AcDbBlockEnd
  0
BLOCK
  5
7D
330
7C
100
AcDbEntity
  8
0
100
AcDbBlockBegin
  2
*D8
 70
     1
 10
0.0
 20
0.0
 30
0.0
  3
*D8
  1

  0
LINE
  5
7E
330
7C
100
AcDbEntity
  8
cotas
100
AcDbLine
 10
6377.193836853415
 20
1802.495709853373
 30
0.0
 11
6406.864490380925
 21
1835.974772087786
 31
0.0
  0
MTEXT
  5
7F
330
7C
100
AcDbEntity
  8
cotas
100
AcDbMText
 10
6381.080693784685
 20
1822.257268526203
 30
0.0
 40
10.0
 41
0.0
 71
     5
 72
     1
  1
R65
  7
SANINDUSA
 11
0.6632578156802918
 21
0.7483909873448559
 31
0.0
 73
     1
 44
1.0
1001
ACAD
1000
MTEXTBEGIN
1070
    73
1070
     1
1070
    44
1040
1.0
1070
    74
1070
     0
1000
MTEXTEND
  0
LINE
  5
80
330
7C
100
AcDbEntity
  8
cotas
100
AcDbLine
 10
6456.59549284092
 20
1892.089050959133
 30
0.0
 11
6413.497068537729
 21
1843.458681961234
 31
0.0
  0
SOLID
  5
81
330
7C
100
AcDbEntity
  8
cotas
100
AcDbTrace
 10
6405.617172068684
 20
1837.080201780587
 30
0.0
 11
6408.111808693168
 21
1834.869342394986
 31
0.0
 12
6413.497068537729
 22
1843.458681961234
 32
0.0
 13
6413.497068537729
 23
1843.458681961234
 33
0.0
  0
POINT
  5
82
330
7C
100
AcDbEntity
  8
Defpoints
 62
     0
100
AcDbPoint
 10
6413.497068537729
 20
1843.458681961234
 30
0.0
  0
POINT
  5
83
330
7C
100
AcDbEntity
  8
Defpoints
 62
     0
100
AcDbPoint
 10
6456.59549284092
 20
1892.089050959133
 30
0.0
  0
ENDBLK
  5
84
330
7C
100
AcDbEntity
  8
0
100
AcDbBlockEnd
  0
BLOCK
  5
86
330
85
100
AcDbEntity
  8
0
100
AcDbBlockBegin
  2
*D9
 70
     1
 10
0.0
 20
0.0
 30
0.0
  3
*D9
  1

  0
LINE
  5
87
330
85
100
AcDbEntity
  8
cotas
100
AcDbLine
 10
6358.720701486761
 20
1929.89146029857
 30
0.0
 11
6358.720701486761
 21
1985.998169063683
 31
0.0
  0
LINE
  5
88
330
85
100
AcDbEntity
  8
cotas
100
AcDbLine
 10
6733.720701486761
 20
1929.89146029857
 30
0.0
 11
6733.720701486761
 21
1985.998169063683
 31
0.0
  0
LINE
  5
89
330
85
100
AcDbEntity
  8
cotas
100
AcDbLine
 10
6368.720701486761
 20
1980.998169063683
 30
0.0
 11
6723.720701486762
 21
1980.998169063683
 31
0.0
  0
SOLID
  5
8A
330
85
100
AcDbEntity
  8
cotas
100
AcDbTrace
 10
6368.720701486761
 20
1982.66483573035
 30
0.0
 11
6368.720701486761
 21
1979.331502397016
 31
0.0
 12
6358.720701486761
 22
1980.998169063683
 32
0.0
 13
6358.720701486761
 23
1980.998169063683
 33
0.0
  0
SOLID
  5
8B
330
85
100
AcDbEntity
  8
cotas
100
AcDbTrace
 10
6723.720701486762
 20
1982.66483573035
 30
0.0
 11
6723.720701486762
 21
1979.331502397016
 31
0.0
 12
6733.720701486761
 22
1980.998169063683
 32
0.0
 13
6733.720701486761
 23
1980.998169063683
 33
0.0
  0
MTEXT
  5
8C
330
85
100
AcDbEntity
  8
cotas
100
AcDbMText
 10
6546.220701486761
 20
1991.206362482085
 30
0.0
 40
10.0
 41
0.0
 71
     5
 72
     1
  1
375
  7
SANINDUSA
 73
     1
 44
1.0
1001
ACAD
1000
MTEXTBEGIN
1070
    73
1070
     1
1070
    44
1040
1.0
1070
    74
1070
     0
1000
MTEXTEND
  0
POINT
  5
8D
330
85
100
AcDbEntity
  8
Defpoints
 62
     0
100
AcDbPoint
 10
6358.720701486761
 20
1924.891460298569
 30
0.0
  0
POINT
  5
8E
330
85
100
AcDbEntity
  8
Defpoints
 62
     0
100
AcDbPoint
 10
6733.720701486761
 20
1924.891460298569
 30
0.0
  0
POINT
  5
8F
330
85
100
AcDbEntity
  8
Defpoints
 62
     0
100
AcDbPoint
 10
6733.720701486761
 20
1980.998169063683
 30
0.0
  0
ENDBLK
  5
90
330
85
100
AcDbEntity
  8
0
100
AcDbBlockEnd
  0
BLOCK
  5
92
330
91
100
AcDbEntity
  8
0
100
AcDbBlockBegin
  2
*D10
 70
     1
 10
0.0
 20
0.0
 30
0.0
  3
*D10
  1

  0
LINE
  5
93
330
91
100
AcDbEntity
  8
cotas
100
AcDbLine
 10
7061.405523420798
 20
1894.891459553511
 30
0.0
 11
7061.405523420798
 21
1756.303104285949
 31
0.0
  0
LINE
  5
94
330
91
100
AcDbEntity
  8
cotas
100
AcDbLine
 10
7436.584993006217
 20
1894.891459553511
 30
0.0
 11
7436.584993006217
 21
1756.303104285949
 31
0.0
  0
LINE
  5
95
330
91
100
AcDbEntity
  8
cotas
100
AcDbLine
 10
7071.405523420797
 20
1761.303104285949
 30
0.0
 11
7426.584993006217
 21
1761.303104285949
 31
0.0
  0
SOLID
  5
96
330
91
100
AcDbEntity
  8
cotas
100
AcDbTrace
 10
7071.405523420797
 20
1762.969770952616
 30
0.0
 11
7071.405523420797
 21
1759.636437619283
 31
0.0
 12
7061.405523420798
 22
1761.303104285949
 32
0.0
 13
7061.405523420798
 23
1761.303104285949
 33
0.0
  0
SOLID
  5
97
330
91
100
AcDbEntity
  8
cotas
100
AcDbTrace
 10
7426.584993006217
 20
1762.969770952616
 30
0.0
 11
7426.584993006217
 21
1759.636437619283
 31
0.0
 12
7436.584993006217
 22
1761.303104285949
 32
0.0
 13
7436.584993006217
 23
1761.303104285949
 33
0.0
  0
MTEXT
  5
98
330
91
100
AcDbEntity
  8
cotas
100
AcDbMText
 10
7248.995258213508
 20
1771.511297704351
 30
0.0
 40
10.0
 41
0.0
 71
     5
 72
     1
  1
375
  7
SANINDUSA
 73
     1
 44
1.0
1001
ACAD
1000
MTEXTBEGIN
1070
    73
1070
     1
1070
    44
1040
1.0
1070
    74
1070
     0
1000
MTEXTEND
  0
POINT
  5
99
330
91
100
AcDbEntity
  8
Defpoints
 62
     0
100
AcDbPoint
 10
7061.405523420798
 20
1899.891459553511
 30
0.0
  0
POINT
  5
9A
330
91
100
AcDbEntity
  8
Defpoints
 62
     0
100
AcDbPoint
 10
7436.584993006217
 20
1899.891459553511
 30
0.0
  0
POINT
  5
9B
330
91
100
AcDbEntity
  8
Defpoints
 62
     0
100
AcDbPoint
 10
7436.584993006217
 20
1761.303104285949
 30
0.0
  0
ENDBLK
  5
9C
330
91
100
AcDbEntity
  8
0
100
AcDbBlockEnd
  0
BLOCK
  5
9E
330
9D
100
AcDbEntity
  8
0
100
AcDbBlockBegin
  2
*D11
 70
     1
 10
0.0
 20
0.0
 30
0.0
  3
*D11
  1

  0
LINE
  5
9F
330
9D
100
AcDbEntity
  8
cotas
100
AcDbLine
 10
7072.827932503007
 20
1787.748883923598
 30
0.0
 11
7094.24290998157
 21
1827.024754740653
 31
0.0
  0
MTEXT
  5
A0
330
9D
100
AcDbEntity
  8
cotas
100
AcDbMText
 10
7072.188197016423
 20
1807.878901223417
 30
0.0
 40
10.0
 41
0.0
 71
     5
 72
     1
  1
R65
  7
SANINDUSA
 11
0.4787104258456484
 21
0.8779728516228038
 31
0.0
 73
     1
 44
1.0
1001
ACAD
1000
MTEXTBEGIN
1070
    73
1070
     1
1070
    44
1040
1.0
1070
    74
1070
     0
1000
MTEXTEND
  0
LINE
  5
A1
330
9D
100
AcDbEntity
  8
cotas
100
AcDbLine
 10
7130.147396725657
 20
1892.874928271078
 30
0.0
 11
7099.030014240027
 21
1835.804483256882
 31
0.0
  0
SOLID
  5
A2
330
9D
100
AcDbEntity
  8
cotas
100
AcDbTrace
 10
7092.77962189553
 20
1827.822605450396
 30
0.0
 11
7095.706198067609
 21
1826.22690403091
 31
0.0
 12
7099.030014240027
 22
1835.804483256882
 32
0.0
 13
7099.030014240027
 23
1835.804483256882
 33
0.0
  0
POINT
  5
A3
330
9D
100
AcDbEntity
  8
Defpoints
 62
     0
100
AcDbPoint
 10
7099.030014240027
 20
1835.804483256882
 30
0.0
  0
POINT
  5
A4
330
9D
100
AcDbEntity
  8
Defpoints
 62
     0
100
AcDbPoint
 10
7130.147396725657
 20
1892.874928271078
 30
0.0
  0
ENDBLK
  5
A5
330
9D
100
AcDbEntity
  8
0
100
AcDbBlockEnd
  0
BLOCK
  5
A7
330
A6
100
AcDbEntity
  8
0
100
AcDbBlockBegin
  2
*D12
 70
     1
 10
0.0
 20
0.0
 30
0.0
  3
*D12
  1

  0
LINE
  5
A8
330
A6
100
AcDbEntity
  8
cotas
100
AcDbLine
 10
7426.089830292138
 20
1788.259260268047
 30
0.0
 11
7404.328676495758
 21
1827.344391383289
 31
0.0
  0
MTEXT
  5
A9
330
A6
100
AcDbEntity
  8
cotas
100
AcDbMText
 10
7426.551687052543
 20
1808.394144084864
 30
0.0
 40
10.0
 41
0.0
 71
     5
 72
     1
  1
R65
  7
SANINDUSA
 11
0.486448851565965
 21
-0.8737090561566555
 31
0.0
 73
     1
 44
1.0
1001
ACAD
1000
MTEXTBEGIN
1070
    73
1070
     1
1070
    44
1040
1.0
1070
    74
1070
     0
1000
MTEXTEND
  0
LINE
  5
AA
330
A6
100
AcDbEntity
  8
cotas
100
AcDbLine
 10
7367.844870454591
 20
1892.87282595275
 30
0.0
 11
7399.464187980098
 21
1836.081481944855
 31
0.0
  0
SOLID
  5
AB
330
A6
100
AcDbEntity
  8
cotas
100
AcDbTrace
 10
7405.784858256019
 20
1828.155139469232
 30
0.0
 11
7402.872494735497
 21
1826.533643297345
 31
0.0
 12
7399.464187980098
 22
1836.081481944855
 32
0.0
 13
7399.464187980098
 23
1836.081481944855
 33
0.0
  0
POINT
  5
AC
330
A6
100
AcDbEntity
  8
Defpoints
 62
     0
100
AcDbPoint
 10
7399.464187980098
 20
1836.081481944855
 30
0.0
  0
POINT
  5
AD
330
A6
100
AcDbEntity
  8
Defpoints
 62
     0
100
AcDbPoint
 10
7367.844870454591
 20
1892.87282595275
 30
0.0
  0
ENDBLK
  5
AE
330
A6
100
AcDbEntity
  8
0
100
AcDbBlockEnd
  0
BLOCK
  5
B0
330
AF
100
AcDbEntity
  8
0
100
AcDbBlockBegin
  2
*D13
 70
     1
 10
0.0
 20
0.0
 30
0.0
  3
*D13
  1

  0
LINE
  5
B1
330
AF
100
AcDbEntity
  8
cotas
100
AcDbLine
 10
6990.31067816394
 20
1960.052354760714
 30
0.0
 11
7024.67362376626
 21
1949.351369127175
 31
0.0
  0
MTEXT
  5
B2
330
AF
100
AcDbEntity
  8
cotas
100
AcDbMText
 10
7005.722496157251
 20
1965.835643519399
 30
0.0
 40
10.0
 41
0.0
 71
     5
 72
     1
  1
R5
  7
SANINDUSA
 11
0.9547756298163086
 21
-0.2973272552405374
 31
0.0
 73
     1
 44
1.0
1001
ACAD
1000
MTEXTBEGIN
1070
    73
1070
     1
1070
    44
1040
1.0
1070
    74
1070
     0
1000
MTEXTEND
  0
LINE
  5
B3
330
AF
100
AcDbEntity
  8
cotas
100
AcDbLine
 10
7038.995258213498
 20
1944.891460298568
 30
0.0
 11
7034.221380064424
 21
1946.378096574769
 31
0.0
  0
SOLID
  5
B4
330
AF
100
AcDbEntity
  8
cotas
100
AcDbTrace
 10
7025.169169191662
 20
1950.942661843535
 30
0.0
 11
7024.17807834086
 21
1947.760076410814
 31
0.0
 12
7034.221380064424
 22
1946.378096574769
 32
0.0
 13
7034.221380064424
 23
1946.378096574769
 33
0.0
  0
POINT
  5
B5
330
AF
100
AcDbEntity
  8
Defpoints
 62
     0
100
AcDbPoint
 10
7034.221380064424
 20
1946.378096574769
 30
0.0
  0
POINT
  5
B6
330
AF
100
AcDbEntity
  8
Defpoints
 62
     0
100
AcDbPoint
 10
7038.995258213498
 20
1944.891460298568
 30
0.0
  0
ENDBLK
  5
B7
330
AF
100
AcDbEntity
  8
0
100
AcDbBlockEnd
  0
BLOCK
  5
B9
330
B8
100
AcDbEntity
  8
0
100
AcDbBlockBegin
  2
*D14
 70
     1
 10
0.0
 20
0.0
 30
0.0
  3
*D14
  1

  0
LINE
  5
BA
330
B8
100
AcDbEntity
  8
cotas
100
AcDbLine
 10
7004.673827994714
 20
1867.180977893388
 30
0.0
 11
7028.898858556783
 21
1893.798096788268
 31
0.0
  0
MTEXT
  5
BB
330
B8
100
AcDbEntity
  8
cotas
100
AcDbMText
 10
7005.948315540947
 20
1883.592749407145
 30
0.0
 40
10.0
 41
0.0
 71
     5
 72
     1
  1
R5
  7
SANINDUSA
 11
0.6730933104482134
 21
0.7395575673535263
 31
0.0
 73
     1
 44
1.0
1001
ACAD
1000
MTEXTBEGIN
1070
    73
1070
     1
1070
    44
1040
1.0
1070
    74
1070
     0
1000
MTEXTEND
  0
LINE
  5
BC
330
B8
100
AcDbEntity
  8
cotas
100
AcDbLine
 10
7038.995258213502
 20
1904.891460298566
 30
0.0
 11
7035.629791661266
 21
1901.193672461803
 31
0.0
  0
SOLID
  5
BD
330
B8
100
AcDbEntity
  8
cotas
100
AcDbTrace
 10
7027.666262611194
 20
1894.919918972348
 30
0.0
 11
7030.131454502373
 21
1892.676274604188
 31
0.0
 12
7035.629791661266
 22
1901.193672461803
 32
0.0
 13
7035.629791661266
 23
1901.193672461803
 33
0.0
  0
POINT
  5
BE
330
B8
100
AcDbEntity
  8
Defpoints
 62
     0
100
AcDbPoint
 10
7035.629791661266
 20
1901.193672461803
 30
0.0
  0
POINT
  5
BF
330
B8
100
AcDbEntity
  8
Defpoints
 62
     0
100
AcDbPoint
 10
7038.995258213502
 20
1904.891460298566
 30
0.0
  0
ENDBLK
  5
C0
330
B8
100
AcDbEntity
  8
0
100
AcDbBlockEnd
  0
BLOCK
  5
C2
330
C1
100
AcDbEntity
  8
0
100
AcDbBlockBegin
  2
*D15
 70
     1
 10
0.0
 20
0.0
 30
0.0
  3
*D15
  1

  0
LINE
  5
C3
330
C1
100
AcDbEntity
  8
cotas
100
AcDbLine
 10
7499.082878336378
 20
1976.403739942848
 30
0.0
 11
7470.787908795585
 21
1954.161486849177
 31
0.0
  0
MTEXT
  5
C4
330
C1
100
AcDbEntity
  8
cotas
100
AcDbMText
 10
7482.621927442393
 20
1976.316227708825
 30
0.0
 40
10.0
 41
0.0
 71
     5
 72
     1
  1
R5
  7
SANINDUSA
 11
0.7861767054719349
 21
0.6180017700405838
 31
0.0
 73
     1
 44
1.0
1001
ACAD
1000
MTEXTBEGIN
1070
    73
1070
     1
1070
    44
1040
1.0
1070
    74
1070
     0
1000
MTEXTEND
  0
LINE
  5
C5
330
C1
100
AcDbEntity
  8
cotas
100
AcDbLine
 10
7458.995258213501
 20
1944.891460298564
 30
0.0
 11
7462.926141740865
 21
1947.981469148771
 31
0.0
  0
SOLID
  5
C6
330
C1
100
AcDbEntity
  8
cotas
100
AcDbTrace
 10
7469.757905845518
 20
1955.471781358296
 30
0.0
 11
7471.817911745652
 21
1952.851192340057
 31
0.0
 12
7462.926141740865
 22
1947.981469148771
 32
0.0
 13
7462.926141740865
 23
1947.981469148771
 33
0.0
  0
POINT
  5
C7
330
C1
100
AcDbEntity
  8
Defpoints
 62
     0
100
AcDbPoint
 10
7462.926141740865
 20
1947.981469148771
 30
0.0
  0
POINT
  5
C8
330
C1
100
AcDbEntity
  8
Defpoints
 62
     0
100
AcDbPoint
 10
7458.995258213501
 20
1944.891460298564
 30
0.0
  0
ENDBLK
  5
C9
330
C1
100
AcDbEntity
  8
0
100
AcDbBlockEnd
  0
BLOCK
  5
CB
330
CA
100
AcDbEntity
  8
0
100
AcDbBlockBegin
  2
*D16
 70
     1
 10
0.0
 20
0.0
 30
0.0
  3
*D16
  1

  0
LINE
  5
CC
330
CA
100
AcDbEntity
  8
cotas
100
AcDbLine
 10
7483.826380169756
 20
1860.355447478732
 30
0.0
 11
7466.299876045486
 21
1891.790217673202
 31
0.0
  0
MTEXT
  5
CD
330
CA
100
AcDbEntity
  8
cotas
100
AcDbMText
 10
7486.323082218108
 20
1876.626189367381
 30
0.0
 40
10.0
 41
0.0
 71
     5
 72
     1
  1
R5
  7
SANINDUSA
 11
0.4869745221317653
 21
-0.8734161750245634
 31
0.0
 73
     1
 44
1.0
1001
ACAD
1000
MTEXTBEGIN
1070
    73
1070
     1
1070
    44
1040
1.0
1070
    74
1070
     0
1000
MTEXTEND
  0
LINE
  5
CE
330
CA
100
AcDbEntity
  8
cotas
100
AcDbLine
 10
7458.995258213509
 20
1904.891460298569
 30
0.0
 11
7461.430130824168
 21
1900.524379423448
 31
0.0
  0
SOLID
  5
CF
330
CA
100
AcDbEntity
  8
cotas
100
AcDbTrace
 10
7467.755569670526
 20
1892.601841876755
 30
0.0
 11
7464.844182420444
 21
1890.978593469649
 31
0.0
 12
7461.430130824168
 22
1900.524379423448
 32
0.0
 13
7461.430130824168
 23
1900.524379423448
 33
0.0
  0
POINT
  5
D0
330
CA
100
AcDbEntity
  8
Defpoints
 62
     0
100
AcDbPoint
 10
7461.430130824168
 20
1900.524379423448
 30
0.0
  0
POINT
  5
D1
330
CA
100
AcDbEntity
  8
Defpoints
 62
     0
100
AcDbPoint
 10
7458.995258213509
 20
1904.891460298569
 30
0.0
  0
ENDBLK
  5
D2
330
CA
100
AcDbEntity
  8
0
100
AcDbBlockEnd
  0
BLOCK
  5
D4
330
D3
100
AcDbEntity
  8
0
100
AcDbBlockBegin
  2
*D17
 70
     1
 10
0.0
 20
0.0
 30
0.0
  3
*D17
  1

  0
LINE
  5
D5
330
D3
100
AcDbEntity
  8
cotas
100
AcDbLine
 10
7320.902687339849
 20
1420.963828251702
 30
0.0
 11
7275.693020463542
 21
1409.797801330588
 31
0.0
  0
LINE
  5
D6
330
D3
100
AcDbEntity
  8
cotas
100
AcDbLine
 10
7222.297495963473
 20
1396.610005329656
 30
0.0
 11
7212.589218781641
 21
1394.212224238578
 31
0.0
  0
MTEXT
  5
D7
330
D3
100
AcDbEntity
  8
cotas
100
AcDbMText
 10
7300.538427206634
 20
1427.161662264899
 30
0.0
 40
10.0
 41
0.0
 71
     5
 72
     1
  1
\U+220535
  7
SANINDUSA
 11
0.9708277181831299
 21
0.2397781091078532
 31
0.0
 73
     1
 44
1.0
1001
ACAD
1000
MTEXTBEGIN
1070
    73
1070
     1
1070
    44
1040
1.0
1070
    74
1070
     0
1000
MTEXTEND
  0
LINE
  5
D8
330
D3
100
AcDbEntity
  8
cotas
100
AcDbLine
 10
7232.005773145302
 20
1399.007786420735
 30
0.0
 11
7265.984743281712
 21
1407.40002023951
 31
0.0
  0
SOLID
  5
D9
330
D3
100
AcDbEntity
  8
cotas
100
AcDbTrace
 10
7221.897865781625
 20
1398.228051526628
 30
0.0
 11
7222.697126145319
 21
1394.991959132684
 31
0.0
 12
7232.005773145302
 22
1399.007786420735
 32
0.0
 13
7232.005773145302
 23
1399.007786420735
 33
0.0
  0
SOLID
  5
DA
330
D3
100
AcDbEntity
  8
cotas
100
AcDbTrace
 10
7275.293390281696
 20
1411.41584752756
 30
0.0
 11
7276.09265064539
 21
1408.179755133616
 31
0.0
 12
7265.984743281712
 22
1407.40002023951
 32
0.0
 13
7265.984743281712
 23
1407.40002023951
 33
0.0
  0
POINT
  5
DB
330
D3
100
AcDbEntity
  8
Defpoints
 62
     0
100
AcDbPoint
 10
7265.984743281712
 20
1407.40002023951
 30
0.0
  0
POINT
  5
DC
330
D3
100
AcDbEntity
  8
Defpoints
 62
     0
100
AcDbPoint
 10
7232.005773145302
 20
1399.007786420735
 30
0.0
  0
ENDBLK
  5
DD
330
D3
100
AcDbEntity
  8
0
100
AcDbBlockEnd
  0
BLOCK
  5
DF
330
DE
100
AcDbEntity
  8
0
100
AcDbBlockBegin
  2
*D18
 70
     1
 10
0.0
 20
0.0
 30
0.0
  3
*D18
  1

  0
LINE
  5
E0
330
DE
100
AcDbEntity
  8
cotas
100
AcDbLine
 10
7278.907398583545
 20
1403.203903330122
 30
0.0
 11
7499.461082938488
 21
1403.203903330122
 31
0.0
  0
LINE
  5
E1
330
DE
100
AcDbEntity
  8
cotas
100
AcDbLine
 10
7463.995258213508
 20
1451.033273189687
 30
0.0
 11
7499.461082938488
 21
1451.033273189687
 31
0.0
  0
LINE
  5
E2
330
DE
100
AcDbEntity
  8
cotas
100
AcDbLine
 10
7494.461082938487
 20
1413.203903330122
 30
0.0
 11
7494.461082938487
 21
1441.033273189687
 31
0.0
  0
SOLID
  5
E3
330
DE
100
AcDbEntity
  8
cotas
100
AcDbTrace
 10
7492.79441627182
 20
1413.203903330122
 30
0.0
 11
7496.127749605155
 21
1413.203903330122
 31
0.0
 12
7494.461082938487
 22
1403.203903330122
 32
0.0
 13
7494.461082938487
 23
1403.203903330122
 33
0.0
  0
SOLID
  5
E4
330
DE
100
AcDbEntity
  8
cotas
100
AcDbTrace
 10
7492.79441627182
 20
1441.033273189687
 30
0.0
 11
7496.127749605155
 21
1441.033273189687
 31
0.0
 12
7494.461082938487
 22
1451.033273189687
 32
0.0
 13
7494.461082938487
 23
1451.033273189687
 33
0.0
  0
MTEXT
  5
E5
330
DE
100
AcDbEntity
  8
cotas
100
AcDbMText
 10
7484.232741769918
 20
1427.118588259906
 30
0.0
 40
10.0
 41
0.0
 71
     5
 72
     1
  1
48
  7
SANINDUSA
 11
0.0000000000000001
 21
1.0
 31
0.0
 73
     1
 44
1.0
1001
ACAD
1000
MTEXTBEGIN
1070
    73
1070
     1
1070
    44
1040
1.0
1070
    74
1070
     0
1000
MTEXTEND
  0
POINT
  5
E6
330
DE
100
AcDbEntity
  8
Defpoints
 62
     0
100
AcDbPoint
 10
7273.907398583545
 20
1403.203903330122
 30
0.0
  0
POINT
  5
E7
330
DE
100
AcDbEntity
  8
Defpoints
 62
     0
100
AcDbPoint
 10
7458.995258213507
 20
1451.033273189687
 30
0.0
  0
POINT
  5
E8
330
DE
100
AcDbEntity
  8
Defpoints
 62
     0
100
AcDbPoint
 10
7494.461082938487
 20
1451.033273189687
 30
0.0
  0
ENDBLK
  5
E9
330
DE
100
AcDbEntity
  8
0
100
AcDbBlockEnd
  0
BLOCK
  5
EB
330
EA
100
AcDbEntity
  8
0
100
AcDbBlockBegin
  2
*D19
 70
     1
 10
0.0
 20
0.0
 30
0.0
  3
*D19
  1

  0
LINE
  5
EC
330
EA
100
AcDbEntity
  8
cotas
100
AcDbLine
 10
7278.907398583545
 20
1403.203903330122
 30
0.0
 11
7499.461082938488
 21
1403.203903330122
 31
0.0
  0
LINE
  5
ED
330
EA
100
AcDbEntity
  8
cotas
100
AcDbLine
 10
7253.995258213507
 20
1350.088222690841
 30
0.0
 11
7499.461082938488
 21
1350.088222690841
 31
0.0
  0
LINE
  5
EE
330
EA
100
AcDbEntity
  8
cotas
100
AcDbLine
 10
7494.461082938487
 20
1393.203903330122
 30
0.0
 11
7494.461082938487
 21
1360.088222690841
 31
0.0
  0
SOLID
  5
EF
330
EA
100
AcDbEntity
  8
cotas
100
AcDbTrace
 10
7492.79441627182
 20
1393.203903330122
 30
0.0
 11
7496.127749605155
 21
1393.203903330122
 31
0.0
 12
7494.461082938487
 22
1403.203903330122
 32
0.0
 13
7494.461082938487
 23
1403.203903330122
 33
0.0
  0
SOLID
  5
F0
330
EA
100
AcDbEntity
  8
cotas
100
AcDbTrace
 10
7492.79441627182
 20
1360.088222690841
 30
0.0
 11
7496.127749605155
 21
1360.088222690841
 31
0.0
 12
7494.461082938487
 22
1350.088222690841
 32
0.0
 13
7494.461082938487
 23
1350.088222690841
 33
0.0
  0
MTEXT
  5
F1
330
EA
100
AcDbEntity
  8
cotas
100
AcDbMText
 10
7484.252889520085
 20
1376.646063010483
 30
0.0
 40
10.0
 41
0.0
 71
     5
 72
     1
  1
53
  7
SANINDUSA
 11
0.0000000000000001
 21
1.0
 31
0.0
 73
     1
 44
1.0
1001
ACAD
1000
MTEXTBEGIN
1070
    73
1070
     1
1070
    44
1040
1.0
1070
    74
1070
     0
1000
MTEXTEND
  0
POINT
  5
F2
330
EA
100
AcDbEntity
  8
Defpoints
 62
     0
100
AcDbPoint
 10
7273.907398583545
 20
1403.203903330122
 30
0.0
  0
POINT
  5
F3
330
EA
100
AcDbEntity
  8
Defpoints
 62
     0
100
AcDbPoint
 10
7248.995258213508
 20
1350.088222690841
 30
0.0
  0
POINT
  5
F4
330
EA
100
AcDbEntity
  8
Defpoints
 62
     0
100
AcDbPoint
 10
7494.461082938487
 20
1350.088222690841
 30
0.0
  0
ENDBLK
  5
F5
330
EA
100
AcDbEntity
  8
0
100
AcDbBlockEnd
  0
BLOCK
  5
F7
330
F6
100
AcDbEntity
  8
0
100
AcDbBlockBegin
  2
*D20
 70
     1
 10
0.0
 20
0.0
 30
0.0
  3
*D20
  1

  0
LINE
  5
F8
330
F6
100
AcDbEntity
  8
cotas
100
AcDbLine
 10
7504.461082938488
 20
1403.203903330122
 30
0.0
 11
7533.692743863657
 21
1403.203903330122
 31
0.0
  0
LINE
  5
F9
330
F6
100
AcDbEntity
  8
cotas
100
AcDbLine
 10
7504.461082938487
 20
1239.663227417761
 30
0.0
 11
7533.692743863657
 21
1239.663227417761
 31
0.0
  0
LINE
  5
FA
330
F6
100
AcDbEntity
  8
cotas
100
AcDbLine
 10
7528.692743863655
 20
1393.203903330122
 30
0.0
 11
7528.692743863655
 21
1249.663227417761
 31
0.0
  0
SOLID
  5
FB
330
F6
100
AcDbEntity
  8
cotas
100
AcDbTrace
 10
7527.026077196989
 20
1393.203903330122
 30
0.0
 11
7530.359410530323
 21
1393.203903330122
 31
0.0
 12
7528.692743863655
 22
1403.203903330122
 32
0.0
 13
7528.692743863655
 23
1403.203903330122
 33
0.0
  0
SOLID
  5
FC
330
F6
100
AcDbEntity
  8
cotas
100
AcDbTrace
 10
7527.026077196989
 20
1249.663227417761
 30
0.0
 11
7530.359410530323
 21
1249.663227417761
 31
0.0
 12
7528.692743863655
 22
1239.663227417761
 32
0.0
 13
7528.692743863655
 23
1239.663227417761
 33
0.0
  0
MTEXT
  5
FD
330
F6
100
AcDbEntity
  8
cotas
100
AcDbMText
 10
7518.494624320338
 20
1321.433565373943
 30
0.0
 40
10.0
 41
0.0
 71
     5
 72
     1
  1
164
  7
SANINDUSA
 11
0.0000000000000001
 21
1.0
 31
0.0
 73
     1
 44
1.0
1001
ACAD
1000
MTEXTBEGIN
1070
    73
1070
     1
1070
    44
1040
1.0
1070
    74
1070
     0
1000
MTEXTEND
  0
POINT
  5
FE
330
F6
100
AcDbEntity
  8
Defpoints
 62
     0
100
AcDbPoint
 10
7499.461082938488
 20
1403.203903330122
 30
0.0
  0
POINT
  5
FF
330
F6
100
AcDbEntity
  8
Defpoints
 62
     0
100
AcDbPoint
 10
7499.461082938487
 20
1239.663227417761
 30
0.0
  0
POINT
  5
100
330
F6
100
AcDbEntity
  8
Defpoints
 62
     0
100
AcDbPoint
 10
7528.692743863655
 20
1239.663227417761
 30
0.0
  0
ENDBLK
  5
101
330
F6
100
AcDbEntity
  8
0
100
AcDbBlockEnd
  0
BLOCK
  5
103
330
102
100
AcDbEntity
  8
0
100
AcDbBlockBegin
  2
*D21
 70
     1
 10
0.0
 20
0.0
 30
0.0
  3
*D21
  1

  0
LINE
  5
104
330
102
100
AcDbEntity
  8
cotas
100
AcDbLine
 10
7504.461082938488
 20
1451.033273189687
 30
0.0
 11
7566.883421951409
 21
1451.033273189687
 31
0.0
  0
LINE
  5
105
330
102
100
AcDbEntity
  8
cotas
100
AcDbLine
 10
7533.692743863657
 20
1239.663227417761
 30
0.0
 11
7566.883421951409
 21
1239.663227417761
 31
0.0
  0
LINE
  5
106
330
102
100
AcDbEntity
  8
cotas
100
AcDbLine
 10
7561.88342195141
 20
1441.033273189687
 30
0.0
 11
7561.88342195141
 21
1249.663227417761
 31
0.0
  0
SOLID
  5
107
330
102
100
AcDbEntity
  8
cotas
100
AcDbTrace
 10
7560.216755284743
 20
1441.033273189687
 30
0.0
 11
7563.550088618078
 21
1441.033273189687
 31
0.0
 12
7561.88342195141
 22
1451.033273189687
 32
0.0
 13
7561.88342195141
 23
1451.033273189687
 33
0.0
  0
SOLID
  5
108
330
102
100
AcDbEntity
  8
cotas
100
AcDbTrace
 10
7560.216755284743
 20
1249.663227417761
 30
0.0
 11
7563.550088618078
 21
1249.663227417761
 31
0.0
 12
7561.88342195141
 22
1239.663227417761
 32
0.0
 13
7561.88342195141
 23
1239.663227417761
 33
0.0
  0
MTEXT
  5
109
330
102
100
AcDbEntity
  8
cotas
100
AcDbMText
 10
7551.779325242209
 20
1345.348250303725
 30
0.0
 40
10.0
 41
0.0
 71
     5
 72
     1
  1
211
  7
SANINDUSA
 11
0.0000000000000001
 21
1.0
 31
0.0
 73
     1
 44
1.0
1001
ACAD
1000
MTEXTBEGIN
1070
    73
1070
     1
1070
    44
1040
1.0
1070
    74
1070
     0
1000
MTEXTEND
  0
POINT
  5
10A
330
102
100
AcDbEntity
  8
Defpoints
 62
     0
100
AcDbPoint
 10
7499.461082938488
 20
1451.033273189687
 30
0.0
  0
POINT
  5
10B
330
102
100
AcDbEntity
  8
Defpoints
 62
     0
100
AcDbPoint
 10
7528.692743863655
 20
1239.663227417761
 30
0.0
  0
POINT
  5
10C
330
102
100
AcDbEntity
  8
Defpoints
 62
     0
100
AcDbPoint
 10
7561.88342195141
 20
1239.663227417761
 30
0.0
  0
ENDBLK
  5
10D
330
102
100
AcDbEntity
  8
0
100
AcDbBlockEnd
  0
BLOCK
  5
10F
330
10E
100
AcDbEntity
  8
0
100
AcDbBlockBegin
  2
*D22
 70
     1
 10
0.0
 20
0.0
 30
0.0
  3
*D22
  1

  0
LINE
  5
110
330
10E
100
AcDbEntity
  8
cotas
100
AcDbLine
 10
7319.645258213508
 20
1103.778323688534
 30
0.0
 11
7499.596218073623
 21
1103.778323688534
 31
0.0
  0
LINE
  5
111
330
10E
100
AcDbEntity
  8
cotas
100
AcDbLine
 10
7494.461082938487
 20
1350.088222690841
 30
0.0
 11
7489.596218073621
 21
1350.088222690841
 31
0.0
  0
LINE
  5
112
330
10E
100
AcDbEntity
  8
cotas
100
AcDbLine
 10
7494.596218073623
 20
1113.778323688534
 30
0.0
 11
7494.596218073623
 21
1340.088222690841
 31
0.0
  0
SOLID
  5
113
330
10E
100
AcDbEntity
  8
cotas
100
AcDbTrace
 10
7492.929551406955
 20
1113.778323688534
 30
0.0
 11
7496.262884740289
 21
1113.778323688534
 31
0.0
 12
7494.596218073623
 22
1103.778323688534
 32
0.0
 13
7494.596218073623
 23
1103.778323688534
 33
0.0
  0
SOLID
  5
114
330
10E
100
AcDbEntity
  8
cotas
100
AcDbTrace
 10
7492.929551406955
 20
1340.088222690841
 30
0.0
 11
7496.262884740289
 21
1340.088222690841
 31
0.0
 12
7494.596218073623
 22
1350.088222690841
 32
0.0
 13
7494.596218073623
 23
1350.088222690841
 33
0.0
  0
MTEXT
  5
115
330
10E
100
AcDbEntity
  8
cotas
100
AcDbMText
 10
7484.388024655221
 20
1226.933273189689
 30
0.0
 40
10.0
 41
0.0
 71
     5
 72
     1
  1
246
  7
SANINDUSA
 11
0.0000000000000001
 21
1.0
 31
0.0
 73
     1
 44
1.0
1001
ACAD
1000
MTEXTBEGIN
1070
    73
1070
     1
1070
    44
1040
1.0
1070
    74
1070
     0
1000
MTEXTEND
  0
POINT
  5
116
330
10E
100
AcDbEntity
  8
Defpoints
 62
     0
100
AcDbPoint
 10
7314.645258213508
 20
1103.778323688534
 30
0.0
  0
POINT
  5
117
330
10E
100
AcDbEntity
  8
Defpoints
 62
     0
100
AcDbPoint
 10
7499.461082938488
 20
1350.088222690841
 30
0.0
  0
POINT
  5
118
330
10E
100
AcDbEntity
  8
Defpoints
 62
     0
100
AcDbPoint
 10
7494.596218073623
 20
1350.088222690841
 30
0.0
  0
ENDBLK
  5
119
330
10E
100
AcDbEntity
  8
0
100
AcDbBlockEnd
  0
BLOCK
  5
11B
330
11A
100
AcDbEntity
  8
0
100
AcDbBlockBegin
  2
*D23
 70
     1
 10
0.0
 20
0.0
 30
0.0
  3
*D23
  1

  0
LINE
  5
11C
330
11A
100
AcDbEntity
  8
cotas
100
AcDbLine
 10
7463.995258213508
 20
1076.033273189687
 30
0.0
 11
7499.596218073623
 21
1076.033273189687
 31
0.0
  0
LINE
  5
11D
330
11A
100
AcDbEntity
  8
cotas
100
AcDbLine
 10
7494.596218073623
 20
1113.778323688534
 30
0.0
 11
7494.596218073623
 21
1123.778323688534
 31
0.0
  0
LINE
  5
11E
330
11A
100
AcDbEntity
  8
cotas
100
AcDbLine
 10
7494.596218073623
 20
1066.033273189687
 30
0.0
 11
7494.596218073623
 21
1056.033273189687
 31
0.0
  0
LINE
  5
11F
330
11A
100
AcDbEntity
  8
cotas
100
AcDbLine
 10
7494.596218073623
 20
1103.778323688534
 30
0.0
 11
7494.596218073623
 21
1076.033273189687
 31
0.0
  0
SOLID
  5
120
330
11A
100
AcDbEntity
  8
cotas
100
AcDbTrace
 10
7492.929551406955
 20
1113.778323688534
 30
0.0
 11
7496.262884740289
 21
1113.778323688534
 31
0.0
 12
7494.596218073623
 22
1103.778323688534
 32
0.0
 13
7494.596218073623
 23
1103.778323688534
 33
0.0
  0
SOLID
  5
121
330
11A
100
AcDbEntity
  8
cotas
100
AcDbTrace
 10
7492.929551406955
 20
1066.033273189687
 30
0.0
 11
7496.262884740289
 21
1066.033273189687
 31
0.0
 12
7494.596218073623
 22
1076.033273189687
 32
0.0
 13
7494.596218073623
 23
1076.033273189687
 33
0.0
  0
MTEXT
  5
122
330
11A
100
AcDbEntity
  8
cotas
100
AcDbMText
 10
7484.367876905053
 20
1089.905798439112
 30
0.0
 40
10.0
 41
0.0
 71
     5
 72
     1
  1
28
  7
SANINDUSA
 11
0.0000000000000001
 21
1.0
 31
0.0
 73
     1
 44
1.0
1001
ACAD
1000
MTEXTBEGIN
1070
    73
1070
     1
1070
    44
1040
1.0
1070
    74
1070
     0
1000
MTEXTEND
  0
POINT
  5
123
330
11A
100
AcDbEntity
  8
Defpoints
 62
     0
100
AcDbPoint
 10
7494.596218073623
 20
1103.778323688534
 30
0.0
  0
POINT
  5
124
330
11A
100
AcDbEntity
  8
Defpoints
 62
     0
100
AcDbPoint
 10
7458.995258213507
 20
1076.033273189687
 30
0.0
  0
POINT
  5
125
330
11A
100
AcDbEntity
  8
Defpoints
 62
     0
100
AcDbPoint
 10
7494.596218073623
 20
1076.033273189687
 30
0.0
  0
ENDBLK
  5
126
330
11A
100
AcDbEntity
  8
0
100
AcDbBlockEnd
  0
BLOCK
  5
128
330
127
100
AcDbEntity
  8
0
100
AcDbBlockBegin
  2
*D24
 70
     1
 10
0.0
 20
0.0
 30
0.0
  3
*D24
  1

  0
LINE
  5
129
330
127
100
AcDbEntity
  8
cotas
100
AcDbLine
 10
7571.883421951411
 20
1451.033273189687
 30
0.0
 11
7590.761620000688
 21
1451.033273189687
 31
0.0
  0
LINE
  5
12A
330
127
100
AcDbEntity
  8
cotas
100
AcDbLine
 10
7504.596218073622
 20
1076.033273189687
 30
0.0
 11
7590.761620000688
 21
1076.033273189687
 31
0.0
  0
LINE
  5
12B
330
127
100
AcDbEntity
  8
cotas
100
AcDbLine
 10
7585.761620000688
 20
1441.033273189687
 30
0.0
 11
7585.761620000688
 21
1086.033273189687
 31
0.0
  0
SOLID
  5
12C
330
127
100
AcDbEntity
  8
cotas
100
AcDbTrace
 10
7584.094953334022
 20
1441.033273189687
 30
0.0
 11
7587.428286667355
 21
1441.033273189687
 31
0.0
 12
7585.761620000688
 22
1451.033273189687
 32
0.0
 13
7585.761620000688
 23
1451.033273189687
 33
0.0
  0
SOLID
  5
12D
330
127
100
AcDbEntity
  8
cotas
100
AcDbTrace
 10
7584.094953334022
 20
1086.033273189687
 30
0.0
 11
7587.428286667355
 21
1086.033273189687
 31
0.0
 12
7585.761620000688
 22
1076.033273189687
 32
0.0
 13
7585.761620000688
 23
1076.033273189687
 33
0.0
  0
MTEXT
  5
12E
330
127
100
AcDbEntity
  8
cotas
100
AcDbMText
 10
7575.553426582287
 20
1263.533273189688
 30
0.0
 40
10.0
 41
0.0
 71
     5
 72
     1
  1
375
  7
SANINDUSA
 11
0.0000000000000001
 21
1.0
 31
0.0
 73
     1
 44
1.0
1001
ACAD
1000
MTEXTBEGIN
1070
    73
1070
     1
1070
    44
1040
1.0
1070
    74
1070
     0
1000
MTEXTEND
  0
POINT
  5
12F
330
127
100
AcDbEntity
  8
Defpoints
 62
     0
100
AcDbPoint
 10
7566.883421951409
 20
1451.033273189687
 30
0.0
  0
POINT
  5
130
330
127
100
AcDbEntity
  8
Defpoints
 62
     0
100
AcDbPoint
 10
7499.596218073623
 20
1076.033273189687
 30
0.0
  0
POINT
  5
131
330
127
100
AcDbEntity
  8
Defpoints
 62
     0
100
AcDbPoint
 10
7585.761620000688
 20
1076.033273189687
 30
0.0
  0
ENDBLK
  5
132
330
127
100
AcDbEntity
  8
0
100
AcDbBlockEnd
  0
BLOCK
  5
134
330
133
100
AcDbEntity
  8
0
100
AcDbBlockBegin
  2
*D25
 70
     1
 10
0.0
 20
0.0
 30
0.0
  3
*D25
  1

  0
LINE
  5
135
330
133
100
AcDbEntity
  8
cotas
100
AcDbLine
 10
7060.190308712353
 20
1221.933273189687
 30
0.0
 11
7060.190308712353
 21
1039.463422581092
 31
0.0
  0
LINE
  5
136
330
133
100
AcDbEntity
  8
cotas
100
AcDbLine
 10
7437.800207714662
 20
1221.933273189687
 30
0.0
 11
7437.800207714662
 21
1039.463422581092
 31
0.0
  0
LINE
  5
137
330
133
100
AcDbEntity
  8
cotas
100
AcDbLine
 10
7070.190308712352
 20
1044.463422581092
 30
0.0
 11
7427.800207714662
 21
1044.463422581092
 31
0.0
  0
SOLID
  5
138
330
133
100
AcDbEntity
  8
cotas
100
AcDbTrace
 10
7070.190308712352
 20
1046.130089247759
 30
0.0
 11
7070.190308712352
 21
1042.796755914425
 31
0.0
 12
7060.190308712353
 22
1044.463422581092
 32
0.0
 13
7060.190308712353
 23
1044.463422581092
 33
0.0
  0
SOLID
  5
139
330
133
100
AcDbEntity
  8
cotas
100
AcDbTrace
 10
7427.800207714662
 20
1046.130089247759
 30
0.0
 11
7427.800207714662
 21
1042.796755914425
 31
0.0
 12
7437.800207714662
 22
1044.463422581092
 32
0.0
 13
7437.800207714662
 23
1044.463422581092
 33
0.0
  0
MTEXT
  5
13A
330
133
100
AcDbEntity
  8
cotas
100
AcDbMText
 10
7281.557952249452
 20
1054.691763749662
 30
0.0
 40
10.0
 41
0.0
 71
     5
 72
     1
  1
378
  7
SANINDUSA
 73
     1
 44
1.0
1001
ACAD
1000
MTEXTBEGIN
1070
    73
1070
     1
1070
    44
1040
1.0
1070
    74
1070
     0
1000
MTEXTEND
  0
POINT
  5
13B
330
133
100
AcDbEntity
  8
Defpoints
 62
     0
100
AcDbPoint
 10
7060.190308712353
 20
1226.933273189687
 30
0.0
  0
POINT
  5
13C
330
133
100
AcDbEntity
  8
Defpoints
 62
     0
100
AcDbPoint
 10
7437.800207714662
 20
1226.933273189687
 30
0.0
  0
POINT
  5
13D
330
133
100
AcDbEntity
  8
Defpoints
 62
     0
100
AcDbPoint
 10
7437.800207714662
 20
1044.463422581092
 30
0.0
  0
ENDBLK
  5
13E
330
133
100
AcDbEntity
  8
0
100
AcDbBlockEnd
  0
BLOCK
  5
140
330
13F
100
AcDbEntity
  8
0
100
AcDbBlockBegin
  2
*D26
 70
     1
 10
0.0
 20
0.0
 30
0.0
  3
*D26
  1

  0
LINE
  5
141
330
13F
100
AcDbEntity
  8
cotas
100
AcDbLine
 10
7033.995258213507
 20
1234.663227417761
 30
0.0
 11
7033.995258213507
 21
1039.463422581092
 31
0.0
  0
LINE
  5
142
330
13F
100
AcDbEntity
  8
cotas
100
AcDbLine
 10
7060.190308712353
 20
1081.033273189687
 30
0.0
 11
7060.190308712353
 21
1039.463422581092
 31
0.0
  0
LINE
  5
143
330
13F
100
AcDbEntity
  8
cotas
100
AcDbLine
 10
7023.995258213507
 20
1044.463422581092
 30
0.0
 11
7013.995258213508
 21
1044.463422581092
 31
0.0
  0
LINE
  5
144
330
13F
100
AcDbEntity
  8
cotas
100
AcDbLine
 10
7070.190308712352
 20
1044.463422581092
 30
0.0
 11
7080.190308712353
 21
1044.463422581092
 31
0.0
  0
LINE
  5
145
330
13F
100
AcDbEntity
  8
cotas
100
AcDbLine
 10
7033.995258213507
 20
1044.463422581092
 30
0.0
 11
7060.190308712353
 21
1044.463422581092
 31
0.0
  0
SOLID
  5
146
330
13F
100
AcDbEntity
  8
cotas
100
AcDbTrace
 10
7023.995258213507
 20
1046.130089247759
 30
0.0
 11
7023.995258213507
 21
1042.796755914425
 31
0.0
 12
7033.995258213507
 22
1044.463422581092
 32
0.0
 13
7033.995258213507
 23
1044.463422581092
 33
0.0
  0
SOLID
  5
147
330
13F
100
AcDbEntity
  8
cotas
100
AcDbTrace
 10
7070.190308712352
 20
1046.130089247759
 30
0.0
 11
7070.190308712352
 21
1042.796755914425
 31
0.0
 12
7060.190308712353
 22
1044.463422581092
 32
0.0
 13
7060.190308712353
 23
1044.463422581092
 33
0.0
  0
MTEXT
  5
148
330
13F
100
AcDbEntity
  8
cotas
100
AcDbMText
 10
7047.092783462931
 20
1054.671615999494
 30
0.0
 40
10.0
 41
0.0
 71
     5
 72
     1
  1
26
  7
SANINDUSA
 73
     1
 44
1.0
1001
ACAD
1000
MTEXTBEGIN
1070
    73
1070
     1
1070
    44
1040
1.0
1070
    74
1070
     0
1000
MTEXTEND
  0
POINT
  5
149
330
13F
100
AcDbEntity
  8
Defpoints
 62
     0
100
AcDbPoint
 10
7033.995258213507
 20
1239.663227417761
 30
0.0
  0
POINT
  5
14A
330
13F
100
AcDbEntity
  8
Defpoints
 62
     0
100
AcDbPoint
 10
7060.190308712353
 20
1086.033273189687
 30
0.0
  0
POINT
  5
14B
330
13F
100
AcDbEntity
  8
Defpoints
 62
     0
100
AcDbPoint
 10
7060.190308712353
 20
1044.463422581092
 30
0.0
  0
ENDBLK
  5
14C
330
13F
100
AcDbEntity
  8
0
100
AcDbBlockEnd
  0
BLOCK
  5
14E
330
14D
100
AcDbEntity
  8
0
100
AcDbBlockBegin
  2
*D27
 70
     1
 10
0.0
 20
0.0
 30
0.0
  3
*D27
  1

  0
LINE
  5
14F
330
14D
100
AcDbEntity
  8
cotas
100
AcDbLine
 10
7463.995258213508
 20
1234.663227417761
 30
0.0
 11
7463.995258213508
 21
1039.463422581092
 31
0.0
  0
LINE
  5
150
330
14D
100
AcDbEntity
  8
cotas
100
AcDbLine
 10
7473.995258213507
 20
1044.463422581092
 30
0.0
 11
7483.995258213507
 21
1044.463422581092
 31
0.0
  0
LINE
  5
151
330
14D
100
AcDbEntity
  8
cotas
100
AcDbLine
 10
7427.800207714662
 20
1044.463422581092
 30
0.0
 11
7417.800207714662
 21
1044.463422581092
 31
0.0
  0
LINE
  5
152
330
14D
100
AcDbEntity
  8
cotas
100
AcDbLine
 10
7463.995258213508
 20
1044.463422581092
 30
0.0
 11
7437.800207714662
 21
1044.463422581092
 31
0.0
  0
SOLID
  5
153
330
14D
100
AcDbEntity
  8
cotas
100
AcDbTrace
 10
7473.995258213507
 20
1046.130089247759
 30
0.0
 11
7473.995258213507
 21
1042.796755914425
 31
0.0
 12
7463.995258213508
 22
1044.463422581092
 32
0.0
 13
7463.995258213508
 23
1044.463422581092
 33
0.0
  0
SOLID
  5
154
330
14D
100
AcDbEntity
  8
cotas
100
AcDbTrace
 10
7427.800207714662
 20
1046.130089247759
 30
0.0
 11
7427.800207714662
 21
1042.796755914425
 31
0.0
 12
7437.800207714662
 22
1044.463422581092
 32
0.0
 13
7437.800207714662
 23
1044.463422581092
 33
0.0
  0
MTEXT
  5
155
330
14D
100
AcDbEntity
  8
cotas
100
AcDbMText
 10
7450.897732964084
 20
1054.671615999494
 30
0.0
 40
10.0
 41
0.0
 71
     5
 72
     1
  1
26
  7
SANINDUSA
 73
     1
 44
1.0
1001
ACAD
1000
MTEXTBEGIN
1070
    73
1070
     1
1070
    44
1040
1.0
1070
    74
1070
     0
1000
MTEXTEND
  0
POINT
  5
156
330
14D
100
AcDbEntity
  8
Defpoints
 62
     0
100
AcDbPoint
 10
7463.995258213508
 20
1239.663227417761
 30
0.0
  0
POINT
  5
157
330
14D
100
AcDbEntity
  8
Defpoints
 62
     0
100
AcDbPoint
 10
7437.800207714662
 20
1044.463422581092
 30
0.0
  0
POINT
  5
158
330
14D
100
AcDbEntity
  8
Defpoints
 62
     0
100
AcDbPoint
 10
7437.800207714662
 20
1044.463422581092
 30
0.0
  0
ENDBLK
  5
159
330
14D
100
AcDbEntity
  8
0
100
AcDbBlockEnd
  0
BLOCK
  5
15B
330
15A
100
AcDbEntity
  8
0
100
AcDbBlockBegin
  2
*D28
 70
     1
 10
0.0
 20
0.0
 30
0.0
  3
*D28
  1

  0
LINE
  5
15C
330
15A
100
AcDbEntity
  8
cotas
100
AcDbLine
 10
7992.448024181634
 20
1837.194606589589
 30
0.0
 11
8005.229371055099
 21
1848.442233024282
 31
0.0
  0
LINE
  5
15D
330
15A
100
AcDbEntity
  8
cotas
100
AcDbLine
 10
7912.940901009569
 20
1837.194606589588
 30
0.0
 11
7900.159554136107
 21
1848.442233024278
 31
0.0
  0
ARC
  5
15E
330
15A
100
AcDbEntity
  8
cotas
100
AcDbCircle
 10
7952.694462595605
 20
1802.211344293774
 30
0.0
 40
64.98008059198074
100
AcDbArc
 50
50.17404299937842
 51
129.825957000626
  0
SOLID
  5
15F
330
15A
100
AcDbEntity
  8
cotas
100
AcDbTrace
 10
7995.47421078319
 20
1853.30967979567
 30
0.0
 11
7993.148699448673
 21
1850.921561677958
 31
0.0
 12
8001.475809469068
 22
1845.139086733264
 32
0.0
 13
8001.475809469068
 23
1845.139086733264
 33
0.0
  0
SOLID
  5
160
330
15A
100
AcDbEntity
  8
cotas
100
AcDbTrace
 10
7912.240225742533
 20
1850.921561677955
 30
0.0
 11
7909.914714408016
 21
1853.309679795667
 31
0.0
 12
7903.913115722139
 22
1845.13908673326
 32
0.0
 13
7903.913115722139
 23
1845.13908673326
 33
0.0
  0
MTEXT
  5
161
330
15A
100
AcDbEntity
  8
cotas
100
AcDbMText
 10
7952.694462595601
 20
1878.548040063726
 30
0.0
 40
10.0
 41
0.0
 71
     5
 72
     1
  1
98,0º
  7
SANINDUSA
 73
     1
 44
1.0
1001
ACAD
1000
MTEXTBEGIN
1070
    73
1070
     1
1070
    44
1040
1.0
1070
    74
1070
     0
1000
MTEXTEND
  0
POINT
  5
162
330
15A
100
AcDbEntity
  8
Defpoints
 62
     0
100
AcDbPoint
 10
7970.842246888532
 20
1864.605805578392
 30
0.0
  0
POINT
  5
163
330
15A
100
AcDbEntity
  8
Defpoints
 62
     0
100
AcDbPoint
 10
7916.694462595602
 20
1833.891460298571
 30
0.0
  0
POINT
  5
164
330
15A
100
AcDbEntity
  8
Defpoints
 62
     0
100
AcDbPoint
 10
7976.194482571891
 20
1822.891437598325
 30
0.0
  0
POINT
  5
165
330
15A
100
AcDbEntity
  8
Defpoints
 62
     0
100
AcDbPoint
 10
7988.694462595602
 20
1833.891460298571
 30
0.0
  0
POINT
  5
166
330
15A
100
AcDbEntity
  8
Defpoints
 62
     0
100
AcDbPoint
 10
7929.194416823675
 20
1822.891460298571
 30
0.0
  0
ENDBLK
  5
167
330
15A
100
AcDbEntity
  8
0
100
AcDbBlockEnd
  0
BLOCK
  5
169
330
168
100
AcDbEntity
  8
0
100
AcDbBlockBegin
  2
*D29
 70
     1
 10
0.0
 20
0.0
 30
0.0
  3
*D29
  1

  0
LINE
  5
16A
330
168
100
AcDbEntity
  8
cotas
100
AcDbLine
 10
7917.551364014878
 20
1783.52656138518
 30
0.0
 11
7917.551364014878
 21
1760.073116123589
 31
0.0
  0
LINE
  5
16B
330
168
100
AcDbEntity
  8
cotas
100
AcDbLine
 10
7987.77428034775
 20
1782.804304555822
 30
0.0
 11
7987.77428034775
 21
1760.073116123589
 31
0.0
  0
LINE
  5
16C
330
168
100
AcDbEntity
  8
cotas
100
AcDbLine
 10
7927.551364014878
 20
1765.073116123589
 30
0.0
 11
7977.774280347751
 21
1765.073116123589
 31
0.0
  0
SOLID
  5
16D
330
168
100
AcDbEntity
  8
cotas
100
AcDbTrace
 10
7927.551364014878
 20
1766.739782790256
 30
0.0
 11
7927.551364014878
 21
1763.406449456922
 31
0.0
 12
7917.551364014878
 22
1765.073116123589
 32
0.0
 13
7917.551364014878
 23
1765.073116123589
 33
0.0
  0
SOLID
  5
16E
330
168
100
AcDbEntity
  8
cotas
100
AcDbTrace
 10
7977.774280347751
 20
1766.739782790256
 30
0.0
 11
7977.774280347751
 21
1763.406449456922
 31
0.0
 12
7987.77428034775
 22
1765.073116123589
 32
0.0
 13
7987.77428034775
 23
1765.073116123589
 33
0.0
  0
MTEXT
  5
16F
330
168
100
AcDbEntity
  8
cotas
100
AcDbMText
 10
7952.662822181314
 20
1775.277951583629
 30
0.0
 40
10.0
 41
0.0
 71
     5
 72
     1
  1
70
  7
SANINDUSA
 73
     1
 44
1.0
1001
ACAD
1000
MTEXTBEGIN
1070
    73
1070
     1
1070
    44
1040
1.0
1070
    74
1070
     0
1000
MTEXTEND
  0
POINT
  5
170
330
168
100
AcDbEntity
  8
Defpoints
 62
     0
100
AcDbPoint
 10
7917.551364014878
 20
1788.52656138518
 30
0.0
  0
POINT
  5
171
330
168
100
AcDbEntity
  8
Defpoints
 62
     0
100
AcDbPoint
 10
7987.77428034775
 20
1787.804304555822
 30
0.0
  0
POINT
  5
172
330
168
100
AcDbEntity
  8
Defpoints
 62
     0
100
AcDbPoint
 10
7987.77428034775
 20
1765.073116123589
 30
0.0
  0
ENDBLK
  5
173
330
168
100
AcDbEntity
  8
0
100
AcDbBlockEnd
  0
BLOCK
  5
175
330
174
100
AcDbEntity
  8
0
100
AcDbBlockBegin
  2
*D30
 70
     1
 10
0.0
 20
0.0
 30
0.0
  3
*D30
  1

  0
LINE
  5
176
330
174
100
AcDbEntity
  8
cotas
100
AcDbLine
 10
7752.386392898187
 20
1938.41410261491
 30
0.0
 11
7752.386392898187
 21
1975.430429918686
 31
0.0
  0
LINE
  5
177
330
174
100
AcDbEntity
  8
cotas
100
AcDbLine
 10
7741.324416823676
 20
1938.41410261491
 30
0.0
 11
7741.324416823676
 21
1975.430429918686
 31
0.0
  0
LINE
  5
178
330
174
100
AcDbEntity
  8
cotas
100
AcDbLine
 10
7762.386392898187
 20
1970.430429918686
 30
0.0
 11
7772.386392898187
 21
1970.430429918686
 31
0.0
  0
LINE
  5
179
330
174
100
AcDbEntity
  8
cotas
100
AcDbLine
 10
7731.324416823676
 20
1970.430429918686
 30
0.0
 11
7697.167264372366
 21
1970.430429918686
 31
0.0
  0
LINE
  5
17A
330
174
100
AcDbEntity
  8
cotas
100
AcDbLine
 10
7752.386392898187
 20
1970.430429918686
 30
0.0
 11
7741.324416823676
 21
1970.430429918686
 31
0.0
  0
SOLID
  5
17B
330
174
100
AcDbEntity
  8
cotas
100
AcDbTrace
 10
7762.386392898187
 20
1972.097096585352
 30
0.0
 11
7762.386392898187
 21
1968.763763252019
 31
0.0
 12
7752.386392898187
 22
1970.430429918686
 32
0.0
 13
7752.386392898187
 23
1970.430429918686
 33
0.0
  0
SOLID
  5
17C
330
174
100
AcDbEntity
  8
cotas
100
AcDbTrace
 10
7731.324416823676
 20
1972.097096585352
 30
0.0
 11
7731.324416823676
 21
1968.763763252019
 31
0.0
 12
7741.324416823676
 22
1970.430429918686
 32
0.0
 13
7741.324416823676
 23
1970.430429918686
 33
0.0
  0
MTEXT
  5
17D
330
174
100
AcDbEntity
  8
cotas
100
AcDbMText
 10
7709.245840598021
 20
1980.447219710492
 30
0.0
 40
10.0
 41
0.0
 71
     5
 72
     1
  1
11
  7
SANINDUSA
 73
     1
 44
1.0
1001
ACAD
1000
MTEXTBEGIN
1070
    73
1070
     1
1070
    44
1040
1.0
1070
    74
1070
     0
1000
MTEXTEND
  0
POINT
  5
17E
330
174
100
AcDbEntity
  8
Defpoints
 62
     0
100
AcDbPoint
 10
7752.386392898187
 20
1933.41410261491
 30
0.0
  0
POINT
  5
17F
330
174
100
AcDbEntity
  8
Defpoints
 62
     0
100
AcDbPoint
 10
7741.324416823676
 20
1933.41410261491
 30
0.0
  0
POINT
  5
180
330
174
100
AcDbEntity
  8
Defpoints
 62
     0
100
AcDbPoint
 10
7741.324416823676
 20
1970.430429918686
 30
0.0
  0
ENDBLK
  5
181
330
174
100
AcDbEntity
  8
0
100
AcDbBlockEnd
  0
BLOCK
  5
183
330
182
100
AcDbEntity
  8
0
100
AcDbBlockBegin
  2
*D31
 70
     1
 10
0.0
 20
0.0
 30
0.0
  3
*D31
  1

  0
LINE
  5
184
330
182
100
AcDbEntity
  8
cotas
100
AcDbLine
 10
7739.324416823676
 20
1949.891460298569
 30
0.0
 11
7698.094652099269
 21
1949.891460298569
 31
0.0
  0
LINE
  5
185
330
182
100
AcDbEntity
  8
cotas
100
AcDbLine
 10
7752.359002375027
 20
1937.891460298571
 30
0.0
 11
7698.094652099269
 21
1937.891460298571
 31
0.0
  0
LINE
  5
186
330
182
100
AcDbEntity
  8
cotas
100
AcDbLine
 10
7703.09465209927
 20
1959.891460298569
 30
0.0
 11
7703.09465209927
 21
1969.891460298569
 31
0.0
  0
LINE
  5
187
330
182
100
AcDbEntity
  8
cotas
100
AcDbLine
 10
7703.09465209927
 20
1927.891460298571
 30
0.0
 11
7703.09465209927
 21
1893.163454925838
 31
0.0
  0
LINE
  5
188
330
182
100
AcDbEntity
  8
cotas
100
AcDbLine
 10
7703.09465209927
 20
1949.891460298569
 30
0.0
 11
7703.09465209927
 21
1937.891460298571
 31
0.0
  0
SOLID
  5
189
330
182
100
AcDbEntity
  8
cotas
100
AcDbTrace
 10
7701.427985432601
 20
1959.891460298569
 30
0.0
 11
7704.761318765936
 21
1959.891460298569
 31
0.0
 12
7703.09465209927
 22
1949.891460298569
 32
0.0
 13
7703.09465209927
 23
1949.891460298569
 33
0.0
  0
SOLID
  5
18A
330
182
100
AcDbEntity
  8
cotas
100
AcDbTrace
 10
7701.427985432601
 20
1927.891460298571
 30
0.0
 11
7704.761318765936
 21
1927.891460298571
 31
0.0
 12
7703.09465209927
 22
1937.891460298571
 32
0.0
 13
7703.09465209927
 23
1937.891460298571
 33
0.0
  0
MTEXT
  5
18B
330
182
100
AcDbEntity
  8
cotas
100
AcDbMText
 10
7692.990555390068
 20
1905.527457612206
 30
0.0
 40
10.0
 41
0.0
 71
     5
 72
     1
  1
12
  7
SANINDUSA
 11
0.0000000000000001
 21
1.0
 31
0.0
 73
     1
 44
1.0
1001
ACAD
1000
MTEXTBEGIN
1070
    73
1070
     1
1070
    44
1040
1.0
1070
    74
1070
     0
1000
MTEXTEND
  0
POINT
  5
18C
330
182
100
AcDbEntity
  8
Defpoints
 62
     0
100
AcDbPoint
 10
7744.324416823676
 20
1949.891460298569
 30
0.0
  0
POINT
  5
18D
330
182
100
AcDbEntity
  8
Defpoints
 62
     0
100
AcDbPoint
 10
7757.359002375027
 20
1937.891460298571
 30
0.0
  0
POINT
  5
18E
330
182
100
AcDbEntity
  8
Defpoints
 62
     0
100
AcDbPoint
 10
7703.09465209927
 20
1937.891460298571
 30
0.0
  0
ENDBLK
  5
18F
330
182
100
AcDbEntity
  8
0
100
AcDbBlockEnd
  0
BLOCK
  5
191
330
190
100
AcDbEntity
  8
0
100
AcDbBlockBegin
  2
*D32
 70
     1
 10
0.0
 20
0.0
 30
0.0
  3
*D32
  1

  0
LINE
  5
192
330
190
100
AcDbEntity
  8
cotas
100
AcDbLine
 10
7739.324416823676
 20
1949.891460298569
 30
0.0
 11
7675.966577777494
 21
1949.89146029857
 31
0.0
  0
LINE
  5
193
330
190
100
AcDbEntity
  8
cotas
100
AcDbLine
 10
7947.694462595602
 20
1833.891460298571
 30
0.0
 11
7675.966577777494
 21
1833.891460298571
 31
0.0
  0
LINE
  5
194
330
190
100
AcDbEntity
  8
cotas
100
AcDbLine
 10
7680.966577777494
 20
1939.89146029857
 30
0.0
 11
7680.966577777494
 21
1843.89146029857
 31
0.0
  0
SOLID
  5
195
330
190
100
AcDbEntity
  8
cotas
100
AcDbTrace
 10
7679.299911110827
 20
1939.89146029857
 30
0.0
 11
7682.63324444416
 21
1939.89146029857
 31
0.0
 12
7680.966577777494
 22
1949.891460298569
 32
0.0
 13
7680.966577777494
 23
1949.891460298569
 33
0.0
  0
SOLID
  5
196
330
190
100
AcDbEntity
  8
cotas
100
AcDbTrace
 10
7679.299911110827
 20
1843.891460298571
 30
0.0
 11
7682.63324444416
 21
1843.89146029857
 31
0.0
 12
7680.966577777494
 22
1833.891460298571
 32
0.0
 13
7680.966577777494
 23
1833.891460298571
 33
0.0
  0
MTEXT
  5
197
330
190
100
AcDbEntity
  8
cotas
100
AcDbMText
 10
7670.768458234177
 20
1891.891460298571
 30
0.0
 40
10.0
 41
0.0
 71
     5
 72
     1
  1
116
  7
SANINDUSA
 11
0.0000000000000001
 21
1.0
 31
0.0
 73
     1
 44
1.0
1001
ACAD
1000
MTEXTBEGIN
1070
    73
1070
     1
1070
    44
1040
1.0
1070
    74
1070
     0
1000
MTEXTEND
  0
POINT
  5
198
330
190
100
AcDbEntity
  8
Defpoints
 62
     0
100
AcDbPoint
 10
7744.324416823676
 20
1949.891460298569
 30
0.0
  0
POINT
  5
199
330
190
100
AcDbEntity
  8
Defpoints
 62
     0
100
AcDbPoint
 10
7952.694462595601
 20
1833.891460298571
 30
0.0
  0
POINT
  5
19A
330
190
100
AcDbEntity
  8
Defpoints
 62
     0
100
AcDbPoint
 10
7680.966577777494
 20
1833.891460298571
 30
0.0
  0
ENDBLK
  5
19B
330
190
100
AcDbEntity
  8
0
100
AcDbBlockEnd
  0
BLOCK
  5
19D
330
19C
100
AcDbEntity
  8
0
100
AcDbBlockBegin
  2
*D33
 70
     1
 10
0.0
 20
0.0
 30
0.0
  3
*D33
  1

  0
ARC
  5
19E
330
19C
100
AcDbEntity
  8
cotas
100
AcDbCircle
 10
7741.371252826562
 20
1828.61204545916
 30
0.0
 40
96.24255886121591
100
AcDbArc
 50
5.955949765169344
 51
78.04405023483056
  0
SOLID
  5
19F
330
19C
100
AcDbEntity
  8
cotas
100
AcDbTrace
 10
7838.758706969672
 20
1838.685128034583
 30
0.0
 11
7835.429875038082
 21
1838.511954473282
 31
0.0
 12
7837.613811687777
 22
1828.612045459161
 32
0.0
 13
7837.613811687777
 23
1828.612045459161
 33
0.0
  0
SOLID
  5
1A0
330
19C
100
AcDbEntity
  8
cotas
100
AcDbTrace
 10
7761.048732340103
 20
1921.120582420953
 30
0.0
 11
7761.568914924801
 21
1924.41307709668
 31
0.0
 12
7751.431339605272
 22
1924.327377512909
 32
0.0
 13
7751.431339605272
 23
1924.327377512909
 33
0.0
  0
MTEXT
  5
1A1
330
19C
100
AcDbEntity
  8
cotas
100
AcDbMText
 10
7821.333022239425
 20
1900.609946027714
 30
0.0
 40
10.0
 41
0.0
 71
     5
 72
     1
  1
84,0°
  7
SANINDUSA
 11
0.6691306063588567
 21
-0.7431448254773957
 31
0.0
 73
     1
 44
1.0
1001
ACAD
1000
MTEXTBEGIN
1070
    73
1070
     1
1070
    44
1040
1.0
1070
    74
1070
     0
1000
MTEXTEND
  0
POINT
  5
1A2
330
19C
100
AcDbEntity
  8
Defpoints
 62
     0
100
AcDbPoint
 10
7826.348388503657
 20
1873.795189974248
 30
0.0
  0
POINT
  5
1A3
330
19C
100
AcDbEntity
  8
Defpoints
 62
     0
100
AcDbPoint
 10
7750.936971055892
 20
1919.623774959411
 30
0.0
  0
POINT
  5
1A4
330
19C
100
AcDbEntity
  8
Defpoints
 62
     0
100
AcDbPoint
 10
7744.324416823677
 20
1828.612045459161
 30
0.0
  0
POINT
  5
1A5
330
19C
100
AcDbEntity
  8
Defpoints
 62
     0
100
AcDbPoint
 10
7853.855130708213
 20
1828.612045459161
 30
0.0
  0
POINT
  5
1A6
330
19C
100
AcDbEntity
  8
Defpoints
 62
     0
100
AcDbPoint
 10
7752.386392898188
 20
1933.414102614908
 30
0.0
  0
ENDBLK
  5
1A7
330
19C
100
AcDbEntity
  8
0
100
AcDbBlockEnd
  0
BLOCK
  5
1A9
330
1A8
100
AcDbEntity
  8
0
100
AcDbBlockBegin
  2
*D34
 70
     1
 10
0.0
 20
0.0
 30
0.0
  3
*D34
  1

  0
LINE
  5
1AA
330
1A8
100
AcDbEntity
  8
cotas
100
AcDbLine
 10
8139.851215936458
 20
1995.346283821623
 30
0.0
 11
8116.671894050107
 21
1957.006649898701
 31
0.0
  0
MTEXT
  5
1AB
330
1A8
100
AcDbEntity
  8
cotas
100
AcDbMText
 10
8122.115539613057
 20
1985.73497938631
 30
0.0
 40
10.0
 41
0.0
 71
     5
 72
     1
  1
R10
  7
SANINDUSA
 11
0.5173738613218236
 21
0.8557594800064714
 31
0.0
 73
     1
 44
1.0
1001
ACAD
1000
MTEXTBEGIN
1070
    73
1070
     1
1070
    44
1040
1.0
1070
    74
1070
     0
1000
MTEXTEND
  0
LINE
  5
1AC
330
1A8
100
AcDbEntity
  8
cotas
100
AcDbLine
 10
8106.324416823666
 20
1939.891460298565
 30
0.0
 11
8111.498155436889
 21
1948.449055098636
 31
0.0
  0
SOLID
  5
1AD
330
1A8
100
AcDbEntity
  8
cotas
100
AcDbTrace
 10
8115.245628250097
 20
1957.86893966757
 30
0.0
 11
8118.098159850118
 21
1956.144360129831
 31
0.0
 12
8111.498155436889
 22
1948.449055098636
 32
0.0
 13
8111.498155436889
 23
1948.449055098636
 33
0.0
  0
POINT
  5
1AE
330
1A8
100
AcDbEntity
  8
Defpoints
 62
     0
100
AcDbPoint
 10
8111.498155436889
 20
1948.449055098636
 30
0.0
  0
POINT
  5
1AF
330
1A8
100
AcDbEntity
  8
Defpoints
 62
     0
100
AcDbPoint
 10
8106.324416823666
 20
1939.891460298565
 30
0.0
  0
ENDBLK
  5
1B0
330
1A8
100
AcDbEntity
  8
0
100
AcDbBlockEnd
  0
BLOCK
  5
1B2
330
1B1
100
AcDbEntity
  8
0
100
AcDbBlockBegin
  2
*D35
 70
     1
 10
0.0
 20
0.0
 30
0.0
  3
*D35
  1

  0
LINE
  5
1B3
330
1B1
100
AcDbEntity
  8
cotas
100
AcDbLine
 10
8059.358337613767
 20
1982.827001666712
 30
0.0
 11
8083.407671410034
 21
1956.05102982715
 31
0.0
  0
MTEXT
  5
1B4
330
1B1
100
AcDbEntity
  8
cotas
100
AcDbMText
 10
8075.559104646496
 20
1979.91054657937
 30
0.0
 40
10.0
 41
0.0
 71
     5
 72
     1
  1
R5
  7
SANINDUSA
 11
0.6682115697451121
 21
-0.7439713019053715
 31
0.0
 73
     1
 44
1.0
1001
ACAD
1000
MTEXTBEGIN
1070
    73
1070
     1
1070
    44
1040
1.0
1070
    74
1070
     0
1000
MTEXTEND
  0
LINE
  5
1B5
330
1B1
100
AcDbEntity
  8
cotas
100
AcDbLine
 10
8093.430844956207
 20
1944.891460298571
 30
0.0
 11
8090.089787107485
 21
1948.611316808096
 31
0.0
  0
SOLID
  5
1B6
330
1B1
100
AcDbEntity
  8
cotas
100
AcDbTrace
 10
8084.647623579876
 20
1957.164715776725
 30
0.0
 11
8082.167719240191
 21
1954.937343877575
 31
0.0
 12
8090.089787107485
 22
1948.611316808096
 32
0.0
 13
8090.089787107485
 23
1948.611316808096
 33
0.0
  0
POINT
  5
1B7
330
1B1
100
AcDbEntity
  8
Defpoints
 62
     0
100
AcDbPoint
 10
8090.089787107485
 20
1948.611316808096
 30
0.0
  0
POINT
  5
1B8
330
1B1
100
AcDbEntity
  8
Defpoints
 62
     0
100
AcDbPoint
 10
8093.430844956207
 20
1944.891460298571
 30
0.0
  0
ENDBLK
  5
1B9
330
1B1
100
AcDbEntity
  8
0
100
AcDbBlockEnd
  0
BLOCK
  5
1BB
330
1BA
100
AcDbEntity
  8
0
100
AcDbBlockBegin
  2
*D36
 70
     1
 10
0.0
 20
0.0
 30
0.0
  3
*D36
  1

  0
LINE
  5
1BC
330
1BA
100
AcDbEntity
  8
cotas
100
AcDbLine
 10
8140.898826362919
 20
1855.08366965039
 30
0.0
 11
8116.995221218727
 21
1892.975966407983
 31
0.0
  0
MTEXT
  5
1BD
330
1BA
100
AcDbEntity
  8
cotas
100
AcDbMText
 10
8140.245716483525
 20
1875.24563471043
 30
0.0
 40
10.0
 41
0.0
 71
     5
 72
     1
  1
R10
  7
SANINDUSA
 11
0.5335402197526592
 21
-0.8457746945293907
 31
0.0
 73
     1
 44
1.0
1001
ACAD
1000
MTEXTBEGIN
1070
    73
1070
     1
1070
    44
1040
1.0
1070
    74
1070
     0
1000
MTEXTEND
  0
LINE
  5
1BE
330
1BA
100
AcDbEntity
  8
cotas
100
AcDbLine
 10
8106.324416823674
 20
1909.891460298572
 30
0.0
 11
8111.659819021202
 21
1901.433713353276
 31
0.0
  0
SOLID
  5
1BF
330
1BA
100
AcDbEntity
  8
cotas
100
AcDbTrace
 10
8118.40484570961
 20
1893.865200107572
 30
0.0
 11
8115.585596727845
 21
1892.086732708395
 31
0.0
 12
8111.659819021202
 22
1901.433713353276
 32
0.0
 13
8111.659819021202
 23
1901.433713353276
 33
0.0
  0
POINT
  5
1C0
330
1BA
100
AcDbEntity
  8
Defpoints
 62
     0
100
AcDbPoint
 10
8111.659819021202
 20
1901.433713353276
 30
0.0
  0
POINT
  5
1C1
330
1BA
100
AcDbEntity
  8
Defpoints
 62
     0
100
AcDbPoint
 10
8106.324416823674
 20
1909.891460298572
 30
0.0
  0
ENDBLK
  5
1C2
330
1BA
100
AcDbEntity
  8
0
100
AcDbBlockEnd
  0
BLOCK
  5
1C4
330
1C3
100
AcDbEntity
  8
0
100
AcDbBlockBegin
  2
*D37
 70
     1
 10
0.0
 20
0.0
 30
0.0
  3
*D37
  1

  0
LINE
  5
1C5
330
1C3
100
AcDbEntity
  8
cotas
100
AcDbLine
 10
8090.302487310033
 20
1862.225614439971
 30
0.0
 11
8094.823917823143
 21
1897.931073267893
 31
0.0
  0
MTEXT
  5
1C6
330
1C3
100
AcDbEntity
  8
cotas
100
AcDbMText
 10
8081.911015997524
 20
1876.387315324279
 30
0.0
 40
10.0
 41
0.0
 71
     5
 72
     1
  1
R5
  7
SANINDUSA
 11
0.1256281028926988
 21
0.992077406135016
 31
0.0
 73
     1
 44
1.0
1001
ACAD
1000
MTEXTBEGIN
1070
    73
1070
     1
1070
    44
1040
1.0
1070
    74
1070
     0
1000
MTEXTEND
  0
SOLID
  5
1C7
330
1C3
100
AcDbEntity
  8
cotas
100
AcDbTrace
 10
8093.170455479585
 20
1898.140453439381
 30
0.0
 11
8096.477380166701
 21
1897.721693096405
 31
0.0
 12
8096.080198852071
 22
1907.851847329243
 32
0.0
 13
8096.080198852071
 23
1907.851847329243
 33
0.0
  0
POINT
  5
1C8
330
1C3
100
AcDbEntity
  8
Defpoints
 62
     0
100
AcDbPoint
 10
8096.080198852071
 20
1907.851847329243
 30
0.0
  0
POINT
  5
1C9
330
1C3
100
AcDbEntity
  8
Defpoints
 62
     0
100
AcDbPoint
 10
8095.452058337606
 20
1902.891460298567
 30
0.0
  0
ENDBLK
  5
1CA
330
1C3
100
AcDbEntity
  8
0
100
AcDbBlockEnd
  0
BLOCK
  5
1CC
330
1CB
100
AcDbEntity
  8
0
100
AcDbBlockBegin
  2
*D38
 70
     1
 10
0.0
 20
0.0
 30
0.0
  3
*D38
  1

  0
LINE
  5
1CD
330
1CB
100
AcDbEntity
  8
cotas
100
AcDbLine
 10
8088.313049313141
 20
1794.319523451379
 30
0.0
 11
8062.141389644358
 21
1830.599538873464
 31
0.0
  0
MTEXT
  5
1CE
330
1CB
100
AcDbEntity
  8
cotas
100
AcDbMText
 10
8086.423136614591
 20
1814.370834829333
 30
0.0
 40
10.0
 41
0.0
 71
     5
 72
     1
  1
R65
  7
SANINDUSA
 11
0.5850413038105208
 21
-0.8110034974250639
 31
0.0
 73
     1
 44
1.0
1001
ACAD
1000
MTEXTBEGIN
1070
    73
1070
     1
1070
    44
1040
1.0
1070
    74
1070
     0
1000
MTEXTEND
  0
LINE
  5
1CF
330
1CB
100
AcDbEntity
  8
cotas
100
AcDbLine
 10
8018.263291858566
 20
1891.424801180346
 30
0.0
 11
8056.290976606254
 21
1838.709573847714
 31
0.0
  0
SOLID
  5
1D0
330
1CB
100
AcDbEntity
  8
cotas
100
AcDbTrace
 10
8063.493062140066
 20
1831.574607713148
 30
0.0
 11
8060.789717148649
 21
1829.624470033779
 31
0.0
 12
8056.290976606254
 22
1838.709573847714
 32
0.0
 13
8056.290976606254
 23
1838.709573847714
 33
0.0
  0
POINT
  5
1D1
330
1CB
100
AcDbEntity
  8
Defpoints
 62
     0
100
AcDbPoint
 10
8056.290976606254
 20
1838.709573847714
 30
0.0
  0
POINT
  5
1D2
330
1CB
100
AcDbEntity
  8
Defpoints
 62
     0
100
AcDbPoint
 10
8018.263291858566
 20
1891.424801180346
 30
0.0
  0
ENDBLK
  5
1D3
330
1CB
100
AcDbEntity
  8
0
100
AcDbBlockEnd
  0
BLOCK
  5
1D5
330
1D4
100
AcDbEntity
  8
0
100
AcDbBlockBegin
  2
*D39
 70
     1
 10
0.0
 20
0.0
 30
0.0
  3
*D39
  1

  0
LINE
  5
1D6
330
1D4
100
AcDbEntity
  8
cotas
100
AcDbLine
 10
7875.570770010907
 20
1978.720535560261
 30
0.0
 11
7848.641464104736
 21
1954.843022971862
 31
0.0
  0
MTEXT
  5
1D7
330
1D4
100
AcDbEntity
  8
cotas
100
AcDbMText
 10
7859.143838751776
 20
1977.65917222331
 30
0.0
 40
10.0
 41
0.0
 71
     5
 72
     1
  1
R5
  7
SANINDUSA
 11
0.748231694239396
 21
0.6634375115530047
 31
0.0
 73
     1
 44
1.0
1001
ACAD
1000
MTEXTBEGIN
1070
    73
1070
     1
1070
    44
1040
1.0
1070
    74
1070
     0
1000
MTEXTEND
  0
LINE
  5
1D8
330
1D4
100
AcDbEntity
  8
cotas
100
AcDbLine
 10
7837.417988691142
 20
1944.891460298565
 30
0.0
 11
7841.159147162341
 21
1948.208647856332
 31
0.0
  0
SOLID
  5
1D9
330
1D4
100
AcDbEntity
  8
cotas
100
AcDbTrace
 10
7847.535734918813
 20
1956.090075795594
 30
0.0
 11
7849.747193290657
 21
1953.595970148129
 31
0.0
 12
7841.159147162341
 22
1948.208647856332
 32
0.0
 13
7841.159147162341
 23
1948.208647856332
 33
0.0
  0
POINT
  5
1DA
330
1D4
100
AcDbEntity
  8
Defpoints
 62
     0
100
AcDbPoint
 10
7841.159147162341
 20
1948.208647856332
 30
0.0
  0
POINT
  5
1DB
330
1D4
100
AcDbEntity
  8
Defpoints
 62
     0
100
AcDbPoint
 10
7837.417988691142
 20
1944.891460298565
 30
0.0
  0
ENDBLK
  5
1DC
330
1D4
100
AcDbEntity
  8
0
100
AcDbBlockEnd
  0
BLOCK
  5
1DE
330
1DD
100
AcDbEntity
  8
0
100
AcDbBlockBegin
  2
*D40
 70
     1
 10
0.0
 20
0.0
 30
0.0
  3
*D40
  1

  0
LINE
  5
1DF
330
1DD
100
AcDbEntity
  8
cotas
100
AcDbLine
 10
7912.899770678575
 20
1889.398635996487
 30
0.0
 11
7890.329040690168
 21
1850.775360156187
 31
0.0
  0
MTEXT
  5
1E0
330
1DD
100
AcDbEntity
  8
cotas
100
AcDbMText
 10
7895.413413337071
 20
1879.501904566451
 30
0.0
 40
10.0
 41
0.0
 71
     5
 72
     1
  1
R55
  7
SANINDUSA
 11
0.5045461184917545
 21
0.8633847429245575
 31
0.0
 73
     1
 44
1.0
1001
ACAD
1000
MTEXTBEGIN
1070
    73
1070
     1
1070
    44
1040
1.0
1070
    74
1070
     0
1000
MTEXTEND
  0
SOLID
  5
1E1
330
1DD
100
AcDbEntity
  8
cotas
100
AcDbTrace
 10
7888.89006611863
 20
1851.616270353674
 30
0.0
 11
7891.76801526171
 21
1849.934449958701
 31
0.0
 12
7885.283579505252
 22
1842.141512726941
 32
0.0
 13
7885.283579505252
 23
1842.141512726941
 33
0.0
  0
POINT
  5
1E2
330
1DD
100
AcDbEntity
  8
Defpoints
 62
     0
100
AcDbPoint
 10
7885.283579505252
 20
1842.141512726941
 30
0.0
  0
POINT
  5
1E3
330
1DD
100
AcDbEntity
  8
Defpoints
 62
     0
100
AcDbPoint
 10
7913.033616022303
 20
1889.627673587803
 30
0.0
  0
ENDBLK
  5
1E4
330
1DD
100
AcDbEntity
  8
0
100
AcDbBlockEnd
  0
BLOCK
  5
1E6
330
1E5
100
AcDbEntity
  8
0
100
AcDbBlockBegin
  2
*D41
 70
     1
 10
0.0
 20
0.0
 30
0.0
  3
*D41
  1

  0
LINE
  5
1E7
330
1E5
100
AcDbEntity
  8
cotas
100
AcDbLine
 10
8018.347126628546
 20
1891.173117796682
 30
0.0
 11
8032.484427966418
 21
1848.731016061171
 31
0.0
  0
MTEXT
  5
1E8
330
1E5
100
AcDbEntity
  8
cotas
100
AcDbMText
 10
8033.421920701629
 20
1877.88897048769
 30
0.0
 40
10.0
 41
0.0
 71
     5
 72
     1
  1
R55
  7
SANINDUSA
 11
0.3160252468412026
 21
-0.9487507804260067
 31
0.0
 73
     1
 44
1.0
1001
ACAD
1000
MTEXTBEGIN
1070
    73
1070
     1
1070
    44
1040
1.0
1070
    74
1070
     0
1000
MTEXTEND
  0
SOLID
  5
1E9
330
1E5
100
AcDbEntity
  8
cotas
100
AcDbTrace
 10
8034.065679267127
 20
1849.257724805906
 30
0.0
 11
8030.903176665708
 21
1848.204307316436
 31
0.0
 12
8035.644680434829
 22
1839.243508256911
 32
0.0
 13
8035.644680434829
 23
1839.243508256911
 33
0.0
  0
POINT
  5
1EA
330
1E5
100
AcDbEntity
  8
Defpoints
 62
     0
100
AcDbPoint
 10
8035.644680434829
 20
1839.243508256911
 30
0.0
  0
POINT
  5
1EB
330
1E5
100
AcDbEntity
  8
Defpoints
 62
     0
100
AcDbPoint
 10
8018.263291858565
 20
1891.424801180342
 30
0.0
  0
ENDBLK
  5
1EC
330
1E5
100
AcDbEntity
  8
0
100
AcDbBlockEnd
  0
BLOCK
  5
1EE
330
1ED
100
AcDbEntity
  8
0
100
AcDbBlockBegin
  2
*D42
 70
     1
 10
0.0
 20
0.0
 30
0.0
  3
*D42
  1

  0
ARC
  5
1EF
330
1ED
100
AcDbEntity
  8
cotas
100
AcDbCircle
 10
7841.324416823676
 20
1949.891460298569
 30
0.0
 40
67.06694347139354
100
AcDbArc
 50
292.5510066907642
 51
351.4489933092371
  0
SOLID
  5
1F0
330
1ED
100
AcDbEntity
  8
cotas
100
AcDbTrace
 10
7867.567619466843
 20
1886.369957308099
 30
0.0
 11
7866.522331123502
 21
1889.535156099706
 31
0.0
 12
7857.549378920352
 22
1884.816691673883
 32
0.0
 13
7857.549378920352
 23
1884.816691673883
 33
0.0
  0
SOLID
  5
1F1
330
1ED
100
AcDbEntity
  8
cotas
100
AcDbTrace
 10
7905.983808034219
 20
1940.043543265559
 30
0.0
 11
7909.307865031998
 21
1939.795035344905
 31
0.0
 12
7908.391360295069
 22
1949.891460298569
 32
0.0
 13
7908.391360295069
 23
1949.891460298569
 33
0.0
  0
MTEXT
  5
1F2
330
1ED
100
AcDbEntity
  8
cotas
100
AcDbMText
 10
7885.235339035048
 20
1915.58448792817
 30
0.0
 40
10.0
 41
0.0
 71
     5
 72
     1
  1
76,0°
  7
SANINDUSA
 11
0.615661475325651
 21
0.7880107536067277
 31
0.0
 73
     1
 44
1.0
1001
ACAD
1000
MTEXTBEGIN
1070
    73
1070
     1
1070
    44
1040
1.0
1070
    74
1070
     0
1000
MTEXTEND
  0
POINT
  5
1F3
330
1ED
100
AcDbEntity
  8
Defpoints
 62
     0
100
AcDbPoint
 10
7883.833522484625
 20
1898.017084711952
 30
0.0
  0
POINT
  5
1F4
330
1ED
100
AcDbEntity
  8
Defpoints
 62
     0
100
AcDbPoint
 10
7855.20715187895
 20
1894.210851233548
 30
0.0
  0
POINT
  5
1F5
330
1ED
100
AcDbEntity
  8
Defpoints
 62
     0
100
AcDbPoint
 10
7837.417988691142
 20
1949.891460298569
 30
0.0
  0
POINT
  5
1F6
330
1ED
100
AcDbEntity
  8
Defpoints
 62
     0
100
AcDbPoint
 10
8093.430844956211
 20
1949.891460298569
 30
0.0
  0
POINT
  5
1F7
330
1ED
100
AcDbEntity
  8
Defpoints
 62
     0
100
AcDbPoint
 10
7859.667351077106
 20
1876.321969329817
 30
0.0
  0
ENDBLK
  5
1F8
330
1ED
100
AcDbEntity
  8
0
100
AcDbBlockEnd
  0
BLOCK
  5
1FA
330
1F9
100
AcDbEntity
  8
0
100
AcDbBlockBegin
  2
*D43
 70
     1
 10
0.0
 20
0.0
 30
0.0
  3
*D43
  1

  0
LINE
  5
1FB
330
1F9
100
AcDbEntity
  8
cotas
100
AcDbLine
 10
7771.653786683241
 20
1953.89146029857
 30
0.0
 11
7771.653786683241
 21
1975.430429918686
 31
0.0
  0
LINE
  5
1FC
330
1F9
100
AcDbEntity
  8
cotas
100
AcDbLine
 10
7806.653786683241
 20
1953.89146029857
 30
0.0
 11
7806.653786683241
 21
1975.430429918686
 31
0.0
  0
LINE
  5
1FD
330
1F9
100
AcDbEntity
  8
cotas
100
AcDbLine
 10
7781.653786683242
 20
1970.430429918686
 30
0.0
 11
7796.653786683241
 21
1970.430429918686
 31
0.0
  0
SOLID
  5
1FE
330
1F9
100
AcDbEntity
  8
cotas
100
AcDbTrace
 10
7781.653786683242
 20
1972.097096585352
 30
0.0
 11
7781.653786683242
 21
1968.763763252019
 31
0.0
 12
7771.653786683241
 22
1970.430429918686
 32
0.0
 13
7771.653786683241
 23
1970.430429918686
 33
0.0
  0
SOLID
  5
1FF
330
1F9
100
AcDbEntity
  8
cotas
100
AcDbTrace
 10
7796.653786683241
 20
1972.097096585352
 30
0.0
 11
7796.653786683241
 21
1968.763763252019
 31
0.0
 12
7806.653786683241
 22
1970.430429918686
 32
0.0
 13
7806.653786683241
 23
1970.430429918686
 33
0.0
  0
MTEXT
  5
200
330
1F9
100
AcDbEntity
  8
cotas
100
AcDbMText
 10
7789.15378668324
 20
1981.031504465361
 30
0.0
 40
10.0
 41
0.0
 71
     5
 72
     1
  1
ø35
  7
SANINDUSA
 73
     1
 44
1.0
1001
ACAD
1000
MTEXTBEGIN
1070
    73
1070
     1
1070
    44
1040
1.0
1070
    74
1070
     0
1000
MTEXTEND
  0
POINT
  5
201
330
1F9
100
AcDbEntity
  8
Defpoints
 62
     0
100
AcDbPoint
 10
7771.653786683241
 20
1948.89146029857
 30
0.0
  0
POINT
  5
202
330
1F9
100
AcDbEntity
  8
Defpoints
 62
     0
100
AcDbPoint
 10
7806.653786683241
 20
1948.89146029857
 30
0.0
  0
POINT
  5
203
330
1F9
100
AcDbEntity
  8
Defpoints
 62
     0
100
AcDbPoint
 10
7806.653786683241
 20
1970.430429918686
 30
0.0
  0
ENDBLK
  5
204
330
1F9
100
AcDbEntity
  8
0
100
AcDbBlockEnd
  0
BLOCK
  5
206
330
205
100
AcDbEntity
  8
0
100
AcDbBlockBegin
  2
*D44
 70
     1
 10
0.0
 20
0.0
 30
0.0
  3
*D44
  1

  0
LINE
  5
207
330
205
100
AcDbEntity
  8
cotas
100
AcDbLine
 10
7739.324416823676
 20
1949.891460298569
 30
0.0
 11
7646.918936014079
 21
1949.89146029857
 31
0.0
  0
LINE
  5
208
330
205
100
AcDbEntity
  8
cotas
100
AcDbLine
 10
7913.610747997693
 20
1786.891460298568
 30
0.0
 11
7646.918936014079
 21
1786.891460298568
 31
0.0
  0
LINE
  5
209
330
205
100
AcDbEntity
  8
cotas
100
AcDbLine
 10
7651.918936014078
 20
1939.89146029857
 30
0.0
 11
7651.918936014078
 21
1796.891460298568
 31
0.0
  0
SOLID
  5
20A
330
205
100
AcDbEntity
  8
cotas
100
AcDbTrace
 10
7650.252269347411
 20
1939.89146029857
 30
0.0
 11
7653.585602680746
 21
1939.89146029857
 31
0.0
 12
7651.918936014078
 22
1949.89146029857
 32
0.0
 13
7651.918936014078
 23
1949.89146029857
 33
0.0
  0
SOLID
  5
20B
330
205
100
AcDbEntity
  8
cotas
100
AcDbTrace
 10
7650.252269347411
 20
1796.891460298568
 30
0.0
 11
7653.585602680746
 21
1796.891460298568
 31
0.0
 12
7651.918936014078
 22
1786.891460298568
 32
0.0
 13
7651.918936014078
 23
1786.891460298568
 33
0.0
  0
MTEXT
  5
20C
330
205
100
AcDbEntity
  8
cotas
100
AcDbMText
 10
7641.710742595677
 20
1868.39146029857
 30
0.0
 40
10.0
 41
0.0
 71
     5
 72
     1
  1
163
  7
SANINDUSA
 11
0.0000000000000001
 21
1.0
 31
0.0
 73
     1
 44
1.0
1001
ACAD
1000
MTEXTBEGIN
1070
    73
1070
     1
1070
    44
1040
1.0
1070
    74
1070
     0
1000
MTEXTEND
  0
POINT
  5
20D
330
205
100
AcDbEntity
  8
Defpoints
 62
     0
100
AcDbPoint
 10
7744.324416823676
 20
1949.891460298569
 30
0.0
  0
POINT
  5
20E
330
205
100
AcDbEntity
  8
Defpoints
 62
     0
100
AcDbPoint
 10
7918.610747997693
 20
1786.891460298568
 30
0.0
  0
POINT
  5
20F
330
205
100
AcDbEntity
  8
Defpoints
 62
     0
100
AcDbPoint
 10
7651.918936014078
 20
1786.891460298568
 30
0.0
  0
ENDBLK
  5
210
330
205
100
AcDbEntity
  8
0
100
AcDbBlockEnd
  0
BLOCK
  5
755
330
74B
100
AcDbEntity
  8
0
100
AcDbBlockBegin
  2
*D46
 70
     1
 10
0.0
 20
0.0
 30
0.0
  3
*D46
  1

  0
LINE
  5
850
330
74B
100
AcDbEntity
  8
cotas
100
AcDbLine
 10
1393.511474736595
 20
665.3694917993624
 30
0.0
 11
1455.933813749518
 21
665.3694917993624
 31
0.0
  0
LINE
  5
851
330
74B
100
AcDbEntity
  8
cotas
100
AcDbLine
 10
1422.743135661763
 20
453.9994460274366
 30
0.0
 11
1455.933813749517
 21
453.9994460274366
 31
0.0
  0
LINE
  5
852
330
74B
100
AcDbEntity
  8
cotas
100
AcDbLine
 10
1450.933813749518
 20
655.3694917993624
 30
0.0
 11
1450.933813749518
 21
463.9994460274366
 31
0.0
  0
SOLID
  5
853
330
74B
100
AcDbEntity
  8
cotas
100
AcDbTrace
 10
1449.267147082851
 20
655.3694917993624
 30
0.0
 11
1452.600480416184
 21
655.3694917993624
 31
0.0
 12
1450.933813749518
 22
665.3694917993624
 32
0.0
 13
1450.933813749518
 23
665.3694917993624
 33
0.0
  0
SOLID
  5
854
330
74B
100
AcDbEntity
  8
cotas
100
AcDbTrace
 10
1449.267147082851
 20
463.9994460274366
 30
0.0
 11
1452.600480416184
 21
463.9994460274366
 31
0.0
 12
1450.933813749518
 22
453.9994460274366
 32
0.0
 13
1450.933813749518
 23
453.9994460274366
 33
0.0
  0
MTEXT
  5
855
330
74B
100
AcDbEntity
  8
cotas
100
AcDbMText
 10
1440.829717040316
 20
559.6844689133997
 30
0.0
 40
10.0
 41
0.0
 71
     5
 72
     1
  1
211
  7
SANINDUSA
 11
0.0000000000000001
 21
1.0
 31
0.0
 73
     1
 44
1.0
1001
ACAD
1000
MTEXTBEGIN
1070
    73
1070
     1
1070
    44
1040
1.0
1070
    74
1070
     0
1000
MTEXTEND
  0
POINT
  5
856
330
74B
100
AcDbEntity
  8
Defpoints
 62
     0
100
AcDbPoint
 10
1388.511474736595
 20
665.3694917993624
 30
0.0
  0
POINT
  5
857
330
74B
100
AcDbEntity
  8
Defpoints
 62
     0
100
AcDbPoint
 10
1417.743135661763
 20
453.9994460274366
 30
0.0
  0
POINT
  5
858
330
74B
100
AcDbEntity
  8
Defpoints
 62
     0
100
AcDbPoint
 10
1450.933813749518
 20
453.9994460274366
 30
0.0
  0
ENDBLK
  5
756
330
74B
100
AcDbEntity
  8
0
100
AcDbBlockEnd
  0
BLOCK
  5
761
330
757
100
AcDbEntity
  8
0
100
AcDbBlockBegin
  2
*D47
 70
     1
 10
0.0
 20
0.0
 30
0.0
  3
*D47
  1

  0
LINE
  5
872
330
757
100
AcDbEntity
  8
cotas
100
AcDbLine
 10
1460.933813749518
 20
665.3694917993624
 30
0.0
 11
1479.812011798796
 21
665.3694917993624
 31
0.0
  0
LINE
  5
873
330
757
100
AcDbEntity
  8
cotas
100
AcDbLine
 10
1393.64660987173
 20
290.3694917993624
 30
0.0
 11
1479.812011798796
 21
290.3694917993624
 31
0.0
  0
LINE
  5
874
330
757
100
AcDbEntity
  8
cotas
100
AcDbLine
 10
1474.812011798796
 20
655.3694917993624
 30
0.0
 11
1474.812011798796
 21
300.3694917993624
 31
0.0
  0
SOLID
  5
875
330
757
100
AcDbEntity
  8
cotas
100
AcDbTrace
 10
1473.145345132129
 20
655.3694917993624
 30
0.0
 11
1476.478678465463
 21
655.3694917993624
 31
0.0
 12
1474.812011798796
 22
665.3694917993624
 32
0.0
 13
1474.812011798796
 23
665.3694917993624
 33
0.0
  0
SOLID
  5
876
330
757
100
AcDbEntity
  8
cotas
100
AcDbTrace
 10
1473.145345132129
 20
300.3694917993624
 30
0.0
 11
1476.478678465463
 21
300.3694917993624
 31
0.0
 12
1474.812011798796
 22
290.3694917993624
 32
0.0
 13
1474.812011798796
 23
290.3694917993624
 33
0.0
  0
MTEXT
  5
877
330
757
100
AcDbEntity
  8
cotas
100
AcDbMText
 10
1464.603818380395
 20
477.8694917993626
 30
0.0
 40
10.0
 41
0.0
 71
     5
 72
     1
  1
375
  7
SANINDUSA
 11
0.0000000000000001
 21
1.0
 31
0.0
 73
     1
 44
1.0
1001
ACAD
1000
MTEXTBEGIN
1070
    73
1070
     1
1070
    44
1040
1.0
1070
    74
1070
     0
1000
MTEXTEND
  0
POINT
  5
878
330
757
100
AcDbEntity
  8
Defpoints
 62
     0
100
AcDbPoint
 10
1455.933813749517
 20
665.3694917993624
 30
0.0
  0
POINT
  5
879
330
757
100
AcDbEntity
  8
Defpoints
 62
     0
100
AcDbPoint
 10
1388.64660987173
 20
290.3694917993624
 30
0.0
  0
POINT
  5
87A
330
757
100
AcDbEntity
  8
Defpoints
 62
     0
100
AcDbPoint
 10
1474.812011798796
 20
290.3694917993624
 30
0.0
  0
ENDBLK
  5
762
330
757
100
AcDbEntity
  8
0
100
AcDbBlockEnd
  0
BLOCK
  5
76F
330
763
100
AcDbEntity
  8
0
100
AcDbBlockBegin
  2
*D48
 70
     1
 10
0.0
 20
0.0
 30
0.0
  3
*D48
  1

  0
LINE
  5
8CA
330
763
100
AcDbEntity
  8
cotas
100
AcDbLine
 10
1628.374808621783
 20
1164.227678908245
 30
0.0
 11
1587.145043897377
 21
1164.227678908245
 31
0.0
  0
LINE
  5
8CB
330
763
100
AcDbEntity
  8
cotas
100
AcDbLine
 10
1641.409394173135
 20
1152.227678908247
 30
0.0
 11
1587.145043897377
 21
1152.227678908247
 31
0.0
  0
LINE
  5
8CC
330
763
100
AcDbEntity
  8
cotas
100
AcDbLine
 10
1592.145043897376
 20
1174.227678908245
 30
0.0
 11
1592.145043897376
 21
1184.227678908245
 31
0.0
  0
LINE
  5
8CD
330
763
100
AcDbEntity
  8
cotas
100
AcDbLine
 10
1592.145043897376
 20
1142.227678908247
 30
0.0
 11
1592.145043897376
 21
1107.499673535514
 31
0.0
  0
LINE
  5
8CE
330
763
100
AcDbEntity
  8
cotas
100
AcDbLine
 10
1592.145043897376
 20
1164.227678908245
 30
0.0
 11
1592.145043897376
 21
1152.227678908247
 31
0.0
  0
SOLID
  5
8CF
330
763
100
AcDbEntity
  8
cotas
100
AcDbTrace
 10
1590.47837723071
 20
1174.227678908245
 30
0.0
 11
1593.811710564043
 21
1174.227678908245
 31
0.0
 12
1592.145043897376
 22
1164.227678908245
 32
0.0
 13
1592.145043897376
 23
1164.227678908245
 33
0.0
  0
SOLID
  5
8D0
330
763
100
AcDbEntity
  8
cotas
100
AcDbTrace
 10
1590.47837723071
 20
1142.227678908247
 30
0.0
 11
1593.811710564043
 21
1142.227678908247
 31
0.0
 12
1592.145043897376
 22
1152.227678908247
 32
0.0
 13
1592.145043897376
 23
1152.227678908247
 33
0.0
  0
MTEXT
  5
8D1
330
763
100
AcDbEntity
  8
cotas
100
AcDbMText
 10
1582.040947188176
 20
1119.86367622188
 30
0.0
 40
10.0
 41
0.0
 71
     5
 72
     1
  1
12
  7
SANINDUSA
 11
0.0000000000000001
 21
1.0
 31
0.0
 73
     1
 44
1.0
1001
ACAD
1000
MTEXTBEGIN
1070
    73
1070
     1
1070
    44
1040
1.0
1070
    74
1070
     0
1000
MTEXTEND
  0
POINT
  5
8D2
330
763
100
AcDbEntity
  8
Defpoints
 62
     0
100
AcDbPoint
 10
1633.374808621783
 20
1164.227678908245
 30
0.0
  0
POINT
  5
8D3
330
763
100
AcDbEntity
  8
Defpoints
 62
     0
100
AcDbPoint
 10
1646.409394173135
 20
1152.227678908247
 30
0.0
  0
POINT
  5
8D4
330
763
100
AcDbEntity
  8
Defpoints
 62
     0
100
AcDbPoint
 10
1592.145043897376
 20
1152.227678908247
 30
0.0
  0
ENDBLK
  5
770
330
763
100
AcDbEntity
  8
0
100
AcDbBlockEnd
  0
BLOCK
  5
77B
330
771
100
AcDbEntity
  8
0
100
AcDbBlockBegin
  2
*D49
 70
     1
 10
0.0
 20
0.0
 30
0.0
  3
*D49
  1

  0
LINE
  5
93E
330
771
100
AcDbEntity
  8
cotas
100
AcDbLine
 10
1660.704178481349
 20
1168.227678908245
 30
0.0
 11
1660.704178481349
 21
1189.766648528362
 31
0.0
  0
LINE
  5
93F
330
771
100
AcDbEntity
  8
cotas
100
AcDbLine
 10
1695.704178481348
 20
1168.227678908245
 30
0.0
 11
1695.704178481348
 21
1189.766648528362
 31
0.0
  0
LINE
  5
940
330
771
100
AcDbEntity
  8
cotas
100
AcDbLine
 10
1670.704178481349
 20
1184.766648528361
 30
0.0
 11
1685.704178481348
 21
1184.766648528361
 31
0.0
  0
SOLID
  5
941
330
771
100
AcDbEntity
  8
cotas
100
AcDbTrace
 10
1670.704178481349
 20
1186.433315195028
 30
0.0
 11
1670.704178481349
 21
1183.099981861695
 31
0.0
 12
1660.704178481349
 22
1184.766648528361
 32
0.0
 13
1660.704178481349
 23
1184.766648528361
 33
0.0
  0
SOLID
  5
942
330
771
100
AcDbEntity
  8
cotas
100
AcDbTrace
 10
1685.704178481348
 20
1186.433315195028
 30
0.0
 11
1685.704178481348
 21
1183.099981861695
 31
0.0
 12
1695.704178481348
 22
1184.766648528361
 32
0.0
 13
1695.704178481348
 23
1184.766648528361
 33
0.0
  0
MTEXT
  5
943
330
771
100
AcDbEntity
  8
cotas
100
AcDbMText
 10
1678.204178481348
 20
1195.367723075037
 30
0.0
 40
10.0
 41
0.0
 71
     5
 72
     1
  1
ø35
  7
SANINDUSA
 73
     1
 44
1.0
1001
ACAD
1000
MTEXTBEGIN
1070
    73
1070
     1
1070
    44
1040
1.0
1070
    74
1070
     0
1000
MTEXTEND
  0
POINT
  5
944
330
771
100
AcDbEntity
  8
Defpoints
 62
     0
100
AcDbPoint
 10
1660.704178481349
 20
1163.227678908246
 30
0.0
  0
POINT
  5
945
330
771
100
AcDbEntity
  8
Defpoints
 62
     0
100
AcDbPoint
 10
1695.704178481348
 20
1163.227678908246
 30
0.0
  0
POINT
  5
946
330
771
100
AcDbEntity
  8
Defpoints
 62
     0
100
AcDbPoint
 10
1695.704178481348
 20
1184.766648528361
 30
0.0
  0
ENDBLK
  5
77C
330
771
100
AcDbEntity
  8
0
100
AcDbBlockEnd
  0
BLOCK
  5
787
330
77D
100
AcDbEntity
  8
0
100
AcDbBlockBegin
  2
*D50
 70
     1
 10
0.0
 20
0.0
 30
0.0
  3
*D50
  1

  0
LINE
  5
77E
330
77D
100
AcDbEntity
  8
cotas
100
AcDbLine
 10
1353.045650011615
 20
1164.227678908245
 30
0.0
 11
1394.210006938809
 21
1164.227678908245
 31
0.0
  0
LINE
  5
77F
330
77D
100
AcDbEntity
  8
cotas
100
AcDbLine
 10
1353.045650011615
 20
1114.227678908245
 30
0.0
 11
1394.210006938809
 21
1114.227678908245
 31
0.0
  0
LINE
  5
780
330
77D
100
AcDbEntity
  8
cotas
100
AcDbLine
 10
1389.210006938809
 20
1154.227678908245
 30
0.0
 11
1389.210006938809
 21
1124.227678908245
 31
0.0
  0
SOLID
  5
781
330
77D
100
AcDbEntity
  8
cotas
100
AcDbTrace
 10
1387.543340272142
 20
1154.227678908245
 30
0.0
 11
1390.876673605475
 21
1154.227678908245
 31
0.0
 12
1389.210006938809
 22
1164.227678908245
 32
0.0
 13
1389.210006938809
 23
1164.227678908245
 33
0.0
  0
SOLID
  5
782
330
77D
100
AcDbEntity
  8
cotas
100
AcDbTrace
 10
1387.543340272142
 20
1124.227678908245
 30
0.0
 11
1390.876673605475
 21
1124.227678908245
 31
0.0
 12
1389.210006938809
 22
1114.227678908245
 32
0.0
 13
1389.210006938809
 23
1114.227678908245
 33
0.0
  0
MTEXT
  5
783
330
77D
100
AcDbEntity
  8
cotas
100
AcDbMText
 10
1379.005171478768
 20
1139.227678908245
 30
0.0
 40
10.0
 41
0.0
 71
     5
 72
     1
  1
50
  7
SANINDUSA
 11
0.0000000000000001
 21
1.0
 31
0.0
 73
     1
 44
1.0
1001
ACAD
1000
MTEXTBEGIN
1070
    73
1070
     1
1070
    44
1040
1.0
1070
    74
1070
     0
1000
MTEXTEND
  0
POINT
  5
784
330
77D
100
AcDbEntity
  8
Defpoints
 62
     0
100
AcDbPoint
 10
1348.045650011615
 20
1164.227678908245
 30
0.0
  0
POINT
  5
785
330
77D
100
AcDbEntity
  8
Defpoints
 62
     0
100
AcDbPoint
 10
1348.045650011615
 20
1114.227678908245
 30
0.0
  0
POINT
  5
786
330
77D
100
AcDbEntity
  8
Defpoints
 62
     0
100
AcDbPoint
 10
1389.210006938809
 20
1114.227678908245
 30
0.0
  0
ENDBLK
  5
788
330
77D
100
AcDbEntity
  8
0
100
AcDbBlockEnd
  0
BLOCK
  5
793
330
789
100
AcDbEntity
  8
0
100
AcDbBlockBegin
  2
*D51
 70
     1
 10
0.0
 20
0.0
 30
0.0
  3
*D51
  1

  0
LINE
  5
78A
330
789
100
AcDbEntity
  8
cotas
100
AcDbLine
 10
923.0456500116149
 20
1159.227678908245
 30
0.0
 11
923.0456500116149
 21
1195.840561846591
 31
0.0
  0
LINE
  5
78B
330
789
100
AcDbEntity
  8
cotas
100
AcDbLine
 10
1353.045650011615
 20
1159.227678908245
 30
0.0
 11
1353.045650011615
 21
1195.840561846591
 31
0.0
  0
LINE
  5
78C
330
789
100
AcDbEntity
  8
cotas
100
AcDbLine
 10
933.0456500116149
 20
1190.840561846591
 30
0.0
 11
1343.045650011615
 21
1190.840561846591
 31
0.0
  0
SOLID
  5
78D
330
789
100
AcDbEntity
  8
cotas
100
AcDbTrace
 10
933.0456500116149
 20
1192.507228513258
 30
0.0
 11
933.0456500116149
 21
1189.173895179924
 31
0.0
 12
923.0456500116149
 22
1190.840561846591
 32
0.0
 13
923.0456500116149
 23
1190.840561846591
 33
0.0
  0
SOLID
  5
78E
330
789
100
AcDbEntity
  8
cotas
100
AcDbTrace
 10
1343.045650011615
 20
1192.507228513258
 30
0.0
 11
1343.045650011615
 21
1189.173895179924
 31
0.0
 12
1353.045650011615
 22
1190.840561846591
 32
0.0
 13
1353.045650011615
 23
1190.840561846591
 33
0.0
  0
MTEXT
  5
78F
330
789
100
AcDbEntity
  8
cotas
100
AcDbMText
 10
1138.045650011615
 20
1201.048755264993
 30
0.0
 40
10.0
 41
0.0
 71
     5
 72
     1
  1
430
  7
SANINDUSA
 73
     1
 44
1.0
1001
ACAD
1000
MTEXTBEGIN
1070
    73
1070
     1
1070
    44
1040
1.0
1070
    74
1070
     0
1000
MTEXTEND
  0
POINT
  5
790
330
789
100
AcDbEntity
  8
Defpoints
 62
     0
100
AcDbPoint
 10
923.0456500116149
 20
1154.227678908245
 30
0.0
  0
POINT
  5
791
330
789
100
AcDbEntity
  8
Defpoints
 62
     0
100
AcDbPoint
 10
1353.045650011615
 20
1154.227678908245
 30
0.0
  0
POINT
  5
792
330
789
100
AcDbEntity
  8
Defpoints
 62
     0
100
AcDbPoint
 10
1353.045650011615
 20
1190.840561846591
 30
0.0
  0
ENDBLK
  5
794
330
789
100
AcDbEntity
  8
0
100
AcDbBlockEnd
  0
BLOCK
  5
79F
330
795
100
AcDbEntity
  8
0
100
AcDbBlockBegin
  2
*D52
 70
     1
 10
0.0
 20
0.0
 30
0.0
  3
*D52
  1

  0
LINE
  5
796
330
795
100
AcDbEntity
  8
cotas
100
AcDbLine
 10
624.7710932848674
 20
1114.227678908245
 30
0.0
 11
654.2797051033537
 21
1114.227678908245
 31
0.0
  0
LINE
  5
797
330
795
100
AcDbEntity
  8
cotas
100
AcDbLine
 10
624.7710872051964
 20
1043.010055555241
 30
0.0
 11
654.2797051033537
 21
1043.010055555241
 31
0.0
  0
LINE
  5
798
330
795
100
AcDbEntity
  8
cotas
100
AcDbLine
 10
649.2797051033537
 20
1104.227678908245
 30
0.0
 11
649.2797051033537
 21
1053.010055555241
 31
0.0
  0
SOLID
  5
799
330
795
100
AcDbEntity
  8
cotas
100
AcDbTrace
 10
647.6130384366871
 20
1104.227678908245
 30
0.0
 11
650.9463717700204
 21
1104.227678908245
 31
0.0
 12
649.2797051033537
 22
1114.227678908245
 32
0.0
 13
649.2797051033537
 23
1114.227678908245
 33
0.0
  0
SOLID
  5
79A
330
795
100
AcDbEntity
  8
cotas
100
AcDbTrace
 10
647.6130384366871
 20
1053.010055555241
 30
0.0
 11
650.9463717700204
 21
1053.010055555241
 31
0.0
 12
649.2797051033537
 22
1043.010055555241
 32
0.0
 13
649.2797051033537
 23
1043.010055555241
 33
0.0
  0
MTEXT
  5
79B
330
795
100
AcDbEntity
  8
cotas
100
AcDbMText
 10
639.262915311547
 20
1078.618867231743
 30
0.0
 40
10.0
 41
0.0
 71
     5
 72
     1
  1
71
  7
SANINDUSA
 11
0.0000000000000001
 21
1.0
 31
0.0
 73
     1
 44
1.0
1001
ACAD
1000
MTEXTBEGIN
1070
    73
1070
     1
1070
    44
1040
1.0
1070
    74
1070
     0
1000
MTEXTEND
  0
POINT
  5
79C
330
795
100
AcDbEntity
  8
Defpoints
 62
     0
100
AcDbPoint
 10
619.7710932848674
 20
1114.227678908245
 30
0.0
  0
POINT
  5
79D
330
795
100
AcDbEntity
  8
Defpoints
 62
     0
100
AcDbPoint
 10
619.7710872051963
 20
1043.010055555241
 30
0.0
  0
POINT
  5
79E
330
795
100
AcDbEntity
  8
Defpoints
 62
     0
100
AcDbPoint
 10
649.2797051033537
 20
1043.010055555241
 30
0.0
  0
ENDBLK
  5
7A0
330
795
100
AcDbEntity
  8
0
100
AcDbBlockEnd
  0
BLOCK
  5
7AA
330
7A1
100
AcDbEntity
  8
0
100
AcDbBlockBegin
  2
*D53
 70
     1
 10
0.0
 20
0.0
 30
0.0
  3
*D53
  1

  0
LINE
  5
7A2
330
7A1
100
AcDbEntity
  8
cotas
100
AcDbLine
 10
624.7710932848674
 20
1164.227678908245
 30
0.0
 11
654.2797051033537
 21
1164.227678908245
 31
0.0
  0
LINE
  5
7A3
330
7A1
100
AcDbEntity
  8
cotas
100
AcDbLine
 10
649.2797051033537
 20
1124.227678908245
 30
0.0
 11
649.2797051033537
 21
1154.227678908245
 31
0.0
  0
SOLID
  5
7A4
330
7A1
100
AcDbEntity
  8
cotas
100
AcDbTrace
 10
647.6130384366871
 20
1124.227678908245
 30
0.0
 11
650.9463717700204
 21
1124.227678908245
 31
0.0
 12
649.2797051033537
 22
1114.227678908245
 32
0.0
 13
649.2797051033537
 23
1114.227678908245
 33
0.0
  0
SOLID
  5
7A5
330
7A1
100
AcDbEntity
  8
cotas
100
AcDbTrace
 10
647.6130384366871
 20
1154.227678908245
 30
0.0
 11
650.9463717700204
 21
1154.227678908245
 31
0.0
 12
649.2797051033537
 22
1164.227678908245
 32
0.0
 13
649.2797051033537
 23
1164.227678908245
 33
0.0
  0
MTEXT
  5
7A6
330
7A1
100
AcDbEntity
  8
cotas
100
AcDbMText
 10
639.0748696433133
 20
1139.227678908245
 30
0.0
 40
10.0
 41
0.0
 71
     5
 72
     1
  1
50
  7
SANINDUSA
 11
0.0000000000000001
 21
1.0
 31
0.0
 73
     1
 44
1.0
1001
ACAD
1000
MTEXTBEGIN
1070
    73
1070
     1
1070
    44
1040
1.0
1070
    74
1070
     0
1000
MTEXTEND
  0
POINT
  5
7A7
330
7A1
100
AcDbEntity
  8
Defpoints
 62
     0
100
AcDbPoint
 10
649.2797051033537
 20
1114.227678908245
 30
0.0
  0
POINT
  5
7A8
330
7A1
100
AcDbEntity
  8
Defpoints
 62
     0
100
AcDbPoint
 10
619.7710932848674
 20
1164.227678908245
 30
0.0
  0
POINT
  5
7A9
330
7A1
100
AcDbEntity
  8
Defpoints
 62
     0
100
AcDbPoint
 10
649.2797051033537
 20
1164.227678908245
 30
0.0
  0
ENDBLK
  5
7AB
330
7A1
100
AcDbEntity
  8
0
100
AcDbBlockEnd
  0
BLOCK
  5
7B6
330
7AC
100
AcDbEntity
  8
0
100
AcDbBlockBegin
  2
*D54
 70
     1
 10
0.0
 20
0.0
 30
0.0
  3
*D54
  1

  0
LINE
  5
959
330
7AC
100
AcDbEntity
  8
cotas
100
AcDbLine
 10
416.4010932848702
 20
1001.227678908245
 30
0.0
 11
682.8464717401049
 21
1001.227678908245
 31
0.0
  0
LINE
  5
95A
330
7AC
100
AcDbEntity
  8
cotas
100
AcDbLine
 10
659.2797051033537
 20
1164.227678908245
 30
0.0
 11
682.8464717401049
 21
1164.227678908245
 31
0.0
  0
LINE
  5
95B
330
7AC
100
AcDbEntity
  8
cotas
100
AcDbLine
 10
677.846471740105
 20
1011.227678908245
 30
0.0
 11
677.846471740105
 21
1154.227678908245
 31
0.0
  0
SOLID
  5
95C
330
7AC
100
AcDbEntity
  8
cotas
100
AcDbTrace
 10
676.1798050734384
 20
1011.227678908245
 30
0.0
 11
679.5131384067716
 21
1011.227678908245
 31
0.0
 12
677.846471740105
 22
1001.227678908245
 32
0.0
 13
677.846471740105
 23
1001.227678908245
 33
0.0
  0
SOLID
  5
95D
330
7AC
100
AcDbEntity
  8
cotas
100
AcDbTrace
 10
676.1798050734384
 20
1154.227678908245
 30
0.0
 11
679.5131384067716
 21
1154.227678908245
 31
0.0
 12
677.846471740105
 22
1164.227678908245
 32
0.0
 13
677.846471740105
 23
1164.227678908245
 33
0.0
  0
MTEXT
  5
95E
330
7AC
100
AcDbEntity
  8
cotas
100
AcDbMText
 10
667.6382783217032
 20
1082.727678908246
 30
0.0
 40
10.0
 41
0.0
 71
     5
 72
     1
  1
163
  7
SANINDUSA
 11
0.0000000000000001
 21
1.0
 31
0.0
 73
     1
 44
1.0
1001
ACAD
1000
MTEXTBEGIN
1070
    73
1070
     1
1070
    44
1040
1.0
1070
    74
1070
     0
1000
MTEXTEND
  0
POINT
  5
95F
330
7AC
100
AcDbEntity
  8
Defpoints
 62
     0
100
AcDbPoint
 10
411.4010932848702
 20
1001.227678908245
 30
0.0
  0
POINT
  5
960
330
7AC
100
AcDbEntity
  8
Defpoints
 62
     0
100
AcDbPoint
 10
654.2797051033537
 20
1164.227678908245
 30
0.0
  0
POINT
  5
961
330
7AC
100
AcDbEntity
  8
Defpoints
 62
     0
100
AcDbPoint
 10
677.846471740105
 20
1164.227678908245
 30
0.0
  0
ENDBLK
  5
7B7
330
7AC
100
AcDbEntity
  8
0
100
AcDbBlockEnd
  0
BLOCK
  5
7BF
330
7B8
100
AcDbEntity
  8
0
100
AcDbBlockBegin
  2
*D55
 70
     1
 10
0.0
 20
0.0
 30
0.0
  3
*D55
  1

  0
LINE
  5
962
330
7B8
100
AcDbEntity
  8
cotas
100
AcDbLine
 10
197.5230487394796
 20
1178.090973718043
 30
0.0
 11
239.1765574100438
 21
1161.592679627862
 31
0.0
  0
MTEXT
  5
963
330
7B8
100
AcDbEntity
  8
cotas
100
AcDbMText
 10
217.4591001313941
 20
1181.170785805775
 30
0.0
 40
10.0
 41
0.0
 71
     5
 72
     1
  1
R10
  7
SANINDUSA
 11
0.9297267937411197
 21
-0.3682500359807961
 31
0.0
 73
     1
 44
1.0
1001
ACAD
1000
MTEXTBEGIN
1070
    73
1070
     1
1070
    44
1040
1.0
1070
    74
1070
     0
1000
MTEXTEND
  0
LINE
  5
964
330
7B8
100
AcDbEntity
  8
cotas
100
AcDbLine
 10
257.7710932848693
 20
1154.227678908245
 30
0.0
 11
248.473825347455
 21
1157.910179268054
 31
0.0
  0
SOLID
  5
965
330
7B8
100
AcDbEntity
  8
cotas
100
AcDbTrace
 10
239.7903074700118
 20
1163.142224284098
 30
0.0
 11
238.5628073500758
 21
1160.043134971627
 31
0.0
 12
248.473825347455
 22
1157.910179268054
 32
0.0
 13
248.473825347455
 23
1157.910179268054
 33
0.0
  0
POINT
  5
966
330
7B8
100
AcDbEntity
  8
Defpoints
 62
     0
100
AcDbPoint
 10
248.473825347455
 20
1157.910179268054
 30
0.0
  0
POINT
  5
967
330
7B8
100
AcDbEntity
  8
Defpoints
 62
     0
100
AcDbPoint
 10
257.7710932848693
 20
1154.227678908245
 30
0.0
  0
ENDBLK
  5
7C0
330
7B8
100
AcDbEntity
  8
0
100
AcDbBlockEnd
  0
BLOCK
  5
7C8
330
7C1
100
AcDbEntity
  8
0
100
AcDbBlockBegin
  2
*D56
 70
     1
 10
0.0
 20
0.0
 30
0.0
  3
*D56
  1

  0
LINE
  5
968
330
7C1
100
AcDbEntity
  8
cotas
100
AcDbLine
 10
211.9502263131009
 20
1078.404847691938
 30
0.0
 11
243.6292607797448
 21
1110.085240172399
 31
0.0
  0
MTEXT
  5
969
330
7C1
100
AcDbEntity
  8
cotas
100
AcDbMText
 10
217.0382224049933
 20
1097.925187939118
 30
0.0
 40
10.0
 41
0.0
 71
     5
 72
     1
  1
R10
  7
SANINDUSA
 11
0.7070916252560765
 21
0.7071219367921775
 31
0.0
 73
     1
 44
1.0
1001
ACAD
1000
MTEXTBEGIN
1070
    73
1070
     1
1070
    44
1040
1.0
1070
    74
1070
     0
1000
MTEXTEND
  0
LINE
  5
96A
330
7C1
100
AcDbEntity
  8
cotas
100
AcDbLine
 10
257.7710932848692
 20
1124.227678908245
 30
0.0
 11
250.7001770323056
 21
1117.15645954032
 31
0.0
  0
SOLID
  5
96B
330
7C1
100
AcDbEntity
  8
cotas
100
AcDbTrace
 10
242.4507242184245
 20
1111.263726214492
 30
0.0
 11
244.8077973410651
 21
1108.906754130305
 31
0.0
 12
250.7001770323056
 22
1117.15645954032
 32
0.0
 13
250.7001770323056
 23
1117.15645954032
 33
0.0
  0
POINT
  5
96C
330
7C1
100
AcDbEntity
  8
Defpoints
 62
     0
100
AcDbPoint
 10
250.7001770323056
 20
1117.15645954032
 30
0.0
  0
POINT
  5
96D
330
7C1
100
AcDbEntity
  8
Defpoints
 62
     0
100
AcDbPoint
 10
257.7710932848692
 20
1124.227678908245
 30
0.0
  0
ENDBLK
  5
7C9
330
7C1
100
AcDbEntity
  8
0
100
AcDbBlockEnd
  0
BLOCK
  5
7D1
330
7CA
100
AcDbEntity
  8
0
100
AcDbBlockBegin
  2
*D57
 70
     1
 10
0.0
 20
0.0
 30
0.0
  3
*D57
  1

  0
LINE
  5
953
330
7CA
100
AcDbEntity
  8
cotas
100
AcDbLine
 10
266.2442286515255
 20
1016.83192846305
 30
0.0
 11
295.9148821790367
 21
1050.310990697463
 31
0.0
  0
MTEXT
  5
954
330
7CA
100
AcDbEntity
  8
cotas
100
AcDbMText
 10
270.1310855827953
 20
1036.593487135879
 30
0.0
 40
10.0
 41
0.0
 71
     5
 72
     1
  1
R65
  7
SANINDUSA
 11
0.6632578156802885
 21
0.7483909873448587
 31
0.0
 73
     1
 44
1.0
1001
ACAD
1000
MTEXTBEGIN
1070
    73
1070
     1
1070
    44
1040
1.0
1070
    74
1070
     0
1000
MTEXTEND
  0
LINE
  5
955
330
7CA
100
AcDbEntity
  8
cotas
100
AcDbLine
 10
345.6458846390304
 20
1106.42526956881
 30
0.0
 11
302.5474603358396
 21
1057.794900570912
 31
0.0
  0
SOLID
  5
956
330
7CA
100
AcDbEntity
  8
cotas
100
AcDbTrace
 10
294.6675638667953
 20
1051.416420390264
 30
0.0
 11
297.1622004912782
 21
1049.205561004662
 31
0.0
 12
302.5474603358396
 22
1057.794900570912
 32
0.0
 13
302.5474603358396
 23
1057.794900570912
 33
0.0
  0
POINT
  5
957
330
7CA
100
AcDbEntity
  8
Defpoints
 62
     0
100
AcDbPoint
 10
302.5474603358396
 20
1057.794900570912
 30
0.0
  0
POINT
  5
958
330
7CA
100
AcDbEntity
  8
Defpoints
 62
     0
100
AcDbPoint
 10
345.6458846390304
 20
1106.42526956881
 30
0.0
  0
ENDBLK
  5
7D2
330
7CA
100
AcDbEntity
  8
0
100
AcDbBlockEnd
  0
BLOCK
  5
7DD
330
7D3
100
AcDbEntity
  8
0
100
AcDbBlockBegin
  2
*D58
 70
     1
 10
0.0
 20
0.0
 30
0.0
  3
*D58
  1

  0
LINE
  5
7D4
330
7D3
100
AcDbEntity
  8
cotas
100
AcDbLine
 10
247.7710932848693
 20
1144.227678908245
 30
0.0
 11
247.7710932848693
 21
1200.334387673359
 31
0.0
  0
LINE
  5
7D5
330
7D3
100
AcDbEntity
  8
cotas
100
AcDbLine
 10
622.7710932848692
 20
1144.227678908245
 30
0.0
 11
622.7710932848692
 21
1200.334387673359
 31
0.0
  0
LINE
  5
7D6
330
7D3
100
AcDbEntity
  8
cotas
100
AcDbLine
 10
257.7710932848693
 20
1195.334387673359
 30
0.0
 11
612.7710932848692
 21
1195.334387673359
 31
0.0
  0
SOLID
  5
7D7
330
7D3
100
AcDbEntity
  8
cotas
100
AcDbTrace
 10
257.7710932848693
 20
1197.001054340026
 30
0.0
 11
257.7710932848693
 21
1193.667721006692
 31
0.0
 12
247.7710932848693
 22
1195.334387673359
 32
0.0
 13
247.7710932848693
 23
1195.334387673359
 33
0.0
  0
SOLID
  5
7D8
330
7D3
100
AcDbEntity
  8
cotas
100
AcDbTrace
 10
612.7710932848692
 20
1197.001054340026
 30
0.0
 11
612.7710932848692
 21
1193.667721006692
 31
0.0
 12
622.7710932848692
 22
1195.334387673359
 32
0.0
 13
622.7710932848692
 23
1195.334387673359
 33
0.0
  0
MTEXT
  5
7D9
330
7D3
100
AcDbEntity
  8
cotas
100
AcDbMText
 10
435.2710932848692
 20
1205.54258109176
 30
0.0
 40
10.0
 41
0.0
 71
     5
 72
     1
  1
375
  7
SANINDUSA
 73
     1
 44
1.0
1001
ACAD
1000
MTEXTBEGIN
1070
    73
1070
     1
1070
    44
1040
1.0
1070
    74
1070
     0
1000
MTEXTEND
  0
POINT
  5
7DA
330
7D3
100
AcDbEntity
  8
Defpoints
 62
     0
100
AcDbPoint
 10
247.7710932848693
 20
1139.227678908245
 30
0.0
  0
POINT
  5
7DB
330
7D3
100
AcDbEntity
  8
Defpoints
 62
     0
100
AcDbPoint
 10
622.7710932848692
 20
1139.227678908245
 30
0.0
  0
POINT
  5
7DC
330
7D3
100
AcDbEntity
  8
Defpoints
 62
     0
100
AcDbPoint
 10
622.7710932848692
 20
1195.334387673359
 30
0.0
  0
ENDBLK
  5
7DE
330
7D3
100
AcDbEntity
  8
0
100
AcDbBlockEnd
  0
BLOCK
  5
7E9
330
7DF
100
AcDbEntity
  8
0
100
AcDbBlockBegin
  2
*D59
 70
     1
 10
0.0
 20
0.0
 30
0.0
  3
*D59
  1

  0
LINE
  5
7E0
330
7DF
100
AcDbEntity
  8
cotas
100
AcDbLine
 10
950.4559152189056
 20
1109.227678163187
 30
0.0
 11
950.4559152189056
 21
970.6393228956248
 31
0.0
  0
LINE
  5
7E1
330
7DF
100
AcDbEntity
  8
cotas
100
AcDbLine
 10
1325.635384804324
 20
1109.227678163187
 30
0.0
 11
1325.635384804324
 21
970.6393228956248
 31
0.0
  0
LINE
  5
7E2
330
7DF
100
AcDbEntity
  8
cotas
100
AcDbLine
 10
960.4559152189056
 20
975.6393228956248
 30
0.0
 11
1315.635384804324
 21
975.6393228956248
 31
0.0
  0
SOLID
  5
7E3
330
7DF
100
AcDbEntity
  8
cotas
100
AcDbTrace
 10
960.4559152189056
 20
977.3059895622914
 30
0.0
 11
960.4559152189056
 21
973.9726562289581
 31
0.0
 12
950.4559152189056
 22
975.6393228956248
 32
0.0
 13
950.4559152189056
 23
975.6393228956248
 33
0.0
  0
SOLID
  5
7E4
330
7DF
100
AcDbEntity
  8
cotas
100
AcDbTrace
 10
1315.635384804324
 20
977.3059895622914
 30
0.0
 11
1315.635384804324
 21
973.9726562289581
 31
0.0
 12
1325.635384804324
 22
975.6393228956248
 32
0.0
 13
1325.635384804324
 23
975.6393228956248
 33
0.0
  0
MTEXT
  5
7E5
330
7DF
100
AcDbEntity
  8
cotas
100
AcDbMText
 10
1138.045650011615
 20
985.8475163140264
 30
0.0
 40
10.0
 41
0.0
 71
     5
 72
     1
  1
375
  7
SANINDUSA
 73
     1
 44
1.0
1001
ACAD
1000
MTEXTBEGIN
1070
    73
1070
     1
1070
    44
1040
1.0
1070
    74
1070
     0
1000
MTEXTEND
  0
POINT
  5
7E6
330
7DF
100
AcDbEntity
  8
Defpoints
 62
     0
100
AcDbPoint
 10
950.4559152189056
 20
1114.227678163187
 30
0.0
  0
POINT
  5
7E7
330
7DF
100
AcDbEntity
  8
Defpoints
 62
     0
100
AcDbPoint
 10
1325.635384804324
 20
1114.227678163187
 30
0.0
  0
POINT
  5
7E8
330
7DF
100
AcDbEntity
  8
Defpoints
 62
     0
100
AcDbPoint
 10
1325.635384804324
 20
975.6393228956248
 30
0.0
  0
ENDBLK
  5
7EA
330
7DF
100
AcDbEntity
  8
0
100
AcDbBlockEnd
  0
BLOCK
  5
7F2
330
7EB
100
AcDbEntity
  8
0
100
AcDbBlockBegin
  2
*D60
 70
     1
 10
0.0
 20
0.0
 30
0.0
  3
*D60
  1

  0
LINE
  5
96E
330
7EB
100
AcDbEntity
  8
cotas
100
AcDbLine
 10
961.8783243011185
 20
1002.085102533273
 30
0.0
 11
983.2933017796802
 21
1041.360973350328
 31
0.0
  0
MTEXT
  5
96F
330
7EB
100
AcDbEntity
  8
cotas
100
AcDbMText
 10
961.2385888145343
 20
1022.215119833093
 30
0.0
 40
10.0
 41
0.0
 71
     5
 72
     1
  1
R65
  7
SANINDUSA
 11
0.4787104258456449
 21
0.8779728516228059
 31
0.0
 73
     1
 44
1.0
1001
ACAD
1000
MTEXTBEGIN
1070
    73
1070
     1
1070
    44
1040
1.0
1070
    74
1070
     0
1000
MTEXTEND
  0
LINE
  5
970
330
7EB
100
AcDbEntity
  8
cotas
100
AcDbLine
 10
1019.197788523767
 20
1107.211146880753
 30
0.0
 11
988.0804060381366
 21
1050.140701866556
 31
0.0
  0
SOLID
  5
971
330
7EB
100
AcDbEntity
  8
cotas
100
AcDbTrace
 10
981.830013693642
 20
1042.158824060071
 30
0.0
 11
984.7565898657181
 21
1040.563122640586
 31
0.0
 12
988.0804060381366
 22
1050.140701866556
 32
0.0
 13
988.0804060381366
 23
1050.140701866556
 33
0.0
  0
POINT
  5
972
330
7EB
100
AcDbEntity
  8
Defpoints
 62
     0
100
AcDbPoint
 10
988.0804060381366
 20
1050.140701866556
 30
0.0
  0
POINT
  5
973
330
7EB
100
AcDbEntity
  8
Defpoints
 62
     0
100
AcDbPoint
 10
1019.197788523767
 20
1107.211146880753
 30
0.0
  0
ENDBLK
  5
7F3
330
7EB
100
AcDbEntity
  8
0
100
AcDbBlockEnd
  0
BLOCK
  5
7FB
330
7F4
100
AcDbEntity
  8
0
100
AcDbBlockBegin
  2
*D61
 70
     1
 10
0.0
 20
0.0
 30
0.0
  3
*D61
  1

  0
LINE
  5
980
330
7F4
100
AcDbEntity
  8
cotas
100
AcDbLine
 10
1315.140222090248
 20
1002.595478877724
 30
0.0
 11
1293.379068293869
 21
1041.680609992965
 31
0.0
  0
MTEXT
  5
981
330
7F4
100
AcDbEntity
  8
cotas
100
AcDbMText
 10
1315.602078850653
 20
1022.730362694541
 30
0.0
 40
10.0
 41
0.0
 71
     5
 72
     1
  1
R65
  7
SANINDUSA
 11
0.4864488515659612
 21
-0.8737090561566576
 31
0.0
 73
     1
 44
1.0
1001
ACAD
1000
MTEXTBEGIN
1070
    73
1070
     1
1070
    44
1040
1.0
1070
    74
1070
     0
1000
MTEXTEND
  0
LINE
  5
982
330
7F4
100
AcDbEntity
  8
cotas
100
AcDbLine
 10
1256.895262252702
 20
1107.209044562427
 30
0.0
 11
1288.514579778209
 21
1050.417700554532
 31
0.0
  0
SOLID
  5
983
330
7F4
100
AcDbEntity
  8
cotas
100
AcDbTrace
 10
1294.83525005413
 20
1042.491358078909
 30
0.0
 11
1291.922886533608
 21
1040.869861907022
 31
0.0
 12
1288.514579778209
 22
1050.417700554532
 32
0.0
 13
1288.514579778209
 23
1050.417700554532
 33
0.0
  0
POINT
  5
984
330
7F4
100
AcDbEntity
  8
Defpoints
 62
     0
100
AcDbPoint
 10
1288.514579778209
 20
1050.417700554532
 30
0.0
  0
POINT
  5
985
330
7F4
100
AcDbEntity
  8
Defpoints
 62
     0
100
AcDbPoint
 10
1256.895262252702
 20
1107.209044562427
 30
0.0
  0
ENDBLK
  5
7FC
330
7F4
100
AcDbEntity
  8
0
100
AcDbBlockEnd
  0
BLOCK
  5
804
330
7FD
100
AcDbEntity
  8
0
100
AcDbBlockBegin
  2
*D62
 70
     1
 10
0.0
 20
0.0
 30
0.0
  3
*D62
  1

  0
LINE
  5
974
330
7FD
100
AcDbEntity
  8
cotas
100
AcDbLine
 10
879.3610699620579
 20
1174.388573370395
 30
0.0
 11
913.7240155643779
 21
1163.687587736852
 31
0.0
  0
MTEXT
  5
975
330
7FD
100
AcDbEntity
  8
cotas
100
AcDbMText
 10
894.772887955369
 20
1180.171862129079
 30
0.0
 40
10.0
 41
0.0
 71
     5
 72
     1
  1
R5
  7
SANINDUSA
 11
0.9547756298162825
 21
-0.2973272552406206
 31
0.0
 73
     1
 44
1.0
1001
ACAD
1000
MTEXTBEGIN
1070
    73
1070
     1
1070
    44
1040
1.0
1070
    74
1070
     0
1000
MTEXTEND
  0
LINE
  5
976
330
7FD
100
AcDbEntity
  8
cotas
100
AcDbLine
 10
928.045650011615
 20
1159.227678908245
 30
0.0
 11
923.2717718625409
 21
1160.714315184446
 31
0.0
  0
SOLID
  5
977
330
7FD
100
AcDbEntity
  8
cotas
100
AcDbTrace
 10
914.219560989779
 20
1165.278880453213
 30
0.0
 11
913.2284701389767
 21
1162.096295020492
 31
0.0
 12
923.2717718625409
 22
1160.714315184446
 32
0.0
 13
923.2717718625409
 23
1160.714315184446
 33
0.0
  0
POINT
  5
978
330
7FD
100
AcDbEntity
  8
Defpoints
 62
     0
100
AcDbPoint
 10
923.2717718625409
 20
1160.714315184446
 30
0.0
  0
POINT
  5
979
330
7FD
100
AcDbEntity
  8
Defpoints
 62
     0
100
AcDbPoint
 10
928.045650011615
 20
1159.227678908245
 30
0.0
  0
ENDBLK
  5
805
330
7FD
100
AcDbEntity
  8
0
100
AcDbBlockEnd
  0
BLOCK
  5
80D
330
806
100
AcDbEntity
  8
0
100
AcDbBlockBegin
  2
*D63
 70
     1
 10
0.0
 20
0.0
 30
0.0
  3
*D63
  1

  0
LINE
  5
97A
330
806
100
AcDbEntity
  8
cotas
100
AcDbLine
 10
893.7242197928267
 20
1081.517196503067
 30
0.0
 11
917.9492503548951
 21
1108.134315397946
 31
0.0
  0
MTEXT
  5
97B
330
806
100
AcDbEntity
  8
cotas
100
AcDbMText
 10
894.9987073390586
 20
1097.928968016824
 30
0.0
 40
10.0
 41
0.0
 71
     5
 72
     1
  1
R5
  7
SANINDUSA
 11
0.6730933104482256
 21
0.7395575673535148
 31
0.0
 73
     1
 44
1.0
1001
ACAD
1000
MTEXTBEGIN
1070
    73
1070
     1
1070
    44
1040
1.0
1070
    74
1070
     0
1000
MTEXTEND
  0
LINE
  5
97C
330
806
100
AcDbEntity
  8
cotas
100
AcDbLine
 10
928.045650011615
 20
1119.227678908245
 30
0.0
 11
924.6801834593775
 21
1115.529891071481
 31
0.0
  0
SOLID
  5
97D
330
806
100
AcDbEntity
  8
cotas
100
AcDbTrace
 10
916.716654409306
 20
1109.256137582027
 30
0.0
 11
919.1818463004844
 21
1107.012493213866
 31
0.0
 12
924.6801834593775
 22
1115.529891071481
 32
0.0
 13
924.6801834593775
 23
1115.529891071481
 33
0.0
  0
POINT
  5
97E
330
806
100
AcDbEntity
  8
Defpoints
 62
     0
100
AcDbPoint
 10
924.6801834593775
 20
1115.529891071481
 30
0.0
  0
POINT
  5
97F
330
806
100
AcDbEntity
  8
Defpoints
 62
     0
100
AcDbPoint
 10
928.045650011615
 20
1119.227678908245
 30
0.0
  0
ENDBLK
  5
80E
330
806
100
AcDbEntity
  8
0
100
AcDbBlockEnd
  0
BLOCK
  5
816
330
80F
100
AcDbEntity
  8
0
100
AcDbBlockBegin
  2
*D64
 70
     1
 10
0.0
 20
0.0
 30
0.0
  3
*D64
  1

  0
LINE
  5
98C
330
80F
100
AcDbEntity
  8
cotas
100
AcDbLine
 10
1388.133270134488
 20
1190.739958552534
 30
0.0
 11
1359.838300593698
 21
1168.49770545886
 31
0.0
  0
MTEXT
  5
98D
330
80F
100
AcDbEntity
  8
cotas
100
AcDbMText
 10
1371.672319240504
 20
1190.652446318509
 30
0.0
 40
10.0
 41
0.0
 71
     5
 72
     1
  1
R5
  7
SANINDUSA
 11
0.786176705471851
 21
0.6180017700406906
 31
0.0
 73
     1
 44
1.0
1001
ACAD
1000
MTEXTBEGIN
1070
    73
1070
     1
1070
    44
1040
1.0
1070
    74
1070
     0
1000
MTEXTEND
  0
LINE
  5
98E
330
80F
100
AcDbEntity
  8
cotas
100
AcDbLine
 10
1348.045650011615
 20
1159.227678908245
 30
0.0
 11
1351.976533538979
 21
1162.317687758453
 31
0.0
  0
SOLID
  5
98F
330
80F
100
AcDbEntity
  8
cotas
100
AcDbTrace
 10
1358.80829764363
 20
1169.80799996798
 30
0.0
 11
1360.868303543766
 21
1167.18741094974
 31
0.0
 12
1351.976533538979
 22
1162.317687758453
 32
0.0
 13
1351.976533538979
 23
1162.317687758453
 33
0.0
  0
POINT
  5
990
330
80F
100
AcDbEntity
  8
Defpoints
 62
     0
100
AcDbPoint
 10
1351.976533538979
 20
1162.317687758453
 30
0.0
  0
POINT
  5
991
330
80F
100
AcDbEntity
  8
Defpoints
 62
     0
100
AcDbPoint
 10
1348.045650011615
 20
1159.227678908245
 30
0.0
  0
ENDBLK
  5
817
330
80F
100
AcDbEntity
  8
0
100
AcDbBlockEnd
  0
BLOCK
  5
81F
330
818
100
AcDbEntity
  8
0
100
AcDbBlockBegin
  2
*D65
 70
     1
 10
0.0
 20
0.0
 30
0.0
  3
*D65
  1

  0
LINE
  5
986
330
818
100
AcDbEntity
  8
cotas
100
AcDbLine
 10
1372.876771967862
 20
1074.691666088407
 30
0.0
 11
1355.35026784359
 21
1106.126436282877
 31
0.0
  0
MTEXT
  5
987
330
818
100
AcDbEntity
  8
cotas
100
AcDbMText
 10
1375.373474016214
 20
1090.962407977055
 30
0.0
 40
10.0
 41
0.0
 71
     5
 72
     1
  1
R5
  7
SANINDUSA
 11
0.486974522131746
 21
-0.8734161750245743
 31
0.0
 73
     1
 44
1.0
1001
ACAD
1000
MTEXTBEGIN
1070
    73
1070
     1
1070
    44
1040
1.0
1070
    74
1070
     0
1000
MTEXTEND
  0
LINE
  5
988
330
818
100
AcDbEntity
  8
cotas
100
AcDbLine
 10
1348.045650011615
 20
1119.227678908245
 30
0.0
 11
1350.480522622273
 21
1114.860598033123
 31
0.0
  0
SOLID
  5
989
330
818
100
AcDbEntity
  8
cotas
100
AcDbTrace
 10
1356.805961468632
 20
1106.93806048643
 30
0.0
 11
1353.894574218549
 21
1105.314812079325
 31
0.0
 12
1350.480522622273
 22
1114.860598033123
 32
0.0
 13
1350.480522622273
 23
1114.860598033123
 33
0.0
  0
POINT
  5
98A
330
818
100
AcDbEntity
  8
Defpoints
 62
     0
100
AcDbPoint
 10
1350.480522622273
 20
1114.860598033123
 30
0.0
  0
POINT
  5
98B
330
818
100
AcDbEntity
  8
Defpoints
 62
     0
100
AcDbPoint
 10
1348.045650011615
 20
1119.227678908245
 30
0.0
  0
ENDBLK
  5
820
330
818
100
AcDbEntity
  8
0
100
AcDbBlockEnd
  0
BLOCK
  5
82A
330
821
100
AcDbEntity
  8
0
100
AcDbBlockBegin
  2
*D66
 70
     1
 10
0.0
 20
0.0
 30
0.0
  3
*D66
  1

  0
LINE
  5
9D3
330
821
100
AcDbEntity
  8
cotas
100
AcDbLine
 10
1209.953079137956
 20
635.3000468613777
 30
0.0
 11
1164.74341226165
 21
624.1340199402639
 31
0.0
  0
LINE
  5
9D4
330
821
100
AcDbEntity
  8
cotas
100
AcDbLine
 10
1111.347887761578
 20
610.946223939332
 30
0.0
 11
1101.639610579747
 21
608.5484428482534
 31
0.0
  0
MTEXT
  5
9D5
330
821
100
AcDbEntity
  8
cotas
100
AcDbMText
 10
1189.588819004741
 20
641.4978808745752
 30
0.0
 40
10.0
 41
0.0
 71
     5
 72
     1
  1
\U+220535
  7
SANINDUSA
 11
0.9708277181831299
 21
0.2397781091078532
 31
0.0
 73
     1
 44
1.0
1001
ACAD
1000
MTEXTBEGIN
1070
    73
1070
     1
1070
    44
1040
1.0
1070
    74
1070
     0
1000
MTEXTEND
  0
LINE
  5
9D6
330
821
100
AcDbEntity
  8
cotas
100
AcDbLine
 10
1121.05616494341
 20
613.3440050304105
 30
0.0
 11
1155.035135079819
 21
621.7362388491854
 31
0.0
  0
SOLID
  5
9D7
330
821
100
AcDbEntity
  8
cotas
100
AcDbTrace
 10
1110.948257579732
 20
612.5642701363038
 30
0.0
 11
1111.747517943425
 21
609.3281777423601
 31
0.0
 12
1121.05616494341
 22
613.3440050304105
 32
0.0
 13
1121.05616494341
 23
613.3440050304105
 33
0.0
  0
SOLID
  5
9D8
330
821
100
AcDbEntity
  8
cotas
100
AcDbTrace
 10
1164.343782079804
 20
625.7520661372358
 30
0.0
 11
1165.143042443497
 21
622.515973743292
 31
0.0
 12
1155.035135079819
 22
621.7362388491854
 32
0.0
 13
1155.035135079819
 23
621.7362388491854
 33
0.0
  0
POINT
  5
9D9
330
821
100
AcDbEntity
  8
Defpoints
 62
     0
100
AcDbPoint
 10
1155.035135079819
 20
621.7362388491854
 30
0.0
  0
POINT
  5
9DA
330
821
100
AcDbEntity
  8
Defpoints
 62
     0
100
AcDbPoint
 10
1121.05616494341
 20
613.3440050304105
 30
0.0
  0
ENDBLK
  5
82B
330
821
100
AcDbEntity
  8
0
100
AcDbBlockEnd
  0
BLOCK
  5
836
330
82C
100
AcDbEntity
  8
0
100
AcDbBlockBegin
  2
*D67
 70
     1
 10
0.0
 20
0.0
 30
0.0
  3
*D67
  1

  0
LINE
  5
82D
330
82C
100
AcDbEntity
  8
cotas
100
AcDbLine
 10
1167.957790381652
 20
617.540121939798
 30
0.0
 11
1388.511474736595
 21
617.5401219397979
 31
0.0
  0
LINE
  5
82E
330
82C
100
AcDbEntity
  8
cotas
100
AcDbLine
 10
1353.045650011615
 20
665.3694917993624
 30
0.0
 11
1388.511474736595
 21
665.3694917993624
 31
0.0
  0
LINE
  5
82F
330
82C
100
AcDbEntity
  8
cotas
100
AcDbLine
 10
1383.511474736595
 20
627.5401219397979
 30
0.0
 11
1383.511474736595
 21
655.3694917993624
 31
0.0
  0
SOLID
  5
830
330
82C
100
AcDbEntity
  8
cotas
100
AcDbTrace
 10
1381.844808069928
 20
627.5401219397979
 30
0.0
 11
1385.178141403262
 21
627.5401219397979
 31
0.0
 12
1383.511474736595
 22
617.5401219397979
 32
0.0
 13
1383.511474736595
 23
617.5401219397979
 33
0.0
  0
SOLID
  5
831
330
82C
100
AcDbEntity
  8
cotas
100
AcDbTrace
 10
1381.844808069928
 20
655.3694917993624
 30
0.0
 11
1385.178141403262
 21
655.3694917993624
 31
0.0
 12
1383.511474736595
 22
665.3694917993624
 32
0.0
 13
1383.511474736595
 23
665.3694917993624
 33
0.0
  0
MTEXT
  5
832
330
82C
100
AcDbEntity
  8
cotas
100
AcDbMText
 10
1373.283133568025
 20
641.4548068695804
 30
0.0
 40
10.0
 41
0.0
 71
     5
 72
     1
  1
48
  7
SANINDUSA
 11
0.0000000000000001
 21
1.0
 31
0.0
 73
     1
 44
1.0
1001
ACAD
1000
MTEXTBEGIN
1070
    73
1070
     1
1070
    44
1040
1.0
1070
    74
1070
     0
1000
MTEXTEND
  0
POINT
  5
833
330
82C
100
AcDbEntity
  8
Defpoints
 62
     0
100
AcDbPoint
 10
1162.957790381652
 20
617.540121939798
 30
0.0
  0
POINT
  5
834
330
82C
100
AcDbEntity
  8
Defpoints
 62
     0
100
AcDbPoint
 10
1348.045650011615
 20
665.3694917993624
 30
0.0
  0
POINT
  5
835
330
82C
100
AcDbEntity
  8
Defpoints
 62
     0
100
AcDbPoint
 10
1383.511474736595
 20
665.3694917993624
 30
0.0
  0
ENDBLK
  5
837
330
82C
100
AcDbEntity
  8
0
100
AcDbBlockEnd
  0
BLOCK
  5
842
330
838
100
AcDbEntity
  8
0
100
AcDbBlockBegin
  2
*D68
 70
     1
 10
0.0
 20
0.0
 30
0.0
  3
*D68
  1

  0
LINE
  5
839
330
838
100
AcDbEntity
  8
cotas
100
AcDbLine
 10
1167.957790381652
 20
617.540121939798
 30
0.0
 11
1388.511474736595
 21
617.5401219397979
 31
0.0
  0
LINE
  5
83A
330
838
100
AcDbEntity
  8
cotas
100
AcDbLine
 10
1143.045650011615
 20
564.4244413005168
 30
0.0
 11
1388.511474736595
 21
564.4244413005167
 31
0.0
  0
LINE
  5
83B
330
838
100
AcDbEntity
  8
cotas
100
AcDbLine
 10
1383.511474736595
 20
607.5401219397979
 30
0.0
 11
1383.511474736595
 21
574.4244413005167
 31
0.0
  0
SOLID
  5
83C
330
838
100
AcDbEntity
  8
cotas
100
AcDbTrace
 10
1381.844808069928
 20
607.5401219397979
 30
0.0
 11
1385.178141403262
 21
607.5401219397979
 31
0.0
 12
1383.511474736595
 22
617.5401219397979
 32
0.0
 13
1383.511474736595
 23
617.5401219397979
 33
0.0
  0
SOLID
  5
83D
330
838
100
AcDbEntity
  8
cotas
100
AcDbTrace
 10
1381.844808069928
 20
574.4244413005167
 30
0.0
 11
1385.178141403262
 21
574.4244413005167
 31
0.0
 12
1383.511474736595
 22
564.4244413005167
 32
0.0
 13
1383.511474736595
 23
564.4244413005167
 33
0.0
  0
MTEXT
  5
83E
330
838
100
AcDbEntity
  8
cotas
100
AcDbMText
 10
1373.303281318193
 20
590.9822816201575
 30
0.0
 40
10.0
 41
0.0
 71
     5
 72
     1
  1
53
  7
SANINDUSA
 11
0.0000000000000001
 21
1.0
 31
0.0
 73
     1
 44
1.0
1001
ACAD
1000
MTEXTBEGIN
1070
    73
1070
     1
1070
    44
1040
1.0
1070
    74
1070
     0
1000
MTEXTEND
  0
POINT
  5
83F
330
838
100
AcDbEntity
  8
Defpoints
 62
     0
100
AcDbPoint
 10
1162.957790381652
 20
617.540121939798
 30
0.0
  0
POINT
  5
840
330
838
100
AcDbEntity
  8
Defpoints
 62
     0
100
AcDbPoint
 10
1138.045650011615
 20
564.4244413005168
 30
0.0
  0
POINT
  5
841
330
838
100
AcDbEntity
  8
Defpoints
 62
     0
100
AcDbPoint
 10
1383.511474736595
 20
564.4244413005167
 30
0.0
  0
ENDBLK
  5
843
330
838
100
AcDbEntity
  8
0
100
AcDbBlockEnd
  0
BLOCK
  5
84E
330
844
100
AcDbEntity
  8
0
100
AcDbBlockBegin
  2
*D69
 70
     1
 10
0.0
 20
0.0
 30
0.0
  3
*D69
  1

  0
LINE
  5
9CA
330
844
100
AcDbEntity
  8
cotas
100
AcDbLine
 10
1393.511474736595
 20
617.540121939798
 30
0.0
 11
1422.743135661763
 21
617.540121939798
 31
0.0
  0
LINE
  5
9CB
330
844
100
AcDbEntity
  8
cotas
100
AcDbLine
 10
7494.461082938487
 20
453.9994460274368
 30
0.0
 11
1412.743135661763
 21
453.9994460274385
 31
0.0
  0
LINE
  5
9CC
330
844
100
AcDbEntity
  8
cotas
100
AcDbLine
 10
1417.743135661763
 20
607.540121939798
 30
0.0
 11
1417.743135661763
 21
463.9994460274386
 31
0.0
  0
SOLID
  5
9CD
330
844
100
AcDbEntity
  8
cotas
100
AcDbTrace
 10
1416.076468995097
 20
607.540121939798
 30
0.0
 11
1419.40980232843
 21
607.540121939798
 31
0.0
 12
1417.743135661763
 22
617.540121939798
 32
0.0
 13
1417.743135661763
 23
617.540121939798
 33
0.0
  0
SOLID
  5
9CE
330
844
100
AcDbEntity
  8
cotas
100
AcDbTrace
 10
1416.076468995096
 20
463.9994460274386
 30
0.0
 11
1419.40980232843
 21
463.9994460274386
 31
0.0
 12
1417.743135661763
 22
453.9994460274385
 32
0.0
 13
1417.743135661763
 23
453.9994460274385
 33
0.0
  0
MTEXT
  5
9CF
330
844
100
AcDbEntity
  8
cotas
100
AcDbMText
 10
1407.545016118445
 20
535.7697839836186
 30
0.0
 40
10.0
 41
0.0
 71
     5
 72
     1
  1
164
  7
SANINDUSA
 11
0.0000000000000001
 21
1.0
 31
0.0
 73
     1
 44
1.0
1001
ACAD
1000
MTEXTBEGIN
1070
    73
1070
     1
1070
    44
1040
1.0
1070
    74
1070
     0
1000
MTEXTEND
  0
POINT
  5
9D0
330
844
100
AcDbEntity
  8
Defpoints
 62
     0
100
AcDbPoint
 10
1388.511474736595
 20
617.540121939798
 30
0.0
  0
POINT
  5
9D1
330
844
100
AcDbEntity
  8
Defpoints
 62
     0
100
AcDbPoint
 10
7499.461082938488
 20
453.9994460274368
 30
0.0
  0
POINT
  5
9D2
330
844
100
AcDbEntity
  8
Defpoints
 62
     0
100
AcDbPoint
 10
1417.743135661763
 20
453.9994460274385
 30
0.0
  0
ENDBLK
  5
84F
330
844
100
AcDbEntity
  8
0
100
AcDbBlockEnd
  0
BLOCK
  5
863
330
859
100
AcDbEntity
  8
0
100
AcDbBlockBegin
  2
*D70
 70
     1
 10
0.0
 20
0.0
 30
0.0
  3
*D70
  1

  0
LINE
  5
85A
330
859
100
AcDbEntity
  8
cotas
100
AcDbLine
 10
1208.695650011615
 20
318.1145422982098
 30
0.0
 11
1388.646609871729
 21
318.1145422982098
 31
0.0
  0
LINE
  5
85B
330
859
100
AcDbEntity
  8
cotas
100
AcDbLine
 10
1383.511474736595
 20
564.4244413005168
 30
0.0
 11
1378.64660987173
 21
564.4244413005168
 31
0.0
  0
LINE
  5
85C
330
859
100
AcDbEntity
  8
cotas
100
AcDbLine
 10
1383.646609871729
 20
328.1145422982098
 30
0.0
 11
1383.64660987173
 21
554.4244413005168
 31
0.0
  0
SOLID
  5
85D
330
859
100
AcDbEntity
  8
cotas
100
AcDbTrace
 10
1381.979943205063
 20
328.1145422982098
 30
0.0
 11
1385.313276538396
 21
328.1145422982098
 31
0.0
 12
1383.646609871729
 22
318.1145422982098
 32
0.0
 13
1383.646609871729
 23
318.1145422982098
 33
0.0
  0
SOLID
  5
85E
330
859
100
AcDbEntity
  8
cotas
100
AcDbTrace
 10
1381.979943205063
 20
554.4244413005168
 30
0.0
 11
1385.313276538396
 21
554.4244413005168
 31
0.0
 12
1383.64660987173
 22
564.4244413005168
 32
0.0
 13
1383.64660987173
 23
564.4244413005168
 33
0.0
  0
MTEXT
  5
85F
330
859
100
AcDbEntity
  8
cotas
100
AcDbMText
 10
1373.438416453328
 20
441.2694917993635
 30
0.0
 40
10.0
 41
0.0
 71
     5
 72
     1
  1
246
  7
SANINDUSA
 11
0.0000000000000001
 21
1.0
 31
0.0
 73
     1
 44
1.0
1001
ACAD
1000
MTEXTBEGIN
1070
    73
1070
     1
1070
    44
1040
1.0
1070
    74
1070
     0
1000
MTEXTEND
  0
POINT
  5
860
330
859
100
AcDbEntity
  8
Defpoints
 62
     0
100
AcDbPoint
 10
1203.695650011615
 20
318.1145422982098
 30
0.0
  0
POINT
  5
861
330
859
100
AcDbEntity
  8
Defpoints
 62
     0
100
AcDbPoint
 10
1388.511474736595
 20
564.4244413005168
 30
0.0
  0
POINT
  5
862
330
859
100
AcDbEntity
  8
Defpoints
 62
     0
100
AcDbPoint
 10
1383.64660987173
 20
564.4244413005168
 30
0.0
  0
ENDBLK
  5
864
330
859
100
AcDbEntity
  8
0
100
AcDbBlockEnd
  0
BLOCK
  5
870
330
865
100
AcDbEntity
  8
0
100
AcDbBlockBegin
  2
*D71
 70
     1
 10
0.0
 20
0.0
 30
0.0
  3
*D71
  1

  0
LINE
  5
866
330
865
100
AcDbEntity
  8
cotas
100
AcDbLine
 10
1353.045650011615
 20
290.3694917993624
 30
0.0
 11
1388.64660987173
 21
290.3694917993624
 31
0.0
  0
LINE
  5
867
330
865
100
AcDbEntity
  8
cotas
100
AcDbLine
 10
1383.64660987173
 20
328.1145422982098
 30
0.0
 11
1383.64660987173
 21
338.1145422982098
 31
0.0
  0
LINE
  5
868
330
865
100
AcDbEntity
  8
cotas
100
AcDbLine
 10
1383.64660987173
 20
280.3694917993624
 30
0.0
 11
1383.64660987173
 21
270.3694917993624
 31
0.0
  0
LINE
  5
869
330
865
100
AcDbEntity
  8
cotas
100
AcDbLine
 10
1383.64660987173
 20
318.1145422982098
 30
0.0
 11
1383.64660987173
 21
290.3694917993624
 31
0.0
  0
SOLID
  5
86A
330
865
100
AcDbEntity
  8
cotas
100
AcDbTrace
 10
1381.979943205063
 20
328.1145422982098
 30
0.0
 11
1385.313276538396
 21
328.1145422982098
 31
0.0
 12
1383.64660987173
 22
318.1145422982098
 32
0.0
 13
1383.64660987173
 23
318.1145422982098
 33
0.0
  0
SOLID
  5
86B
330
865
100
AcDbEntity
  8
cotas
100
AcDbTrace
 10
1381.979943205063
 20
280.3694917993624
 30
0.0
 11
1385.313276538396
 21
280.3694917993624
 31
0.0
 12
1383.64660987173
 22
290.3694917993624
 32
0.0
 13
1383.64660987173
 23
290.3694917993624
 33
0.0
  0
MTEXT
  5
86C
330
865
100
AcDbEntity
  8
cotas
100
AcDbMText
 10
1373.41826870316
 20
304.2420170487864
 30
0.0
 40
10.0
 41
0.0
 71
     5
 72
     1
  1
28
  7
SANINDUSA
 11
0.0000000000000001
 21
1.0
 31
0.0
 73
     1
 44
1.0
1001
ACAD
1000
MTEXTBEGIN
1070
    73
1070
     1
1070
    44
1040
1.0
1070
    74
1070
     0
1000
MTEXTEND
  0
POINT
  5
86D
330
865
100
AcDbEntity
  8
Defpoints
 62
     0
100
AcDbPoint
 10
1383.64660987173
 20
318.1145422982098
 30
0.0
  0
POINT
  5
86E
330
865
100
AcDbEntity
  8
Defpoints
 62
     0
100
AcDbPoint
 10
1348.045650011615
 20
290.3694917993624
 30
0.0
  0
POINT
  5
86F
330
865
100
AcDbEntity
  8
Defpoints
 62
     0
100
AcDbPoint
 10
1383.64660987173
 20
290.3694917993624
 30
0.0
  0
ENDBLK
  5
871
330
865
100
AcDbEntity
  8
0
100
AcDbBlockEnd
  0
BLOCK
  5
885
330
87B
100
AcDbEntity
  8
0
100
AcDbBlockBegin
  2
*D72
 70
     1
 10
0.0
 20
0.0
 30
0.0
  3
*D72
  1

  0
LINE
  5
9DB
330
87B
100
AcDbEntity
  8
cotas
100
AcDbLine
 10
949.2407005104608
 20
436.2694917993628
 30
0.0
 11
949.2407005104608
 21
253.7996411907678
 31
0.0
  0
LINE
  5
9DC
330
87B
100
AcDbEntity
  8
cotas
100
AcDbLine
 10
1326.85059951277
 20
436.2694917993628
 30
0.0
 11
1326.85059951277
 21
253.7996411907678
 31
0.0
  0
LINE
  5
9DD
330
87B
100
AcDbEntity
  8
cotas
100
AcDbLine
 10
959.2407005104607
 20
258.7996411907678
 30
0.0
 11
1316.85059951277
 21
258.7996411907678
 31
0.0
  0
SOLID
  5
9DE
330
87B
100
AcDbEntity
  8
cotas
100
AcDbTrace
 10
959.2407005104607
 20
260.4663078574345
 30
0.0
 11
959.2407005104607
 21
257.1329745241011
 31
0.0
 12
949.2407005104608
 22
258.7996411907678
 32
0.0
 13
949.2407005104608
 23
258.7996411907678
 33
0.0
  0
SOLID
  5
9DF
330
87B
100
AcDbEntity
  8
cotas
100
AcDbTrace
 10
1316.85059951277
 20
260.4663078574345
 30
0.0
 11
1316.85059951277
 21
257.1329745241011
 31
0.0
 12
1326.85059951277
 22
258.7996411907678
 32
0.0
 13
1326.85059951277
 23
258.7996411907678
 33
0.0
  0
MTEXT
  5
9E0
330
87B
100
AcDbEntity
  8
cotas
100
AcDbMText
 10
1170.608344047559
 20
269.0279823593373
 30
0.0
 40
10.0
 41
0.0
 71
     5
 72
     1
  1
378
  7
SANINDUSA
 73
     1
 44
1.0
1001
ACAD
1000
MTEXTBEGIN
1070
    73
1070
     1
1070
    44
1040
1.0
1070
    74
1070
     0
1000
MTEXTEND
  0
POINT
  5
9E1
330
87B
100
AcDbEntity
  8
Defpoints
 62
     0
100
AcDbPoint
 10
949.2407005104608
 20
441.2694917993627
 30
0.0
  0
POINT
  5
9E2
330
87B
100
AcDbEntity
  8
Defpoints
 62
     0
100
AcDbPoint
 10
1326.85059951277
 20
441.2694917993627
 30
0.0
  0
POINT
  5
9E3
330
87B
100
AcDbEntity
  8
Defpoints
 62
     0
100
AcDbPoint
 10
1326.85059951277
 20
258.7996411907678
 30
0.0
  0
ENDBLK
  5
886
330
87B
100
AcDbEntity
  8
0
100
AcDbBlockEnd
  0
BLOCK
  5
893
330
887
100
AcDbEntity
  8
0
100
AcDbBlockBegin
  2
*D73
 70
     1
 10
0.0
 20
0.0
 30
0.0
  3
*D73
  1

  0
LINE
  5
888
330
887
100
AcDbEntity
  8
cotas
100
AcDbLine
 10
923.0456500116149
 20
448.9994460274369
 30
0.0
 11
923.0456500116149
 21
253.7996411907678
 31
0.0
  0
LINE
  5
889
330
887
100
AcDbEntity
  8
cotas
100
AcDbLine
 10
949.2407005104603
 20
295.3694917993624
 30
0.0
 11
949.2407005104603
 21
253.7996411907678
 31
0.0
  0
LINE
  5
88A
330
887
100
AcDbEntity
  8
cotas
100
AcDbLine
 10
913.0456500116149
 20
258.7996411907678
 30
0.0
 11
903.045650011615
 21
258.7996411907678
 31
0.0
  0
LINE
  5
88B
330
887
100
AcDbEntity
  8
cotas
100
AcDbLine
 10
959.2407005104602
 20
258.7996411907678
 30
0.0
 11
969.2407005104604
 21
258.7996411907678
 31
0.0
  0
LINE
  5
88C
330
887
100
AcDbEntity
  8
cotas
100
AcDbLine
 10
923.0456500116149
 20
258.7996411907678
 30
0.0
 11
949.2407005104603
 21
258.7996411907678
 31
0.0
  0
SOLID
  5
88D
330
887
100
AcDbEntity
  8
cotas
100
AcDbTrace
 10
913.0456500116149
 20
260.4663078574345
 30
0.0
 11
913.0456500116149
 21
257.1329745241011
 31
0.0
 12
923.0456500116149
 22
258.7996411907678
 32
0.0
 13
923.0456500116149
 23
258.7996411907678
 33
0.0
  0
SOLID
  5
88E
330
887
100
AcDbEntity
  8
cotas
100
AcDbTrace
 10
959.2407005104602
 20
260.4663078574345
 30
0.0
 11
959.2407005104602
 21
257.1329745241011
 31
0.0
 12
949.2407005104603
 22
258.7996411907678
 32
0.0
 13
949.2407005104603
 23
258.7996411907678
 33
0.0
  0
MTEXT
  5
88F
330
887
100
AcDbEntity
  8
cotas
100
AcDbMText
 10
936.1431752610377
 20
269.0078346091695
 30
0.0
 40
10.0
 41
0.0
 71
     5
 72
     1
  1
26
  7
SANINDUSA
 73
     1
 44
1.0
1001
ACAD
1000
MTEXTBEGIN
1070
    73
1070
     1
1070
    44
1040
1.0
1070
    74
1070
     0
1000
MTEXTEND
  0
POINT
  5
890
330
887
100
AcDbEntity
  8
Defpoints
 62
     0
100
AcDbPoint
 10
923.0456500116149
 20
453.9994460274368
 30
0.0
  0
POINT
  5
891
330
887
100
AcDbEntity
  8
Defpoints
 62
     0
100
AcDbPoint
 10
949.2407005104603
 20
300.3694917993624
 30
0.0
  0
POINT
  5
892
330
887
100
AcDbEntity
  8
Defpoints
 62
     0
100
AcDbPoint
 10
949.2407005104603
 20
258.7996411907678
 30
0.0
  0
ENDBLK
  5
894
330
887
100
AcDbEntity
  8
0
100
AcDbBlockEnd
  0
BLOCK
  5
8A0
330
895
100
AcDbEntity
  8
0
100
AcDbBlockBegin
  2
*D74
 70
     1
 10
0.0
 20
0.0
 30
0.0
  3
*D74
  1

  0
LINE
  5
896
330
895
100
AcDbEntity
  8
cotas
100
AcDbLine
 10
1353.045650011615
 20
448.9994460274369
 30
0.0
 11
1353.045650011615
 21
253.7996411907678
 31
0.0
  0
LINE
  5
897
330
895
100
AcDbEntity
  8
cotas
100
AcDbLine
 10
1363.045650011615
 20
258.7996411907678
 30
0.0
 11
1373.045650011615
 21
258.7996411907678
 31
0.0
  0
LINE
  5
898
330
895
100
AcDbEntity
  8
cotas
100
AcDbLine
 10
1316.850599512769
 20
258.7996411907678
 30
0.0
 11
1306.850599512769
 21
258.7996411907678
 31
0.0
  0
LINE
  5
899
330
895
100
AcDbEntity
  8
cotas
100
AcDbLine
 10
1353.045650011615
 20
258.7996411907678
 30
0.0
 11
1326.850599512769
 21
258.7996411907678
 31
0.0
  0
SOLID
  5
89A
330
895
100
AcDbEntity
  8
cotas
100
AcDbTrace
 10
1363.045650011615
 20
260.4663078574345
 30
0.0
 11
1363.045650011615
 21
257.1329745241011
 31
0.0
 12
1353.045650011615
 22
258.7996411907678
 32
0.0
 13
1353.045650011615
 23
258.7996411907678
 33
0.0
  0
SOLID
  5
89B
330
895
100
AcDbEntity
  8
cotas
100
AcDbTrace
 10
1316.850599512769
 20
260.4663078574345
 30
0.0
 11
1316.850599512769
 21
257.1329745241011
 31
0.0
 12
1326.850599512769
 22
258.7996411907678
 32
0.0
 13
1326.850599512769
 23
258.7996411907678
 33
0.0
  0
MTEXT
  5
89C
330
895
100
AcDbEntity
  8
cotas
100
AcDbMText
 10
1339.948124762192
 20
269.0078346091695
 30
0.0
 40
10.0
 41
0.0
 71
     5
 72
     1
  1
26
  7
SANINDUSA
 73
     1
 44
1.0
1001
ACAD
1000
MTEXTBEGIN
1070
    73
1070
     1
1070
    44
1040
1.0
1070
    74
1070
     0
1000
MTEXTEND
  0
POINT
  5
89D
330
895
100
AcDbEntity
  8
Defpoints
 62
     0
100
AcDbPoint
 10
1353.045650011615
 20
453.9994460274368
 30
0.0
  0
POINT
  5
89E
330
895
100
AcDbEntity
  8
Defpoints
 62
     0
100
AcDbPoint
 10
1326.850599512769
 20
258.7996411907678
 30
0.0
  0
POINT
  5
89F
330
895
100
AcDbEntity
  8
Defpoints
 62
     0
100
AcDbPoint
 10
1326.850599512769
 20
258.7996411907678
 30
0.0
  0
ENDBLK
  5
8A1
330
895
100
AcDbEntity
  8
0
100
AcDbBlockEnd
  0
BLOCK
  5
8AE
330
8A2
100
AcDbEntity
  8
0
100
AcDbBlockBegin
  2
*D75
 70
     1
 10
0.0
 20
0.0
 30
0.0
  3
*D75
  1

  0
LINE
  5
8A3
330
8A2
100
AcDbEntity
  8
cotas
100
AcDbLine
 10
1881.498415979741
 20
1051.530825199264
 30
0.0
 11
1894.279762853207
 21
1062.778451633958
 31
0.0
  0
LINE
  5
8A4
330
8A2
100
AcDbEntity
  8
cotas
100
AcDbLine
 10
1801.991292807677
 20
1051.530825199264
 30
0.0
 11
1789.209945934214
 21
1062.778451633953
 31
0.0
  0
ARC
  5
8A5
330
8A2
100
AcDbEntity
  8
cotas
100
AcDbCircle
 10
1841.744854393713
 20
1016.547562903449
 30
0.0
 40
64.98008059198072
100
AcDbArc
 50
50.17404299937883
 51
129.8259570006262
  0
SOLID
  5
8A6
330
8A2
100
AcDbEntity
  8
cotas
100
AcDbTrace
 10
1884.524602581297
 20
1067.645898405346
 30
0.0
 11
1882.19909124678
 21
1065.257780287634
 31
0.0
 12
1890.526201267175
 22
1059.47530534294
 32
0.0
 13
1890.526201267175
 23
1059.47530534294
 33
0.0
  0
SOLID
  5
8A7
330
8A2
100
AcDbEntity
  8
cotas
100
AcDbTrace
 10
1801.290617540641
 20
1065.25778028763
 30
0.0
 11
1798.965106206124
 21
1067.645898405342
 31
0.0
 12
1792.963507520246
 22
1059.475305342935
 32
0.0
 13
1792.963507520246
 23
1059.475305342935
 33
0.0
  0
MTEXT
  5
8A8
330
8A2
100
AcDbEntity
  8
cotas
100
AcDbMText
 10
1841.74485439371
 20
1092.884258673402
 30
0.0
 40
10.0
 41
0.0
 71
     5
 72
     1
  1
98,0º
  7
SANINDUSA
 73
     1
 44
1.0
1001
ACAD
1000
MTEXTBEGIN
1070
    73
1070
     1
1070
    44
1040
1.0
1070
    74
1070
     0
1000
MTEXTEND
  0
POINT
  5
8A9
330
8A2
100
AcDbEntity
  8
Defpoints
 62
     0
100
AcDbPoint
 10
1859.89263868664
 20
1078.942024188067
 30
0.0
  0
POINT
  5
8AA
330
8A2
100
AcDbEntity
  8
Defpoints
 62
     0
100
AcDbPoint
 10
1805.744854393709
 20
1048.227678908246
 30
0.0
  0
POINT
  5
8AB
330
8A2
100
AcDbEntity
  8
Defpoints
 62
     0
100
AcDbPoint
 10
1865.244874369998
 20
1037.227656208
 30
0.0
  0
POINT
  5
8AC
330
8A2
100
AcDbEntity
  8
Defpoints
 62
     0
100
AcDbPoint
 10
1877.74485439371
 20
1048.227678908246
 30
0.0
  0
POINT
  5
8AD
330
8A2
100
AcDbEntity
  8
Defpoints
 62
     0
100
AcDbPoint
 10
1818.244808621782
 20
1037.227678908247
 30
0.0
  0
ENDBLK
  5
8AF
330
8A2
100
AcDbEntity
  8
0
100
AcDbBlockEnd
  0
BLOCK
  5
8BA
330
8B0
100
AcDbEntity
  8
0
100
AcDbBlockBegin
  2
*D76
 70
     1
 10
0.0
 20
0.0
 30
0.0
  3
*D76
  1

  0
LINE
  5
8B1
330
8B0
100
AcDbEntity
  8
cotas
100
AcDbLine
 10
1806.601755812985
 20
997.8627799948553
 30
0.0
 11
1806.601755812985
 21
974.4093347332645
 31
0.0
  0
LINE
  5
8B2
330
8B0
100
AcDbEntity
  8
cotas
100
AcDbLine
 10
1876.824672145858
 20
997.140523165498
 30
0.0
 11
1876.824672145858
 21
974.4093347332645
 31
0.0
  0
LINE
  5
8B3
330
8B0
100
AcDbEntity
  8
cotas
100
AcDbLine
 10
1816.601755812985
 20
979.4093347332644
 30
0.0
 11
1866.824672145858
 21
979.4093347332644
 31
0.0
  0
SOLID
  5
8B4
330
8B0
100
AcDbEntity
  8
cotas
100
AcDbTrace
 10
1816.601755812985
 20
981.0760013999312
 30
0.0
 11
1816.601755812985
 21
977.7426680665978
 31
0.0
 12
1806.601755812985
 22
979.4093347332644
 32
0.0
 13
1806.601755812985
 23
979.4093347332644
 33
0.0
  0
SOLID
  5
8B5
330
8B0
100
AcDbEntity
  8
cotas
100
AcDbTrace
 10
1866.824672145858
 20
981.0760013999312
 30
0.0
 11
1866.824672145858
 21
977.7426680665978
 31
0.0
 12
1876.824672145858
 22
979.4093347332644
 32
0.0
 13
1876.824672145858
 23
979.4093347332644
 33
0.0
  0
MTEXT
  5
8B6
330
8B0
100
AcDbEntity
  8
cotas
100
AcDbMText
 10
1841.713213979421
 20
989.6141701933046
 30
0.0
 40
10.0
 41
0.0
 71
     5
 72
     1
  1
70
  7
SANINDUSA
 73
     1
 44
1.0
1001
ACAD
1000
MTEXTBEGIN
1070
    73
1070
     1
1070
    44
1040
1.0
1070
    74
1070
     0
1000
MTEXTEND
  0
POINT
  5
8B7
330
8B0
100
AcDbEntity
  8
Defpoints
 62
     0
100
AcDbPoint
 10
1806.601755812985
 20
1002.862779994855
 30
0.0
  0
POINT
  5
8B8
330
8B0
100
AcDbEntity
  8
Defpoints
 62
     0
100
AcDbPoint
 10
1876.824672145858
 20
1002.140523165498
 30
0.0
  0
POINT
  5
8B9
330
8B0
100
AcDbEntity
  8
Defpoints
 62
     0
100
AcDbPoint
 10
1876.824672145858
 20
979.4093347332644
 30
0.0
  0
ENDBLK
  5
8BB
330
8B0
100
AcDbEntity
  8
0
100
AcDbBlockEnd
  0
BLOCK
  5
8C8
330
8BC
100
AcDbEntity
  8
0
100
AcDbBlockBegin
  2
*D77
 70
     1
 10
0.0
 20
0.0
 30
0.0
  3
*D77
  1

  0
LINE
  5
9BF
330
8BC
100
AcDbEntity
  8
cotas
100
AcDbLine
 10
1641.436784696294
 20
1152.750321224586
 30
0.0
 11
1641.436784696294
 21
1189.766648528362
 31
0.0
  0
LINE
  5
9C0
330
8BC
100
AcDbEntity
  8
cotas
100
AcDbLine
 10
1630.374808621783
 20
1152.750321224586
 30
0.0
 11
1630.374808621783
 21
1189.766648528362
 31
0.0
  0
LINE
  5
9C1
330
8BC
100
AcDbEntity
  8
cotas
100
AcDbLine
 10
1651.436784696294
 20
1184.766648528362
 30
0.0
 11
1661.436784696294
 21
1184.766648528362
 31
0.0
  0
LINE
  5
9C2
330
8BC
100
AcDbEntity
  8
cotas
100
AcDbLine
 10
1620.374808621783
 20
1184.766648528362
 30
0.0
 11
1586.217656170473
 21
1184.766648528362
 31
0.0
  0
LINE
  5
9C3
330
8BC
100
AcDbEntity
  8
cotas
100
AcDbLine
 10
1641.436784696294
 20
1184.766648528362
 30
0.0
 11
1630.374808621783
 21
1184.766648528362
 31
0.0
  0
SOLID
  5
9C4
330
8BC
100
AcDbEntity
  8
cotas
100
AcDbTrace
 10
1651.436784696294
 20
1186.433315195029
 30
0.0
 11
1651.436784696294
 21
1183.099981861695
 31
0.0
 12
1641.436784696294
 22
1184.766648528362
 32
0.0
 13
1641.436784696294
 23
1184.766648528362
 33
0.0
  0
SOLID
  5
9C5
330
8BC
100
AcDbEntity
  8
cotas
100
AcDbTrace
 10
1620.374808621783
 20
1186.433315195029
 30
0.0
 11
1620.374808621783
 21
1183.099981861695
 31
0.0
 12
1630.374808621783
 22
1184.766648528362
 32
0.0
 13
1630.374808621783
 23
1184.766648528362
 33
0.0
  0
MTEXT
  5
9C6
330
8BC
100
AcDbEntity
  8
cotas
100
AcDbMText
 10
1598.296232396128
 20
1194.783438320168
 30
0.0
 40
10.0
 41
0.0
 71
     5
 72
     1
  1
11
  7
SANINDUSA
 73
     1
 44
1.0
1001
ACAD
1000
MTEXTBEGIN
1070
    73
1070
     1
1070
    44
1040
1.0
1070
    74
1070
     0
1000
MTEXTEND
  0
POINT
  5
9C7
330
8BC
100
AcDbEntity
  8
Defpoints
 62
     0
100
AcDbPoint
 10
1641.436784696294
 20
1147.750321224586
 30
0.0
  0
POINT
  5
9C8
330
8BC
100
AcDbEntity
  8
Defpoints
 62
     0
100
AcDbPoint
 10
1630.374808621783
 20
1147.750321224586
 30
0.0
  0
POINT
  5
9C9
330
8BC
100
AcDbEntity
  8
Defpoints
 62
     0
100
AcDbPoint
 10
1630.374808621783
 20
1184.766648528362
 30
0.0
  0
ENDBLK
  5
8C9
330
8BC
100
AcDbEntity
  8
0
100
AcDbBlockEnd
  0
BLOCK
  5
8DF
330
8D5
100
AcDbEntity
  8
0
100
AcDbBlockBegin
  2
*D78
 70
     1
 10
0.0
 20
0.0
 30
0.0
  3
*D78
  1

  0
LINE
  5
8D6
330
8D5
100
AcDbEntity
  8
cotas
100
AcDbLine
 10
1628.374808621783
 20
1164.227678908245
 30
0.0
 11
1565.016969575601
 21
1164.227678908245
 31
0.0
  0
LINE
  5
8D7
330
8D5
100
AcDbEntity
  8
cotas
100
AcDbLine
 10
1836.74485439371
 20
1048.227678908246
 30
0.0
 11
1565.016969575601
 21
1048.227678908246
 31
0.0
  0
LINE
  5
8D8
330
8D5
100
AcDbEntity
  8
cotas
100
AcDbLine
 10
1570.016969575601
 20
1154.227678908245
 30
0.0
 11
1570.016969575601
 21
1058.227678908246
 31
0.0
  0
SOLID
  5
8D9
330
8D5
100
AcDbEntity
  8
cotas
100
AcDbTrace
 10
1568.350302908934
 20
1154.227678908245
 30
0.0
 11
1571.683636242268
 21
1154.227678908245
 31
0.0
 12
1570.016969575601
 22
1164.227678908245
 32
0.0
 13
1570.016969575601
 23
1164.227678908245
 33
0.0
  0
SOLID
  5
8DA
330
8D5
100
AcDbEntity
  8
cotas
100
AcDbTrace
 10
1568.350302908934
 20
1058.227678908246
 30
0.0
 11
1571.683636242268
 21
1058.227678908246
 31
0.0
 12
1570.016969575601
 22
1048.227678908246
 32
0.0
 13
1570.016969575601
 23
1048.227678908246
 33
0.0
  0
MTEXT
  5
8DB
330
8D5
100
AcDbEntity
  8
cotas
100
AcDbMText
 10
1559.818850032283
 20
1106.227678908246
 30
0.0
 40
10.0
 41
0.0
 71
     5
 72
     1
  1
116
  7
SANINDUSA
 11
0.0000000000000001
 21
1.0
 31
0.0
 73
     1
 44
1.0
1001
ACAD
1000
MTEXTBEGIN
1070
    73
1070
     1
1070
    44
1040
1.0
1070
    74
1070
     0
1000
MTEXTEND
  0
POINT
  5
8DC
330
8D5
100
AcDbEntity
  8
Defpoints
 62
     0
100
AcDbPoint
 10
1633.374808621783
 20
1164.227678908245
 30
0.0
  0
POINT
  5
8DD
330
8D5
100
AcDbEntity
  8
Defpoints
 62
     0
100
AcDbPoint
 10
1841.744854393709
 20
1048.227678908246
 30
0.0
  0
POINT
  5
8DE
330
8D5
100
AcDbEntity
  8
Defpoints
 62
     0
100
AcDbPoint
 10
1570.016969575601
 20
1048.227678908246
 30
0.0
  0
ENDBLK
  5
8E0
330
8D5
100
AcDbEntity
  8
0
100
AcDbBlockEnd
  0
BLOCK
  5
8EB
330
8E1
100
AcDbEntity
  8
0
100
AcDbBlockBegin
  2
*D79
 70
     1
 10
0.0
 20
0.0
 30
0.0
  3
*D79
  1

  0
ARC
  5
8E2
330
8E1
100
AcDbEntity
  8
cotas
100
AcDbCircle
 10
1630.421644624668
 20
1042.948264068836
 30
0.0
 40
96.24255886121755
100
AcDbArc
 50
5.955949765169217
 51
78.04405023483032
  0
SOLID
  5
8E3
330
8E1
100
AcDbEntity
  8
cotas
100
AcDbTrace
 10
1727.80909876778
 20
1053.021346644258
 30
0.0
 11
1724.480266836189
 21
1052.848173082957
 31
0.0
 12
1726.664203485886
 22
1042.948264068836
 32
0.0
 13
1726.664203485886
 23
1042.948264068836
 33
0.0
  0
SOLID
  5
8E4
330
8E1
100
AcDbEntity
  8
cotas
100
AcDbTrace
 10
1650.09912413821
 20
1135.45680103063
 30
0.0
 11
1650.619306722908
 21
1138.749295706356
 31
0.0
 12
1640.481731403379
 22
1138.663596122586
 32
0.0
 13
1640.481731403379
 23
1138.663596122586
 33
0.0
  0
MTEXT
  5
8E5
330
8E1
100
AcDbEntity
  8
cotas
100
AcDbMText
 10
1710.383414037534
 20
1114.94616463739
 30
0.0
 40
10.0
 41
0.0
 71
     5
 72
     1
  1
84,0°
  7
SANINDUSA
 11
0.6691306063588564
 21
-0.7431448254773959
 31
0.0
 73
     1
 44
1.0
1001
ACAD
1000
MTEXTBEGIN
1070
    73
1070
     1
1070
    44
1040
1.0
1070
    74
1070
     0
1000
MTEXTEND
  0
POINT
  5
8E6
330
8E1
100
AcDbEntity
  8
Defpoints
 62
     0
100
AcDbPoint
 10
1715.398780301764
 20
1088.131408583924
 30
0.0
  0
POINT
  5
8E7
330
8E1
100
AcDbEntity
  8
Defpoints
 62
     0
100
AcDbPoint
 10
1639.987362854
 20
1133.959993569087
 30
0.0
  0
POINT
  5
8E8
330
8E1
100
AcDbEntity
  8
Defpoints
 62
     0
100
AcDbPoint
 10
1633.374808621784
 20
1042.948264068836
 30
0.0
  0
POINT
  5
8E9
330
8E1
100
AcDbEntity
  8
Defpoints
 62
     0
100
AcDbPoint
 10
1742.90552250632
 20
1042.948264068836
 30
0.0
  0
POINT
  5
8EA
330
8E1
100
AcDbEntity
  8
Defpoints
 62
     0
100
AcDbPoint
 10
1641.436784696294
 20
1147.750321224584
 30
0.0
  0
ENDBLK
  5
8EC
330
8E1
100
AcDbEntity
  8
0
100
AcDbBlockEnd
  0
BLOCK
  5
8F4
330
8ED
100
AcDbEntity
  8
0
100
AcDbBlockBegin
  2
*D80
 70
     1
 10
0.0
 20
0.0
 30
0.0
  3
*D80
  1

  0
LINE
  5
9AD
330
8ED
100
AcDbEntity
  8
cotas
100
AcDbLine
 10
2028.90160773457
 20
1209.682502431308
 30
0.0
 11
2005.722285848222
 21
1171.342868508382
 31
0.0
  0
MTEXT
  5
9AE
330
8ED
100
AcDbEntity
  8
cotas
100
AcDbMText
 10
2011.165931411168
 20
1200.071197995991
 30
0.0
 40
10.0
 41
0.0
 71
     5
 72
     1
  1
R10
  7
SANINDUSA
 11
0.5173738613217262
 21
0.8557594800065302
 31
0.0
 73
     1
 44
1.0
1001
ACAD
1000
MTEXTBEGIN
1070
    73
1070
     1
1070
    44
1040
1.0
1070
    74
1070
     0
1000
MTEXTEND
  0
LINE
  5
9AF
330
8ED
100
AcDbEntity
  8
cotas
100
AcDbLine
 10
1995.374808621784
 20
1154.227678908246
 30
0.0
 11
2000.548547235005
 21
1162.785273708317
 31
0.0
  0
SOLID
  5
9B0
330
8ED
100
AcDbEntity
  8
cotas
100
AcDbTrace
 10
2004.296020048212
 20
1172.205158277252
 30
0.0
 11
2007.148551648233
 21
1170.480578739512
 31
0.0
 12
2000.548547235005
 22
1162.785273708317
 32
0.0
 13
2000.548547235005
 23
1162.785273708317
 33
0.0
  0
POINT
  5
9B1
330
8ED
100
AcDbEntity
  8
Defpoints
 62
     0
100
AcDbPoint
 10
2000.548547235005
 20
1162.785273708317
 30
0.0
  0
POINT
  5
9B2
330
8ED
100
AcDbEntity
  8
Defpoints
 62
     0
100
AcDbPoint
 10
1995.374808621784
 20
1154.227678908246
 30
0.0
  0
ENDBLK
  5
8F5
330
8ED
100
AcDbEntity
  8
0
100
AcDbBlockEnd
  0
BLOCK
  5
8FD
330
8F6
100
AcDbEntity
  8
0
100
AcDbBlockBegin
  2
*D81
 70
     1
 10
0.0
 20
0.0
 30
0.0
  3
*D81
  1

  0
LINE
  5
9B3
330
8F6
100
AcDbEntity
  8
cotas
100
AcDbLine
 10
1948.408729411876
 20
1197.163220276388
 30
0.0
 11
1972.458063208142
 21
1170.387248436824
 31
0.0
  0
MTEXT
  5
9B4
330
8F6
100
AcDbEntity
  8
cotas
100
AcDbMText
 10
1964.609496444605
 20
1194.246765189044
 30
0.0
 40
10.0
 41
0.0
 71
     5
 72
     1
  1
R5
  7
SANINDUSA
 11
0.6682115697450917
 21
-0.7439713019053899
 31
0.0
 73
     1
 44
1.0
1001
ACAD
1000
MTEXTBEGIN
1070
    73
1070
     1
1070
    44
1040
1.0
1070
    74
1070
     0
1000
MTEXTEND
  0
LINE
  5
9B5
330
8F6
100
AcDbEntity
  8
cotas
100
AcDbLine
 10
1982.481236754316
 20
1159.227678908246
 30
0.0
 11
1979.140178905592
 21
1162.94753541777
 31
0.0
  0
SOLID
  5
9B6
330
8F6
100
AcDbEntity
  8
cotas
100
AcDbTrace
 10
1973.698015377984
 20
1171.5009343864
 30
0.0
 11
1971.218111038299
 21
1169.273562487249
 31
0.0
 12
1979.140178905592
 22
1162.94753541777
 32
0.0
 13
1979.140178905592
 23
1162.94753541777
 33
0.0
  0
POINT
  5
9B7
330
8F6
100
AcDbEntity
  8
Defpoints
 62
     0
100
AcDbPoint
 10
1979.140178905592
 20
1162.94753541777
 30
0.0
  0
POINT
  5
9B8
330
8F6
100
AcDbEntity
  8
Defpoints
 62
     0
100
AcDbPoint
 10
1982.481236754316
 20
1159.227678908246
 30
0.0
  0
ENDBLK
  5
8FE
330
8F6
100
AcDbEntity
  8
0
100
AcDbBlockEnd
  0
BLOCK
  5
906
330
8FF
100
AcDbEntity
  8
0
100
AcDbBlockBegin
  2
*D82
 70
     1
 10
0.0
 20
0.0
 30
0.0
  3
*D82
  1

  0
LINE
  5
992
330
8FF
100
AcDbEntity
  8
cotas
100
AcDbLine
 10
2029.949218161026
 20
1069.419888260064
 30
0.0
 11
2006.045613016836
 21
1107.312185017657
 31
0.0
  0
MTEXT
  5
993
330
8FF
100
AcDbEntity
  8
cotas
100
AcDbMText
 10
2029.296108281632
 20
1089.581853320103
 30
0.0
 40
10.0
 41
0.0
 71
     5
 72
     1
  1
R10
  7
SANINDUSA
 11
0.5335402197526592
 21
-0.8457746945293907
 31
0.0
 73
     1
 44
1.0
1001
ACAD
1000
MTEXTBEGIN
1070
    73
1070
     1
1070
    44
1040
1.0
1070
    74
1070
     0
1000
MTEXTEND
  0
LINE
  5
994
330
8FF
100
AcDbEntity
  8
cotas
100
AcDbLine
 10
1995.374808621782
 20
1124.227678908245
 30
0.0
 11
2000.710210819309
 21
1115.76993196295
 31
0.0
  0
SOLID
  5
995
330
8FF
100
AcDbEntity
  8
cotas
100
AcDbTrace
 10
2007.455237507718
 20
1108.201418717244
 30
0.0
 11
2004.635988525953
 21
1106.422951318069
 31
0.0
 12
2000.710210819309
 22
1115.76993196295
 32
0.0
 13
2000.710210819309
 23
1115.76993196295
 33
0.0
  0
POINT
  5
996
330
8FF
100
AcDbEntity
  8
Defpoints
 62
     0
100
AcDbPoint
 10
2000.710210819309
 20
1115.76993196295
 30
0.0
  0
POINT
  5
997
330
8FF
100
AcDbEntity
  8
Defpoints
 62
     0
100
AcDbPoint
 10
1995.374808621782
 20
1124.227678908245
 30
0.0
  0
ENDBLK
  5
907
330
8FF
100
AcDbEntity
  8
0
100
AcDbBlockEnd
  0
BLOCK
  5
90E
330
908
100
AcDbEntity
  8
0
100
AcDbBlockBegin
  2
*D83
 70
     1
 10
0.0
 20
0.0
 30
0.0
  3
*D83
  1

  0
LINE
  5
9A3
330
908
100
AcDbEntity
  8
cotas
100
AcDbLine
 10
1979.35287910815
 20
1076.561833049647
 30
0.0
 11
1983.874309621267
 21
1112.267291877568
 31
0.0
  0
MTEXT
  5
9A4
330
908
100
AcDbEntity
  8
cotas
100
AcDbMText
 10
1970.961407795643
 20
1090.723533933956
 30
0.0
 40
10.0
 41
0.0
 71
     5
 72
     1
  1
R5
  7
SANINDUSA
 11
0.1256281028928891
 21
0.992077406134992
 31
0.0
 73
     1
 44
1.0
1001
ACAD
1000
MTEXTBEGIN
1070
    73
1070
     1
1070
    44
1040
1.0
1070
    74
1070
     0
1000
MTEXTEND
  0
SOLID
  5
9A5
330
908
100
AcDbEntity
  8
cotas
100
AcDbTrace
 10
1982.220847277708
 20
1112.476672049056
 30
0.0
 11
1985.527771964825
 21
1112.05791170608
 31
0.0
 12
1985.130590650195
 22
1122.188065938918
 32
0.0
 13
1985.130590650195
 23
1122.188065938918
 33
0.0
  0
POINT
  5
9A6
330
908
100
AcDbEntity
  8
Defpoints
 62
     0
100
AcDbPoint
 10
1985.130590650195
 20
1122.188065938918
 30
0.0
  0
POINT
  5
9A7
330
908
100
AcDbEntity
  8
Defpoints
 62
     0
100
AcDbPoint
 10
1984.502450135731
 20
1117.227678908242
 30
0.0
  0
ENDBLK
  5
90F
330
908
100
AcDbEntity
  8
0
100
AcDbBlockEnd
  0
BLOCK
  5
917
330
910
100
AcDbEntity
  8
0
100
AcDbBlockBegin
  2
*D84
 70
     1
 10
0.0
 20
0.0
 30
0.0
  3
*D84
  1

  0
LINE
  5
99D
330
910
100
AcDbEntity
  8
cotas
100
AcDbLine
 10
1977.363441111254
 20
1008.655742061052
 30
0.0
 11
1951.19178144247
 21
1044.935757483137
 31
0.0
  0
MTEXT
  5
99E
330
910
100
AcDbEntity
  8
cotas
100
AcDbMText
 10
1975.473528412704
 20
1028.707053439007
 30
0.0
 40
10.0
 41
0.0
 71
     5
 72
     1
  1
R65
  7
SANINDUSA
 11
0.5850413038105208
 21
-0.8110034974250639
 31
0.0
 73
     1
 44
1.0
1001
ACAD
1000
MTEXTBEGIN
1070
    73
1070
     1
1070
    44
1040
1.0
1070
    74
1070
     0
1000
MTEXTEND
  0
LINE
  5
99F
330
910
100
AcDbEntity
  8
cotas
100
AcDbLine
 10
1907.313683656678
 20
1105.761019790019
 30
0.0
 11
1945.341368404365
 21
1053.045792457387
 31
0.0
  0
SOLID
  5
9A0
330
910
100
AcDbEntity
  8
cotas
100
AcDbTrace
 10
1952.543453938179
 20
1045.910826322821
 30
0.0
 11
1949.840108946762
 21
1043.960688643453
 31
0.0
 12
1945.341368404365
 22
1053.045792457387
 32
0.0
 13
1945.341368404365
 23
1053.045792457387
 33
0.0
  0
POINT
  5
9A1
330
910
100
AcDbEntity
  8
Defpoints
 62
     0
100
AcDbPoint
 10
1945.341368404365
 20
1053.045792457387
 30
0.0
  0
POINT
  5
9A2
330
910
100
AcDbEntity
  8
Defpoints
 62
     0
100
AcDbPoint
 10
1907.313683656678
 20
1105.761019790019
 30
0.0
  0
ENDBLK
  5
918
330
910
100
AcDbEntity
  8
0
100
AcDbBlockEnd
  0
BLOCK
  5
920
330
919
100
AcDbEntity
  8
0
100
AcDbBlockBegin
  2
*D85
 70
     1
 10
0.0
 20
0.0
 30
0.0
  3
*D85
  1

  0
LINE
  5
9B9
330
919
100
AcDbEntity
  8
cotas
100
AcDbLine
 10
1764.621161809017
 20
1193.056754169937
 30
0.0
 11
1737.691855902843
 21
1169.179241581541
 31
0.0
  0
MTEXT
  5
9BA
330
919
100
AcDbEntity
  8
cotas
100
AcDbMText
 10
1748.194230549885
 20
1191.995390832988
 30
0.0
 40
10.0
 41
0.0
 71
     5
 72
     1
  1
R5
  7
SANINDUSA
 11
0.7482316942394635
 21
0.6634375115529286
 31
0.0
 73
     1
 44
1.0
1001
ACAD
1000
MTEXTBEGIN
1070
    73
1070
     1
1070
    44
1040
1.0
1070
    74
1070
     0
1000
MTEXTEND
  0
LINE
  5
9BB
330
919
100
AcDbEntity
  8
cotas
100
AcDbLine
 10
1726.46838048925
 20
1159.227678908246
 30
0.0
 11
1730.209538960449
 21
1162.544866466012
 31
0.0
  0
SOLID
  5
9BC
330
919
100
AcDbEntity
  8
cotas
100
AcDbTrace
 10
1736.586126716922
 20
1170.426294405273
 30
0.0
 11
1738.797585088765
 21
1167.932188757808
 31
0.0
 12
1730.209538960449
 22
1162.544866466012
 32
0.0
 13
1730.209538960449
 23
1162.544866466012
 33
0.0
  0
POINT
  5
9BD
330
919
100
AcDbEntity
  8
Defpoints
 62
     0
100
AcDbPoint
 10
1730.209538960449
 20
1162.544866466012
 30
0.0
  0
POINT
  5
9BE
330
919
100
AcDbEntity
  8
Defpoints
 62
     0
100
AcDbPoint
 10
1726.46838048925
 20
1159.227678908246
 30
0.0
  0
ENDBLK
  5
921
330
919
100
AcDbEntity
  8
0
100
AcDbBlockEnd
  0
BLOCK
  5
928
330
922
100
AcDbEntity
  8
0
100
AcDbBlockBegin
  2
*D86
 70
     1
 10
0.0
 20
0.0
 30
0.0
  3
*D86
  1

  0
LINE
  5
9A8
330
922
100
AcDbEntity
  8
cotas
100
AcDbLine
 10
1801.950162476661
 20
1103.734854606158
 30
0.0
 11
1779.379432488255
 21
1065.111578765859
 31
0.0
  0
MTEXT
  5
9A9
330
922
100
AcDbEntity
  8
cotas
100
AcDbMText
 10
1784.463805135159
 20
1093.838123176124
 30
0.0
 40
10.0
 41
0.0
 71
     5
 72
     1
  1
R55
  7
SANINDUSA
 11
0.5045461184917509
 21
0.8633847429245598
 31
0.0
 73
     1
 44
1.0
1001
ACAD
1000
MTEXTBEGIN
1070
    73
1070
     1
1070
    44
1040
1.0
1070
    74
1070
     0
1000
MTEXTEND
  0
SOLID
  5
9AA
330
922
100
AcDbEntity
  8
cotas
100
AcDbTrace
 10
1777.940457916715
 20
1065.952488963345
 30
0.0
 11
1780.818407059796
 21
1064.270668568373
 31
0.0
 12
1774.333971303338
 22
1056.477731336614
 32
0.0
 13
1774.333971303338
 23
1056.477731336614
 33
0.0
  0
POINT
  5
9AB
330
922
100
AcDbEntity
  8
Defpoints
 62
     0
100
AcDbPoint
 10
1774.333971303338
 20
1056.477731336614
 30
0.0
  0
POINT
  5
9AC
330
922
100
AcDbEntity
  8
Defpoints
 62
     0
100
AcDbPoint
 10
1802.084007820391
 20
1103.963892197475
 30
0.0
  0
ENDBLK
  5
929
330
922
100
AcDbEntity
  8
0
100
AcDbBlockEnd
  0
BLOCK
  5
930
330
92A
100
AcDbEntity
  8
0
100
AcDbBlockBegin
  2
*D87
 70
     1
 10
0.0
 20
0.0
 30
0.0
  3
*D87
  1

  0
LINE
  5
998
330
92A
100
AcDbEntity
  8
cotas
100
AcDbLine
 10
1907.39751842666
 20
1105.509336406361
 30
0.0
 11
1921.534819764533
 21
1063.067234670849
 31
0.0
  0
MTEXT
  5
999
330
92A
100
AcDbEntity
  8
cotas
100
AcDbMText
 10
1922.472312499744
 20
1092.225189097368
 30
0.0
 40
10.0
 41
0.0
 71
     5
 72
     1
  1
R55
  7
SANINDUSA
 11
0.3160252468412017
 21
-0.948750780426007
 31
0.0
 73
     1
 44
1.0
1001
ACAD
1000
MTEXTBEGIN
1070
    73
1070
     1
1070
    44
1040
1.0
1070
    74
1070
     0
1000
MTEXTEND
  0
SOLID
  5
99A
330
92A
100
AcDbEntity
  8
cotas
100
AcDbTrace
 10
1923.116071065243
 20
1063.593943415584
 30
0.0
 11
1919.953568463823
 21
1062.540525926113
 31
0.0
 12
1924.695072232945
 22
1053.579726866589
 32
0.0
 13
1924.695072232945
 23
1053.579726866589
 33
0.0
  0
POINT
  5
99B
330
92A
100
AcDbEntity
  8
Defpoints
 62
     0
100
AcDbPoint
 10
1924.695072232945
 20
1053.579726866589
 30
0.0
  0
POINT
  5
99C
330
92A
100
AcDbEntity
  8
Defpoints
 62
     0
100
AcDbPoint
 10
1907.313683656678
 20
1105.76101979002
 30
0.0
  0
ENDBLK
  5
931
330
92A
100
AcDbEntity
  8
0
100
AcDbBlockEnd
  0
BLOCK
  5
93C
330
932
100
AcDbEntity
  8
0
100
AcDbBlockBegin
  2
*D88
 70
     1
 10
0.0
 20
0.0
 30
0.0
  3
*D88
  1

  0
ARC
  5
933
330
932
100
AcDbEntity
  8
cotas
100
AcDbCircle
 10
1730.374808621783
 20
1164.227678908245
 30
0.0
 40
67.06694347139387
100
AcDbArc
 50
292.5510066907638
 51
351.4489933092369
  0
SOLID
  5
934
330
932
100
AcDbEntity
  8
cotas
100
AcDbTrace
 10
1756.61801126495
 20
1100.706175917775
 30
0.0
 11
1755.572722921609
 21
1103.871374709381
 31
0.0
 12
1746.599770718459
 22
1099.152910283558
 32
0.0
 13
1746.599770718459
 23
1099.152910283558
 33
0.0
  0
SOLID
  5
935
330
932
100
AcDbEntity
  8
cotas
100
AcDbTrace
 10
1795.034199832327
 20
1154.379761875235
 30
0.0
 11
1798.358256830106
 21
1154.131253954581
 31
0.0
 12
1797.441752093178
 22
1164.227678908245
 32
0.0
 13
1797.441752093178
 23
1164.227678908245
 33
0.0
  0
MTEXT
  5
936
330
932
100
AcDbEntity
  8
cotas
100
AcDbMText
 10
1774.285730833156
 20
1129.920706537845
 30
0.0
 40
10.0
 41
0.0
 71
     5
 72
     1
  1
76,0°
  7
SANINDUSA
 11
0.6156614753256515
 21
0.7880107536067276
 31
0.0
 73
     1
 44
1.0
1001
ACAD
1000
MTEXTBEGIN
1070
    73
1070
     1
1070
    44
1040
1.0
1070
    74
1070
     0
1000
MTEXTEND
  0
POINT
  5
937
330
932
100
AcDbEntity
  8
Defpoints
 62
     0
100
AcDbPoint
 10
1772.883914282732
 20
1112.353303321628
 30
0.0
  0
POINT
  5
938
330
932
100
AcDbEntity
  8
Defpoints
 62
     0
100
AcDbPoint
 10
1744.257543677057
 20
1108.547069843225
 30
0.0
  0
POINT
  5
939
330
932
100
AcDbEntity
  8
Defpoints
 62
     0
100
AcDbPoint
 10
1726.46838048925
 20
1164.227678908245
 30
0.0
  0
POINT
  5
93A
330
932
100
AcDbEntity
  8
Defpoints
 62
     0
100
AcDbPoint
 10
1982.481236754318
 20
1164.227678908245
 30
0.0
  0
POINT
  5
93B
330
932
100
AcDbEntity
  8
Defpoints
 62
     0
100
AcDbPoint
 10
1748.717742875213
 20
1090.658187939492
 30
0.0
  0
ENDBLK
  5
93D
330
932
100
AcDbEntity
  8
0
100
AcDbBlockEnd
  0
BLOCK
  5
951
330
947
100
AcDbEntity
  8
0
100
AcDbBlockBegin
  2
*D89
 70
     1
 10
0.0
 20
0.0
 30
0.0
  3
*D89
  1

  0
LINE
  5
948
330
947
100
AcDbEntity
  8
cotas
100
AcDbLine
 10
1628.374808621783
 20
1164.227678908245
 30
0.0
 11
1535.969327812186
 21
1164.227678908245
 31
0.0
  0
LINE
  5
949
330
947
100
AcDbEntity
  8
cotas
100
AcDbLine
 10
1802.6611397958
 20
1001.227678908243
 30
0.0
 11
1535.969327812186
 21
1001.227678908243
 31
0.0
  0
LINE
  5
94A
330
947
100
AcDbEntity
  8
cotas
100
AcDbLine
 10
1540.969327812186
 20
1154.227678908245
 30
0.0
 11
1540.969327812186
 21
1011.227678908243
 31
0.0
  0
SOLID
  5
94B
330
947
100
AcDbEntity
  8
cotas
100
AcDbTrace
 10
1539.30266114552
 20
1154.227678908245
 30
0.0
 11
1542.635994478853
 21
1154.227678908245
 31
0.0
 12
1540.969327812186
 22
1164.227678908245
 32
0.0
 13
1540.969327812186
 23
1164.227678908245
 33
0.0
  0
SOLID
  5
94C
330
947
100
AcDbEntity
  8
cotas
100
AcDbTrace
 10
1539.30266114552
 20
1011.227678908243
 30
0.0
 11
1542.635994478853
 21
1011.227678908243
 31
0.0
 12
1540.969327812186
 22
1001.227678908243
 32
0.0
 13
1540.969327812186
 23
1001.227678908243
 33
0.0
  0
MTEXT
  5
94D
330
947
100
AcDbEntity
  8
cotas
100
AcDbMText
 10
1530.761134393785
 20
1082.727678908245
 30
0.0
 40
10.0
 41
0.0
 71
     5
 72
     1
  1
163
  7
SANINDUSA
 11
0.0000000000000001
 21
1.0
 31
0.0
 73
     1
 44
1.0
1001
ACAD
1000
MTEXTBEGIN
1070
    73
1070
     1
1070
    44
1040
1.0
1070
    74
1070
     0
1000
MTEXTEND
  0
POINT
  5
94E
330
947
100
AcDbEntity
  8
Defpoints
 62
     0
100
AcDbPoint
 10
1633.374808621783
 20
1164.227678908245
 30
0.0
  0
POINT
  5
94F
330
947
100
AcDbEntity
  8
Defpoints
 62
     0
100
AcDbPoint
 10
1807.6611397958
 20
1001.227678908243
 30
0.0
  0
POINT
  5
950
330
947
100
AcDbEntity
  8
Defpoints
 62
     0
100
AcDbPoint
 10
1540.969327812186
 20
1001.227678908243
 30
0.0
  0
ENDBLK
  5
952
330
947
100
AcDbEntity
  8
0
100
AcDbBlockEnd
  0
ENDSEC
  0
SECTION
  2
ENTITIES
  0
CIRCLE
  5
4BA
330
23
100
AcDbEntity
  8
SANINDUSA
100
AcDbCircle
 10
762.9056140351042
 20
1171.104905227041
 30
0.0
 40
0.0175
  0
LINE
  5
4BB
330
23
100
AcDbEntity
  8
SANINDUSA
100
AcDbLine
 10
762.6906140351043
 20
1171.149734596901
 30
0.0
 11
762.6906140351043
 21
1170.787734596901
 31
0.0
  0
LINE
  5
4BC
330
23
100
AcDbEntity
  8
SANINDUSA
100
AcDbLine
 10
763.1206140351042
 20
1171.149734596901
 30
0.0
 11
763.1206140351042
 21
1170.787734596901
 31
0.0
  0
LINE
  5
4C2
330
23
100
AcDbEntity
  8
SANINDUSA
100
AcDbLine
 10
763.1156140351042
 20
1170.7777345969
 30
0.0
 11
762.6956140351043
 21
1170.7777345969
 31
0.0
  0
ARC
  5
4C3
330
23
100
AcDbEntity
  8
SANINDUSA
100
AcDbCircle
 10
762.8399640351042
 20
1170.928634596901
 30
0.0
 40
0.1231549495011537
100
AcDbArc
 50
90.0
 51
270.0
  0
ARC
  5
4C6
330
23
100
AcDbEntity
  8
SANINDUSA
100
AcDbCircle
 10
762.6956140351043
 20
1170.782734596901
 30
0.0
 40
0.005
100
AcDbArc
 50
180.0
 51
270.0
  0
LINE
  5
4C8
330
23
100
AcDbEntity
  8
SANINDUSA
100
AcDbLine
 10
762.6906140351043
 20
1170.787734596901
 30
0.0
 11
762.6906140351043
 21
1170.782734596901
 31
0.0
  0
ARC
  5
4CE
330
23
100
AcDbEntity
  8
SANINDUSA
100
AcDbCircle
 10
762.9712640351042
 20
1170.928634596901
 30
0.0
 40
0.1231549495011537
100
AcDbArc
 50
270.0
 51
90.0
  0
LINE
  5
4D1
330
23
100
AcDbEntity
  8
SANINDUSA
100
AcDbLine
 10
762.8399640351042
 20
1170.805479647399
 30
0.0
 11
762.9712640351042
 21
1170.805479647399
 31
0.0
  0
LINE
  5
4D9
330
23
100
AcDbEntity
  8
SANINDUSA
100
AcDbLine
 10
763.1206140351042
 20
1170.787734596901
 30
0.0
 11
763.1206140351042
 21
1170.782734596901
 31
0.0
  0
ARC
  5
4DA
330
23
100
AcDbEntity
  8
SANINDUSA
100
AcDbCircle
 10
763.1156140351042
 20
1170.782734596901
 30
0.0
 40
0.005
100
AcDbArc
 50
270.0
 51
0.0
  0
SPLINE
  5
4DF
330
23
100
AcDbEntity
  8
SANINDUSA
100
AcDbSpline
210
0.0
220
0.0
230
1.0
 70
    12
 71
     3
 72
    38
 73
    34
 74
     0
 42
0.0000000001
 43
0.0000000001
 40
0.0
 40
0.0
 40
0.0
 40
0.0
 40
0.0625
 40
0.0625
 40
0.1250000000000001
 40
0.1250000000000001
 40
0.1875000000000001
 40
0.1875000000000001
 40
0.25
 40
0.25
 40
0.3125
 40
0.3125
 40
0.375
 40
0.375
 40
0.4375000000000001
 40
0.4375000000000001
 40
0.5000000000000001
 40
0.5000000000000001
 40
0.5625000000000001
 40
0.5625000000000001
 40
0.6250000000000001
 40
0.6250000000000001
 40
0.6875000000000002
 40
0.6875000000000002
 40
0.7500000000000002
 40
0.7500000000000002
 40
0.8125000000000001
 40
0.8125000000000001
 40
0.8750000000000001
 40
0.8750000000000001
 40
0.9375000000000001
 40
0.9375000000000001
 40
1.0
 40
1.0
 40
1.0
 40
1.0
 10
762.9056140351042
 20
1170.917864505357
 30
0.0
 41
1.0
 10
762.9040759607051
 20
1170.917864505357
 30
0.0
 41
1.0
 10
762.902537924338
 20
1170.918015988717
 30
0.0
 41
1.0
 10
762.8995208828764
 20
1170.918616115576
 30
0.0
 41
1.0
 10
762.8980419523843
 20
1170.919064744237
 30
0.0
 41
1.0
 10
762.8951999614708
 20
1170.920241935417
 30
0.0
 41
1.0
 10
762.8938369713231
 20
1170.920970468829
 30
0.0
 41
1.0
 10
762.8912792470745
 20
1170.922679485534
 30
0.0
 41
1.0
 10
762.8900845762183
 20
1170.923659926567
 30
0.0
 41
1.0
 10
762.8879094105432
 20
1170.925835092242
 30
0.0
 41
1.0
 10
762.8869289695095
 20
1170.927029763099
 30
0.0
 41
1.0
 10
762.8852199528048
 20
1170.929587487347
 30
0.0
 41
1.0
 10
762.8844914193928
 20
1170.930950477495
 30
0.0
 41
1.0
 10
762.8833142282123
 20
1170.933792468409
 30
0.0
 41
1.0
 10
762.8828655995521
 20
1170.935271398901
 30
0.0
 41
1.0
 10
762.8822654726925
 20
1170.938288440362
 30
0.0
 41
1.0
 10
762.8821139893323
 20
1170.939826476729
 30
0.0
 41
1.0
 10
762.8821139893323
 20
1170.942902625528
 30
0.0
 41
1.0
 10
762.8822654726925
 20
1170.944440661895
 30
0.0
 41
1.0
 10
762.8828655995521
 20
1170.947457703356
 30
0.0
 41
1.0
 10
762.8833142282123
 20
1170.948936633848
 30
0.0
 41
1.0
 10
762.8844914193928
 20
1170.951778624762
 30
0.0
 41
1.0
 10
762.8852199528048
 20
1170.95314161491
 30
0.0
 41
1.0
 10
762.8869289695095
 20
1170.955699339158
 30
0.0
 41
1.0
 10
762.8879094105432
 20
1170.956894010015
 30
0.0
 41
1.0
 10
762.8900845762183
 20
1170.95906917569
 30
0.0
 41
1.0
 10
762.8912792470745
 20
1170.960049616724
 30
0.0
 41
1.0
 10
762.8938369713231
 20
1170.961758633428
 30
0.0
 41
1.0
 10
762.8951999614708
 20
1170.96248716684
 30
0.0
 41
1.0
 10
762.8980419523843
 20
1170.963664358021
 30
0.0
 41
1.0
 10
762.8995208828764
 20
1170.964112986681
 30
0.0
 41
1.0
 10
762.902537924338
 20
1170.96471311354
 30
0.0
 41
1.0
 10
762.9040759607051
 20
1170.964864596901
 30
0.0
 41
1.0
 10
762.9056140351042
 20
1170.964864596901
 30
0.0
 41
1.0
  0
CIRCLE
  5
4E0
330
23
100
AcDbEntity
  8
SANINDUSA
100
AcDbCircle
 10
762.9056140351042
 20
1170.941364551129
 30
0.0
 40
0.036
  0
SPLINE
  5
4E3
330
23
100
AcDbEntity
  8
SANINDUSA
100
AcDbSpline
210
0.0
220
0.0
230
1.0
 70
    12
 71
     3
 72
    38
 73
    34
 74
     0
 42
0.0000000001
 43
0.0000000001
 40
0.0
 40
0.0
 40
0.0
 40
0.0
 40
0.0624999999999999
 40
0.0624999999999999
 40
0.1249999999999999
 40
0.1249999999999999
 40
0.1874999999999999
 40
0.1874999999999999
 40
0.2499999999999998
 40
0.2499999999999998
 40
0.3124999999999998
 40
0.3124999999999998
 40
0.3749999999999999
 40
0.3749999999999999
 40
0.4375
 40
0.4375
 40
0.5
 40
0.5
 40
0.5625
 40
0.5625
 40
0.625
 40
0.625
 40
0.6875000000000001
 40
0.6875000000000001
 40
0.7500000000000001
 40
0.7500000000000001
 40
0.8125
 40
0.8125
 40
0.8749999999999998
 40
0.8749999999999998
 40
0.9375
 40
0.9375
 40
1.0
 40
1.0
 40
1.0
 40
1.0
 10
762.9056140351042
 20
1170.9178645969
 30
0.0
 41
1.0
 10
762.9071521065076
 20
1170.9178645969
 30
0.0
 41
1.0
 10
762.908690139879
 20
1170.918016079966
 30
0.0
 41
1.0
 10
762.9117071754642
 20
1170.918616205656
 30
0.0
 41
1.0
 10
762.9131861030757
 20
1170.919064833443
 30
0.0
 41
1.0
 10
762.9160280884539
 20
1170.92024202233
 30
0.0
 41
1.0
 10
762.9173910759468
 20
1170.920970554323
 30
0.0
 41
1.0
 10
762.9199487952136
 20
1170.922679567699
 30
0.0
 41
1.0
 10
762.9211434637429
 20
1170.923660006823
 30
0.0
 41
1.0
 10
762.9233186251814
 20
1170.925835168262
 30
0.0
 41
1.0
 10
762.9242990643054
 20
1170.927029836791
 30
0.0
 41
1.0
 10
762.9260080776813
 20
1170.929587556058
 30
0.0
 41
1.0
 10
762.9267366096744
 20
1170.930950543551
 30
0.0
 41
1.0
 10
762.9279137985621
 20
1170.933792528929
 30
0.0
 41
1.0
 10
762.9283624263483
 20
1170.93527145654
 30
0.0
 41
1.0
 10
762.9289625520391
 20
1170.938288492126
 30
0.0
 41
1.0
 10
762.9291140351043
 20
1170.939826525497
 30
0.0
 41
1.0
 10
762.9291140351043
 20
1170.942902668304
 30
0.0
 41
1.0
 10
762.9289625520391
 20
1170.944440701675
 30
0.0
 41
1.0
 10
762.9283624263483
 20
1170.94745773726
 30
0.0
 41
1.0
 10
762.9279137985621
 20
1170.948936664872
 30
0.0
 41
1.0
 10
762.9267366096744
 20
1170.95177865025
 30
0.0
 41
1.0
 10
762.9260080776813
 20
1170.953141637743
 30
0.0
 41
1.0
 10
762.9242990643054
 20
1170.95569935701
 30
0.0
 41
1.0
 10
762.9233186251814
 20
1170.956894025539
 30
0.0
 41
1.0
 10
762.9211434637429
 20
1170.959069186978
 30
0.0
 41
1.0
 10
762.9199487952136
 20
1170.960049626102
 30
0.0
 41
1.0
 10
762.9173910759468
 20
1170.961758639478
 30
0.0
 41
1.0
 10
762.9160280884539
 20
1170.962487171471
 30
0.0
 41
1.0
 10
762.9131861030757
 20
1170.963664360358
 30
0.0
 41
1.0
 10
762.9117071754642
 20
1170.964112988145
 30
0.0
 41
1.0
 10
762.908690139879
 20
1170.964713113835
 30
0.0
 41
1.0
 10
762.9071521065076
 20
1170.964864596901
 30
0.0
 41
1.0
 10
762.9056140351042
 20
1170.964864596901
 30
0.0
 41
1.0
  0
LWPOLYLINE
  5
4E8
330
23
100
AcDbEntity
  8
SANINDUSA
100
AcDbPolyline
 90
       16
 70
   128
 43
0.0
 10
762.8942383154228
 20
1171.04018454688
 10
762.8938832887381
 20
1171.04029785531
 10
762.8926944405705
 20
1171.040767189734
 10
762.8918237154305
 20
1171.041275736563
 10
762.8912925542265
 20
1171.041810978822
 10
762.8911140355215
 20
1171.042359728984
 10
762.8912925542265
 20
1171.042908479146
 10
762.8918237154305
 20
1171.043443721406
 10
762.8926944405705
 20
1171.043952268235
 10
762.8938832887381
 20
1171.044421602659
 10
762.8953609866023
 20
1171.044840168826
 10
762.8970911492526
 20
1171.045197655134
 10
762.8990311728723
 20
1171.045485262446
 10
762.9011332885295
 20
1171.045695912711
 10
762.9033457354109
 20
1171.045824405424
 10
762.9056140351042
 20
1171.04586759644
  0
ARC
  5
4EA
330
23
100
AcDbEntity
  8
SANINDUSA
100
AcDbCircle
 10
762.9055496004187
 20
1171.084477626447
 30
0.0
 40
0.0457145717003661
100
AcDbArc
 50
255.6743489751606
 51
285.1903073915798
  0
LINE
  5
4EC
330
23
100
AcDbEntity
  8
SANINDUSA
100
AcDbLine
 10
762.9712640351042
 20
1171.051789546402
 30
0.0
 11
762.8399640351042
 21
1171.051789546402
 31
0.0
  0
LWPOLYLINE
  5
4F9
330
23
100
AcDbEntity
  8
SANINDUSA
100
AcDbPolyline
 90
        8
 70
   128
 43
0.0
 10
762.918598925595
 20
1171.043920878939
 10
762.9194043547779
 20
1171.043443721406
 10
762.9199355159819
 20
1171.042908479146
 10
762.920114034687
 20
1171.042359728984
 10
762.9199355159819
 20
1171.041810978822
 10
762.9194043547779
 20
1171.041275736563
 10
762.9185336296379
 20
1171.040767189734
 10
762.9175280033543
 20
1171.040360283725
  0
LWPOLYLINE
  5
4FA
330
23
100
AcDbEntity
  8
SANINDUSA
100
AcDbPolyline
 90
        9
 70
   128
 43
0.0
 10
762.9056140351042
 20
1171.04586759644
 10
762.9078823347974
 20
1171.045824405424
 10
762.9100947816789
 20
1171.045695912711
 10
762.9121968973361
 20
1171.045485262446
 10
762.9141369209557
 20
1171.045197655134
 10
762.9158670836061
 20
1171.044840168826
 10
762.9173447814703
 20
1171.044421602659
 10
762.9185336296379
 20
1171.043952268235
 10
762.918598925595
 20
1171.043920878939
  0
LINE
  5
54E
330
23
100
AcDbEntity
  8
SANINDUSA
100
AcDbLine
 10
762.6956140351043
 20
1171.1527345969
 30
0.0
 11
763.1156140351042
 21
1171.1527345969
 31
0.0
  0
LINE
  5
552
330
23
100
AcDbEntity
  8
SANINDUSA
100
AcDbLine
 10
764.0290133239166
 20
1171.062939201605
 30
0.0
 11
764.4490133239165
 21
1171.062939201605
 31
0.0
  0
LINE
  5
553
330
23
100
AcDbEntity
  8
SANINDUSA
100
AcDbLine
 10
764.4490133239165
 20
1171.012939201605
 30
0.0
 11
764.0290133239166
 21
1171.012939201605
 31
0.0
  0
LWPOLYLINE
  5
556
330
23
100
AcDbEntity
  8
SANINDUSA
100
AcDbPolyline
 90
        5
 70
   128
 43
0.0
 10
764.1172627009288
 20
1170.940980506252
 10
764.1364200956956
 20
1170.940061544191
 10
764.1566710792318
 20
1170.939090144943
 10
764.17687480001
 20
1170.938118738245
 10
764.1965769849554
 20
1170.937166993629
  0
LINE
  5
55A
330
23
100
AcDbEntity
  8
SANINDUSA
100
AcDbLine
 10
764.057094211115
 20
1170.990195547354
 30
0.0
 11
764.0514235891238
 21
1171.01293920086
 31
0.0
  0
ARC
  5
562
330
23
100
AcDbEntity
  8
SANINDUSA
100
AcDbCircle
 10
762.6936140351042
 20
1171.149734596901
 30
0.0
 40
0.0030000000000001
100
AcDbArc
 50
90.0
 51
180.0
  0
LINE
  5
564
330
23
100
AcDbEntity
  8
SANINDUSA
100
AcDbLine
 10
762.6956140351043
 20
1171.1527345969
 30
0.0
 11
762.6936140351042
 21
1171.1527345969
 31
0.0
  0
ARC
  5
567
330
23
100
AcDbEntity
  8
SANINDUSA
100
AcDbCircle
 10
764.1201654624287
 20
1171.005922669577
 30
0.0
 40
0.0650025167733974
100
AcDbArc
 50
194.6134644956233
 51
265.8133203470064
  0
ARC
  5
581
330
23
100
AcDbEntity
  8
SANINDUSA
100
AcDbCircle
 10
764.0290133239166
 20
1171.057939201605
 30
0.0
 40
0.005
100
AcDbArc
 50
90.0
 51
180.0
  0
ARC
  5
584
330
23
100
AcDbEntity
  8
SANINDUSA
100
AcDbCircle
 10
764.0290133239166
 20
1171.017939201605
 30
0.0
 40
0.005
100
AcDbArc
 50
180.0
 51
270.0
  0
LINE
  5
585
330
23
100
AcDbEntity
  8
SANINDUSA
100
AcDbLine
 10
764.0240133239166
 20
1171.052939201605
 30
0.0
 11
764.0240133239166
 21
1171.022939201605
 31
0.0
  0
LINE
  5
586
330
23
100
AcDbEntity
  8
SANINDUSA
100
AcDbLine
 10
764.0240133239166
 20
1171.022939201605
 30
0.0
 11
764.0240133239166
 21
1171.017939201605
 31
0.0
  0
LINE
  5
587
330
23
100
AcDbEntity
  8
SANINDUSA
100
AcDbLine
 10
764.0240133239166
 20
1171.057939201605
 30
0.0
 11
764.0240133239166
 21
1171.052939201605
 31
0.0
  0
LINE
  5
58D
330
23
100
AcDbEntity
  8
SANINDUSA
100
AcDbLine
 10
764.4209324367181
 20
1170.990195547354
 30
0.0
 11
764.4266030587092
 21
1171.01293920086
 31
0.0
  0
LWPOLYLINE
  5
590
330
23
100
AcDbEntity
  8
SANINDUSA
100
AcDbPolyline
 90
        5
 70
   128
 43
0.0
 10
764.2814496628776
 20
1170.937166993629
 10
764.301151847823
 20
1170.938118738245
 10
764.3213555686012
 20
1170.939090144943
 10
764.3416065521375
 20
1170.940061544191
 10
764.3608419842855
 20
1170.940984246444
  0
ARC
  5
591
330
23
100
AcDbEntity
  8
SANINDUSA
100
AcDbCircle
 10
764.2049296550906
 20
1170.900939201604
 30
0.0
 40
0.0010000000000002
100
AcDbArc
 50
184.9999999957234
 51
270.0
  0
ARC
  5
592
330
23
100
AcDbEntity
  8
SANINDUSA
100
AcDbCircle
 10
764.2730969927425
 20
1170.900939201604
 30
0.0
 40
0.0010000000000001
100
AcDbArc
 50
270.0
 51
355.0000000042766
  0
LINE
  5
593
330
23
100
AcDbEntity
  8
SANINDUSA
100
AcDbLine
 10
764.2730969927425
 20
1170.899939201605
 30
0.0
 11
764.2049296550906
 21
1170.899939201605
 31
0.0
  0
LWPOLYLINE
  5
596
330
23
100
AcDbEntity
  8
SANINDUSA
100
AcDbPolyline
 90
        4
 70
   128
 43
0.0
 10
764.2390133239165
 20
1170.937316437375
 10
764.233070632799
 20
1170.937311162364
 10
764.2271279416815
 20
1170.937295337331
 10
764.2205615587369
 20
1170.93726607145
  0
LINE
  5
59B
330
23
100
AcDbEntity
  8
SANINDUSA
100
AcDbLine
 10
764.2011552959517
 20
1170.932606612455
 30
0.0
 11
764.2039334603924
 21
1170.900852045862
 31
0.0
  0
LWPOLYLINE
  5
59C
330
23
100
AcDbEntity
  8
SANINDUSA
100
AcDbPolyline
 90
        9
 70
   128
 43
0.0
 10
764.2205615587369
 20
1170.93726607145
 10
764.2205210052267
 20
1170.937265892636
 10
764.2142509225593
 20
1170.937229980838
 10
764.2088505815551
 20
1170.937204380643
 10
764.2041638739243
 20
1170.937186603557
 10
764.2005845889285
 20
1170.937176038634
 10
764.1980122797027
 20
1170.937171165954
 10
764.1966641567484
 20
1170.93717188121
 10
764.1965773872867
 20
1170.937175323378
  0
ARC
  5
59D
330
23
100
AcDbEntity
  8
SANINDUSA
100
AcDbCircle
 10
764.196274512704
 20
1170.932267439258
 30
0.0
 40
0.0049023672026201
100
AcDbArc
 50
4.033727182712143
 51
82.50641889000926
  0
ARC
  5
5A0
330
23
100
AcDbEntity
  8
SANINDUSA
100
AcDbCircle
 10
764.2785102407368
 20
1173.32520145268
 30
0.0
 40
2.388027937872956
100
AcDbArc
 50
269.496031713995
 51
270.070515707468
  0
ARC
  5
5A2
330
23
100
AcDbEntity
  8
SANINDUSA
100
AcDbCircle
 10
764.2817526597349
 20
1170.932276876771
 30
0.0
 40
0.0048938569699073
100
AcDbArc
 50
97.51376208163343
 51
176.146770217194
  0
LINE
  5
5A3
330
23
100
AcDbEntity
  8
SANINDUSA
100
AcDbLine
 10
764.2740931874405
 20
1170.900852045862
 30
0.0
 11
764.2768713854089
 21
1170.932606970083
 31
0.0
  0
LWPOLYLINE
  5
5A5
330
23
100
AcDbEntity
  8
SANINDUSA
100
AcDbPolyline
 90
        4
 70
   128
 43
0.0
 10
764.2390133239165
 20
1170.937316437375
 10
764.244956015034
 20
1170.937311162364
 10
764.2508987061516
 20
1170.937295337331
 10
764.2575056426063
 20
1170.937265892636
  0
ARC
  5
5AB
330
23
100
AcDbEntity
  8
SANINDUSA
100
AcDbCircle
 10
763.1176140351042
 20
1171.149734596901
 30
0.0
 40
0.0030000000000001
100
AcDbArc
 50
0.0
 51
90.0
  0
LINE
  5
5AC
330
23
100
AcDbEntity
  8
SANINDUSA
100
AcDbLine
 10
763.1156140351042
 20
1171.1527345969
 30
0.0
 11
763.1176140351042
 21
1171.1527345969
 31
0.0
  0
ARC
  5
5AF
330
23
100
AcDbEntity
  8
SANINDUSA
100
AcDbCircle
 10
764.3578629361576
 20
1171.005920567259
 30
0.0
 40
0.0650002922685874
100
AcDbArc
 50
274.1852758312549
 51
345.3879393238175
  0
LINE
  5
5BC
330
23
100
AcDbEntity
  8
SANINDUSA
100
AcDbLine
 10
764.4540133239165
 20
1171.052939201605
 30
0.0
 11
764.4540133239165
 21
1171.022939201605
 31
0.0
  0
ARC
  5
5BE
330
23
100
AcDbEntity
  8
SANINDUSA
100
AcDbCircle
 10
764.4490133239165
 20
1171.017939201605
 30
0.0
 40
0.005
100
AcDbArc
 50
270.0
 51
0.0
  0
LINE
  5
5BF
330
23
100
AcDbEntity
  8
SANINDUSA
100
AcDbLine
 10
764.4540133239165
 20
1171.022939201605
 30
0.0
 11
764.4540133239165
 21
1171.017939201605
 31
0.0
  0
ARC
  5
5C1
330
23
100
AcDbEntity
  8
SANINDUSA
100
AcDbCircle
 10
764.4490133239165
 20
1171.057939201605
 30
0.0
 40
0.005
100
AcDbArc
 50
0.0
 51
90.0
  0
LINE
  5
5C2
330
23
100
AcDbEntity
  8
SANINDUSA
100
AcDbLine
 10
764.4540133239165
 20
1171.057939201605
 30
0.0
 11
764.4540133239165
 21
1171.052939201605
 31
0.0
  0
LINE
  5
5C7
330
23
100
AcDbEntity
  8
SANINDUSA
100
AcDbLine
 10
764.7606718523863
 20
1171.062939201605
 30
0.0
 11
764.7976718523863
 21
1171.062939201605
 31
0.0
  0
LINE
  5
5C9
330
23
100
AcDbEntity
  8
SANINDUSA
100
AcDbLine
 10
764.7976718523863
 20
1171.050939201605
 30
0.0
 11
764.7606718523863
 21
1171.050939201605
 31
0.0
  0
LINE
  5
5CB
330
23
100
AcDbEntity
  8
SANINDUSA
100
AcDbLine
 10
764.7343424825266
 20
1170.941659786765
 30
0.0
 11
764.8438731964112
 21
1170.941659786765
 31
0.0
  0
LINE
  5
5CC
330
23
100
AcDbEntity
  8
SANINDUSA
100
AcDbLine
 10
764.8382094826096
 20
1171.035397168602
 30
0.0
 11
764.8452252175819
 21
1171.00725859254
 31
0.0
  0
LINE
  5
5CE
330
23
100
AcDbEntity
  8
SANINDUSA
100
AcDbLine
 10
764.8345519645929
 20
1171.004597451688
 30
0.0
 11
764.8275362296206
 21
1171.03273602775
 31
0.0
  0
LINE
  5
5D0
330
23
100
AcDbEntity
  8
SANINDUSA
100
AcDbLine
 10
764.8313389764931
 20
1170.984419240369
 30
0.0
 11
764.819357085485
 21
1171.051939201605
 31
0.0
  0
LINE
  5
5D1
330
23
100
AcDbEntity
  8
SANINDUSA
100
AcDbLine
 10
764.8205460605318
 20
1170.982283838802
 30
0.0
 11
764.8090949368198
 21
1171.04681283749
 31
0.0
  0
LINE
  5
5D2
330
23
100
AcDbEntity
  8
SANINDUSA
100
AcDbLine
 10
765.0616476225068
 20
1170.991166838229
 30
0.0
 11
765.0785974320278
 21
1171.059148811083
 31
0.0
  0
ARC
  5
5D3
330
23
100
AcDbEntity
  8
SANINDUSA
100
AcDbCircle
 10
765.0963424825268
 20
1171.022939201605
 30
0.0
 40
0.01
100
AcDbArc
 50
270.0
 51
0.0
  0
ARC
  5
5D6
330
23
100
AcDbEntity
  8
SANINDUSA
100
AcDbCircle
 10
765.0082813575616
 20
1171.004472542486
 30
0.0
 40
0.0549999999999999
100
AcDbArc
 50
274.7699897560423
 51
345.9999999981683
  0
ARC
  5
5D7
330
23
100
AcDbEntity
  8
SANINDUSA
100
AcDbCircle
 10
765.0082813575616
 20
1171.004472542486
 30
0.0
 40
0.065
100
AcDbArc
 50
274.7699897560423
 51
345.9999999981683
  0
LINE
  5
5D8
330
23
100
AcDbEntity
  8
SANINDUSA
100
AcDbLine
 10
765.0713505797696
 20
1170.988747619273
 30
0.0
 11
765.078431792202
 21
1171.017148811083
 31
0.0
  0
LINE
  5
5DC
330
23
100
AcDbEntity
  8
SANINDUSA
100
AcDbLine
 10
765.0807231684344
 20
1171.012939201605
 30
0.0
 11
765.077382218678
 21
1171.012939201605
 31
0.0
  0
LINE
  5
5DD
330
23
100
AcDbEntity
  8
SANINDUSA
100
AcDbLine
 10
765.0952776043285
 20
1171.012939201605
 30
0.0
 11
765.0807231684344
 21
1171.012939201605
 31
0.0
  0
ARC
  5
5E2
330
23
100
AcDbEntity
  8
SANINDUSA
100
AcDbCircle
 10
765.0832832708333
 20
1171.015939201605
 30
0.0
 40
0.005
100
AcDbArc
 50
90.0
 51
165.9999999981683
  0
LINE
  5
5E3
330
23
100
AcDbEntity
  8
SANINDUSA
100
AcDbLine
 10
765.0832832708333
 20
1171.020939201605
 30
0.0
 11
765.0854701240407
 21
1171.020939201605
 31
0.0
  0
ARC
  5
5E4
330
23
100
AcDbEntity
  8
SANINDUSA
100
AcDbCircle
 10
765.0854701240407
 20
1171.015939201605
 30
0.0
 40
0.005
100
AcDbArc
 50
14.0000000018317
 51
90.0
  0
ARC
  5
5E6
330
23
100
AcDbEntity
  8
SANINDUSA
100
AcDbCircle
 10
765.0952776043285
 20
1171.017939201605
 30
0.0
 40
0.005
100
AcDbArc
 50
194.0000000018317
 51
270.0
  0
LINE
  5
5E7
330
23
100
AcDbEntity
  8
SANINDUSA
100
AcDbLine
 10
765.0963424825268
 20
1171.012939201605
 30
0.0
 11
765.0952776043285
 21
1171.012939201605
 31
0.0
  0
LINE
  5
5E8
330
23
100
AcDbEntity
  8
SANINDUSA
100
AcDbLine
 10
764.9082124825268
 20
1170.925254832833
 30
0.0
 11
764.8855391372404
 21
1170.930777495691
 31
0.0
  0
ARC
  5
5E9
330
23
100
AcDbEntity
  8
SANINDUSA
100
AcDbCircle
 10
764.9017822694978
 20
1170.910353280463
 30
0.0
 40
0.0050000000000003
100
AcDbArc
 50
4.999999995723404
 51
76.31074118269312
  0
LINE
  5
5EB
330
23
100
AcDbEntity
  8
SANINDUSA
100
AcDbLine
 10
764.9082124825268
 20
1170.932382852419
 30
0.0
 11
764.9046561333406
 21
1170.935939201605
 31
0.0
  0
LINE
  5
5ED
330
23
100
AcDbEntity
  8
SANINDUSA
100
AcDbLine
 10
764.9067125282987
 20
1170.946939201605
 30
0.0
 11
764.9192124825267
 21
1170.935939201605
 31
0.0
  0
LINE
  5
5EE
330
23
100
AcDbEntity
  8
SANINDUSA
100
AcDbLine
 10
764.9662125482749
 20
1170.935939178904
 30
0.0
 11
764.9787125282986
 21
1170.946939201605
 31
0.0
  0
SPLINE
  5
5EF
330
23
100
AcDbEntity
  8
SANINDUSA
100
AcDbSpline
210
0.0
220
0.0
230
1.0
 70
    28
 71
     3
 72
     8
 73
     4
 74
     0
 42
0.0000000001
 43
0.0000000001
 40
0.0
 40
0.0
 40
0.0
 40
0.0
 40
1.0
 40
1.0
 40
1.0
 40
1.0
 10
765.013686490498
 20
1170.939697666663
 30
0.0
 41
1.0
 10
765.0041743131713
 20
1170.938903923992
 30
0.0
 41
1.0
 10
764.9946621358447
 20
1170.93811018132
 30
0.0
 41
1.0
 10
764.985149958518
 20
1170.937316438649
 30
0.0
 41
1.0
  0
LINE
  5
5F0
330
23
100
AcDbEntity
  8
SANINDUSA
100
AcDbLine
 10
764.9192124825267
 20
1170.899939201605
 30
0.0
 11
764.9662124825267
 21
1170.899939201605
 31
0.0
  0
SPLINE
  5
5F1
330
23
100
AcDbEntity
  8
SANINDUSA
100
AcDbSpline
210
0.0
220
0.0
230
1.0
 70
    28
 71
     3
 72
    38
 73
    34
 74
     0
 42
0.0000000001
 43
0.0000000001
 40
0.0
 40
0.0
 40
0.0
 40
0.0
 40
0.0624999999999999
 40
0.0624999999999999
 40
0.1249999999999999
 40
0.1249999999999999
 40
0.1874999999999999
 40
0.1874999999999999
 40
0.2499999999999998
 40
0.2499999999999998
 40
0.3124999999999998
 40
0.3124999999999998
 40
0.3749999999999999
 40
0.3749999999999999
 40
0.4375
 40
0.4375
 40
0.5
 40
0.5
 40
0.5625
 40
0.5625
 40
0.625
 40
0.625
 40
0.6875000000000001
 40
0.6875000000000001
 40
0.7500000000000001
 40
0.7500000000000001
 40
0.8125
 40
0.8125
 40
0.8749999999999998
 40
0.8749999999999998
 40
0.9375
 40
0.9375
 40
1.0
 40
1.0
 40
1.0
 40
1.0
 10
764.9662124825267
 20
1170.935939201605
 30
0.0
 41
1.0
 10
764.9662124825267
 20
1170.935939201605
 30
0.0
 41
1.0
 10
764.9660609994615
 20
1170.935939201605
 30
0.0
 41
1.0
 10
764.9654608737709
 20
1170.935939201605
 30
0.0
 41
1.0
 10
764.9650122459846
 20
1170.935939201605
 30
0.0
 41
1.0
 10
764.9638350570969
 20
1170.935939201605
 30
0.0
 41
1.0
 10
764.9631065251038
 20
1170.935939201605
 30
0.0
 41
1.0
 10
764.9613975117278
 20
1170.935939201605
 30
0.0
 41
1.0
 10
764.9604170726038
 20
1170.935939201605
 30
0.0
 41
1.0
 10
764.9582419111653
 20
1170.935939201605
 30
0.0
 41
1.0
 10
764.9570472426361
 20
1170.935939201605
 30
0.0
 41
1.0
 10
764.9544895233693
 20
1170.935939201605
 30
0.0
 41
1.0
 10
764.9531265358764
 20
1170.935939201605
 30
0.0
 41
1.0
 10
764.9502845504983
 20
1170.935939201605
 30
0.0
 41
1.0
 10
764.9488056228866
 20
1170.935939201605
 30
0.0
 41
1.0
 10
764.9457885873015
 20
1170.935939201605
 30
0.0
 41
1.0
 10
764.94425055393
 20
1170.935939201605
 30
0.0
 41
1.0
 10
764.9411744111233
 20
1170.935939201605
 30
0.0
 41
1.0
 10
764.9396363777519
 20
1170.935939201605
 30
0.0
 41
1.0
 10
764.9366193421667
 20
1170.935939201605
 30
0.0
 41
1.0
 10
764.9351404145552
 20
1170.935939201605
 30
0.0
 41
1.0
 10
764.9322984291771
 20
1170.935939201605
 30
0.0
 41
1.0
 10
764.9309354416841
 20
1170.935939201605
 30
0.0
 41
1.0
 10
764.9283777224174
 20
1170.935939201605
 30
0.0
 41
1.0
 10
764.9271830538881
 20
1170.935939201605
 30
0.0
 41
1.0
 10
764.9250078924495
 20
1170.935939201605
 30
0.0
 41
1.0
 10
764.9240274533256
 20
1170.935939201605
 30
0.0
 41
1.0
 10
764.9223184399496
 20
1170.935939201605
 30
0.0
 41
1.0
 10
764.9215899079565
 20
1170.935939201605
 30
0.0
 41
1.0
 10
764.9204127190688
 20
1170.935939201605
 30
0.0
 41
1.0
 10
764.9199640912826
 20
1170.935939201605
 30
0.0
 41
1.0
 10
764.9193639655918
 20
1170.935939201605
 30
0.0
 41
1.0
 10
764.9192124825267
 20
1170.935939201605
 30
0.0
 41
1.0
 10
764.9192124825267
 20
1170.935939201605
 30
0.0
 41
1.0
  0
LINE
  5
5F2
330
23
100
AcDbEntity
  8
SANINDUSA
100
AcDbLine
 10
764.9662124825267
 20
1170.899939201605
 30
0.0
 11
764.9662124825267
 21
1170.935939201605
 31
0.0
  0
LINE
  5
5F3
330
23
100
AcDbEntity
  8
SANINDUSA
100
AcDbLine
 10
764.9777923460508
 20
1170.900852045862
 30
0.0
 11
764.9805847644842
 21
1170.932769534607
 31
0.0
  0
LINE
  5
5F4
330
23
100
AcDbEntity
  8
SANINDUSA
100
AcDbLine
 10
764.9662124825267
 20
1170.899939201605
 30
0.0
 11
764.9767961513527
 21
1170.899939201605
 31
0.0
  0
ARC
  5
5F5
330
23
100
AcDbEntity
  8
SANINDUSA
100
AcDbCircle
 10
764.9767961513527
 20
1170.900939201604
 30
0.0
 40
0.001
100
AcDbArc
 50
270.0
 51
355.0000000042766
  0
ARC
  5
5F6
330
23
100
AcDbEntity
  8
SANINDUSA
100
AcDbCircle
 10
764.9855657379747
 20
1170.932333755894
 30
0.0
 40
0.005
100
AcDbArc
 50
94.7699897560423
 51
175.0000000042766
  0
LINE
  5
5F7
330
23
100
AcDbEntity
  8
SANINDUSA
100
AcDbLine
 10
764.9192124825267
 20
1170.920080241869
 30
0.0
 11
764.9192124825267
 21
1170.899939201605
 31
0.0
  0
LINE
  5
5F8
330
23
100
AcDbEntity
  8
SANINDUSA
100
AcDbLine
 10
764.9086288137007
 20
1170.899939201605
 30
0.0
 11
764.9192124825267
 21
1170.899939201605
 31
0.0
  0
ARC
  5
5F9
330
23
100
AcDbEntity
  8
SANINDUSA
100
AcDbCircle
 10
764.9086288137007
 20
1170.900939201604
 30
0.0
 40
0.001
100
AcDbArc
 50
184.9999999957234
 51
270.0
  0
LINE
  5
5FA
330
23
100
AcDbEntity
  8
SANINDUSA
100
AcDbLine
 10
764.9067632429883
 20
1170.910789059177
 30
0.0
 11
764.9076326190026
 21
1170.900852045862
 31
0.0
  0
LINE
  5
5FB
330
23
100
AcDbEntity
  8
SANINDUSA
100
AcDbLine
 10
764.9082124825268
 20
1170.925254832833
 30
0.0
 11
764.9192124825267
 21
1170.920080241869
 31
0.0
  0
LINE
  5
5FC
330
23
100
AcDbEntity
  8
SANINDUSA
100
AcDbLine
 10
764.9192124825267
 20
1170.929593124879
 30
0.0
 11
764.9250155741206
 21
1170.928121393568
 31
0.0
  0
ELLIPSE
  5
5FD
330
23
100
AcDbEntity
  8
SANINDUSA
100
AcDbEllipse
 10
764.9427124825267
 20
1170.633091333114
 30
0.0
 11
0.0000000000000016
 21
0.4484067121616118
 31
0.0
210
0.0
220
0.0
230
1.0
 40
0.0524077792830414
 41
0.8527004758972546
 42
0.8835351086891517
  0
LINE
  5
5FE
330
23
100
AcDbEntity
  8
SANINDUSA
100
AcDbLine
 10
764.9245473007919
 20
1170.917570650743
 30
0.0
 11
764.9192124825267
 21
1170.920080241869
 31
0.0
  0
LINE
  5
5FF
330
23
100
AcDbEntity
  8
SANINDUSA
100
AcDbLine
 10
764.9192124825267
 20
1170.929593124879
 30
0.0
 11
764.9082124825268
 21
1170.932382852419
 31
0.0
  0
LINE
  5
600
330
23
100
AcDbEntity
  8
SANINDUSA
100
AcDbLine
 10
764.9192124825267
 20
1170.935939201605
 30
0.0
 11
764.9192124825267
 21
1170.929593124879
 31
0.0
  0
LINE
  5
601
330
23
100
AcDbEntity
  8
SANINDUSA
100
AcDbLine
 10
764.9787125282986
 20
1170.946939201605
 30
0.0
 11
764.9067125282987
 21
1170.946939201605
 31
0.0
  0
LINE
  5
602
330
23
100
AcDbEntity
  8
SANINDUSA
100
AcDbLine
 10
764.9802126656144
 20
1170.946939201605
 30
0.0
 11
765.0128549315846
 21
1170.949663032174
 31
0.0
  0
LINE
  5
605
330
23
100
AcDbEntity
  8
SANINDUSA
100
AcDbLine
 10
764.9802125740706
 20
1170.946939201605
 30
0.0
 11
764.9787125282986
 21
1170.946939201605
 31
0.0
  0
ARC
  5
606
330
23
100
AcDbEntity
  8
SANINDUSA
100
AcDbCircle
 10
764.9030516817254
 20
1171.002675414894
 30
0.0
 40
0.0740000000000001
100
AcDbArc
 50
194.28261995336
 51
256.3107411826932
  0
ARC
  5
607
330
23
100
AcDbEntity
  8
SANINDUSA
100
AcDbCircle
 10
764.9030516817254
 20
1171.002675414894
 30
0.0
 40
0.0850000000000002
100
AcDbArc
 50
194.1212233517855
 51
256.3107411826932
  0
ARC
  5
608
330
23
100
AcDbEntity
  8
SANINDUSA
100
AcDbCircle
 10
764.9030516817254
 20
1171.002675414894
 30
0.0
 40
0.066
100
AcDbArc
 50
194.0000000018317
 51
262.6388400716968
  0
LINE
  5
609
330
23
100
AcDbEntity
  8
SANINDUSA
100
AcDbLine
 10
764.9029655495305
 20
1170.915211247977
 30
0.0
 11
764.8829359211682
 21
1170.920089967161
 31
0.0
  0
SPLINE
  5
60A
330
23
100
AcDbEntity
  8
SANINDUSA
100
AcDbSpline
210
0.0
220
0.0
230
1.0
 70
    28
 71
     3
 72
     8
 73
     4
 74
     0
 42
0.0000000001
 43
0.0000000001
 40
0.0
 40
0.0
 40
0.0
 40
0.0
 40
1.0
 40
1.0
 40
1.0
 40
1.0
 10
764.8945955422127
 20
1170.93721937083
 30
0.0
 41
1.0
 10
764.8978986575833
 20
1170.936792647755
 30
0.0
 41
1.0
 10
764.9012017729538
 20
1170.93636592468
 30
0.0
 41
1.0
 10
764.9045048883245
 20
1170.935939201605
 30
0.0
 41
1.0
  0
ARC
  5
60D
330
23
100
AcDbEntity
  8
SANINDUSA
100
AcDbCircle
 10
764.9030516817254
 20
1171.002675414894
 30
0.0
 40
0.0550000000000002
100
AcDbArc
 50
194.0000000018317
 51
262.6388400716968
  0
LINE
  5
60F
330
23
100
AcDbEntity
  8
SANINDUSA
100
AcDbLine
 10
764.8960048987982
 20
1170.948128711507
 30
0.0
 11
764.9052124825267
 21
1170.946939201605
 31
0.0
  0
LINE
  5
611
330
23
100
AcDbEntity
  8
SANINDUSA
100
AcDbLine
 10
764.8345519645929
 20
1171.004597451688
 30
0.0
 11
764.8390121637911
 21
1170.986708569784
 31
0.0
  0
LINE
  5
612
330
23
100
AcDbEntity
  8
SANINDUSA
100
AcDbLine
 10
764.8452252175819
 20
1171.00725859254
 30
0.0
 11
764.8496854167802
 21
1170.989369710636
 31
0.0
  0
ARC
  5
613
330
23
100
AcDbEntity
  8
SANINDUSA
100
AcDbCircle
 10
764.8355222603193
 20
1171.004839373584
 30
0.0
 40
0.0010000000000001
100
AcDbArc
 50
104.0000000002559
 51
194.0000000018317
  0
ARC
  5
614
330
23
100
AcDbEntity
  8
SANINDUSA
100
AcDbCircle
 10
764.8442549218557
 20
1171.007016670644
 30
0.0
 40
0.001
100
AcDbArc
 50
14.0000000018317
 51
104.0000000002559
  0
LINE
  5
615
330
23
100
AcDbEntity
  8
SANINDUSA
100
AcDbLine
 10
764.8352803384236
 20
1171.00580966931
 30
0.0
 11
764.8440129999601
 21
1171.00798696637
 31
0.0
  0
LINE
  5
617
330
23
100
AcDbEntity
  8
SANINDUSA
100
AcDbLine
 10
764.8274360543942
 20
1171.062939201605
 30
0.0
 11
765.0834489106593
 21
1171.062939201605
 31
0.0
  0
ARC
  5
619
330
23
100
AcDbEntity
  8
SANINDUSA
100
AcDbCircle
 10
765.0963424825268
 20
1171.052939201605
 30
0.0
 40
0.01
100
AcDbArc
 50
0.0
 51
90.0
  0
LINE
  5
61A
330
23
100
AcDbEntity
  8
SANINDUSA
100
AcDbLine
 10
765.1063424825268
 20
1171.022939201605
 30
0.0
 11
765.1063424825268
 21
1171.052939201605
 31
0.0
  0
LINE
  5
61B
330
23
100
AcDbEntity
  8
SANINDUSA
100
AcDbLine
 10
765.0953424825266
 20
1171.031939201605
 30
0.0
 11
765.0953424825266
 21
1171.051939201605
 31
0.0
  0
LINE
  5
61C
330
23
100
AcDbEntity
  8
SANINDUSA
100
AcDbLine
 10
765.0831500643614
 20
1171.031939201605
 30
0.0
 11
765.0881366244183
 21
1171.051939201605
 31
0.0
  0
LINE
  5
61D
330
23
100
AcDbEntity
  8
SANINDUSA
100
AcDbLine
 10
765.0831500643614
 20
1171.031939201605
 30
0.0
 11
765.0953424825266
 21
1171.031939201605
 31
0.0
  0
LINE
  5
61E
330
23
100
AcDbEntity
  8
SANINDUSA
100
AcDbLine
 10
765.0953424825266
 20
1171.051939201605
 30
0.0
 11
765.0881366244183
 21
1171.051939201605
 31
0.0
  0
LINE
  5
61F
330
23
100
AcDbEntity
  8
SANINDUSA
100
AcDbLine
 10
765.0963424825268
 20
1171.062939201605
 30
0.0
 11
765.0834489106593
 21
1171.062939201605
 31
0.0
  0
ARC
  5
620
330
23
100
AcDbEntity
  8
SANINDUSA
100
AcDbCircle
 10
765.0834489106593
 20
1171.057939201605
 30
0.0
 40
0.005
100
AcDbArc
 50
90.0
 51
165.9999999981683
  0
LINE
  5
621
330
23
100
AcDbEntity
  8
SANINDUSA
100
AcDbLine
 10
764.8227483406351
 20
1171.051939201605
 30
0.0
 11
764.8275362296206
 21
1171.03273602775
 31
0.0
  0
LINE
  5
622
330
23
100
AcDbEntity
  8
SANINDUSA
100
AcDbLine
 10
764.8274360543942
 20
1171.062939201605
 30
0.0
 11
764.7976718523863
 21
1171.062939201605
 31
0.0
  0
LINE
  5
623
330
23
100
AcDbEntity
  8
SANINDUSA
100
AcDbLine
 10
764.8322875330255
 20
1171.059148811083
 30
0.0
 11
764.8382094826096
 21
1171.035397168602
 31
0.0
  0
ARC
  5
624
330
23
100
AcDbEntity
  8
SANINDUSA
100
AcDbCircle
 10
764.8285065253467
 20
1171.032977949646
 30
0.0
 40
0.0010000000000002
100
AcDbArc
 50
194.0000000018317
 51
284.0000000002559
  0
LINE
  5
625
330
23
100
AcDbEntity
  8
SANINDUSA
100
AcDbLine
 10
764.837481108779
 20
1171.03418495098
 30
0.0
 11
764.8287484472424
 21
1171.03200765392
 31
0.0
  0
ARC
  5
626
330
23
100
AcDbEntity
  8
SANINDUSA
100
AcDbCircle
 10
764.8372391868833
 20
1171.035155246706
 30
0.0
 40
0.0010000000000001
100
AcDbArc
 50
284.0000000002559
 51
14.0000000018317
  0
ARC
  5
627
330
23
100
AcDbEntity
  8
SANINDUSA
100
AcDbCircle
 10
764.8274360543942
 20
1171.057939201605
 30
0.0
 40
0.005
100
AcDbArc
 50
14.0000000018317
 51
90.0
  0
LINE
  5
628
330
23
100
AcDbEntity
  8
SANINDUSA
100
AcDbLine
 10
764.8227483406351
 20
1171.051939201605
 30
0.0
 11
764.819357085485
 21
1171.051939201605
 31
0.0
  0
ARC
  5
629
330
23
100
AcDbEntity
  8
SANINDUSA
100
AcDbCircle
 10
764.7976718523863
 20
1171.061939201605
 30
0.0
 40
0.0010000000000001
100
AcDbArc
 50
90.0
 51
180.0
  0
LINE
  5
62A
330
23
100
AcDbEntity
  8
SANINDUSA
100
AcDbLine
 10
764.7966718523863
 20
1171.051939201605
 30
0.0
 11
764.7966718523863
 21
1171.061939201605
 31
0.0
  0
ARC
  5
62B
330
23
100
AcDbEntity
  8
SANINDUSA
100
AcDbCircle
 10
764.7976718523863
 20
1171.051939201605
 30
0.0
 40
0.0010000000000001
100
AcDbArc
 50
180.0
 51
270.0
  0
LINE
  5
62C
330
23
100
AcDbEntity
  8
SANINDUSA
100
AcDbLine
 10
764.8041718523862
 20
1171.050939201605
 30
0.0
 11
764.7976718523863
 21
1171.050939201605
 31
0.0
  0
ARC
  5
62D
330
23
100
AcDbEntity
  8
SANINDUSA
100
AcDbCircle
 10
764.8041718523862
 20
1171.045939201605
 30
0.0
 40
0.0050000000000001
100
AcDbArc
 50
10.06278188842213
 51
90.0
  0
LINE
  5
62E
330
23
100
AcDbEntity
  8
SANINDUSA
100
AcDbLine
 10
764.7313424825267
 20
1171.017874576769
 30
0.0
 11
764.7313424825267
 21
1171.023939201605
 31
0.0
  0
LINE
  5
631
330
23
100
AcDbEntity
  8
SANINDUSA
100
AcDbLine
 10
764.7313424825267
 20
1171.008215160605
 30
0.0
 11
764.7313424825267
 21
1171.031194158582
 31
0.0
  0
LINE
  5
64D
330
23
100
AcDbEntity
  8
SANINDUSA
100
AcDbLine
 10
764.7313424825267
 20
1170.973234102472
 30
0.0
 11
764.7313424825267
 21
1171.008215160605
 31
0.0
  0
LINE
  5
64F
330
23
100
AcDbEntity
  8
SANINDUSA
100
AcDbLine
 10
764.7313424825267
 20
1170.946627597536
 30
0.0
 11
764.7313424825267
 21
1170.972114246265
 31
0.0
  0
LINE
  5
652
330
23
100
AcDbEntity
  8
SANINDUSA
100
AcDbLine
 10
764.7313424825267
 20
1170.944659786765
 30
0.0
 11
764.7313424825267
 21
1170.945014653108
 31
0.0
  0
LINE
  5
653
330
23
100
AcDbEntity
  8
SANINDUSA
100
AcDbLine
 10
764.7313424825267
 20
1170.945014653108
 30
0.0
 11
764.7313424825267
 21
1170.946434318211
 31
0.0
  0
LINE
  5
658
330
23
100
AcDbEntity
  8
SANINDUSA
100
AcDbLine
 10
764.7313424825267
 20
1170.946434318211
 30
0.0
 11
764.7313424825267
 21
1170.946627597536
 31
0.0
  0
ARC
  5
65F
330
23
100
AcDbEntity
  8
SANINDUSA
100
AcDbCircle
 10
764.7343424825266
 20
1170.944659786765
 30
0.0
 40
0.0030000000000001
100
AcDbArc
 50
180.0
 51
270.0
  0
LINE
  5
660
330
23
100
AcDbEntity
  8
SANINDUSA
100
AcDbLine
 10
764.7313424825267
 20
1170.972114246265
 30
0.0
 11
764.7313424825267
 21
1170.973234102472
 31
0.0
  0
ARC
  5
668
330
23
100
AcDbEntity
  8
SANINDUSA
100
AcDbCircle
 10
764.7473770680781
 20
1171.045939201605
 30
0.0
 40
0.005
100
AcDbArc
 50
90.0
 51
174.0000000022097
  0
LINE
  5
669
330
23
100
AcDbEntity
  8
SANINDUSA
100
AcDbLine
 10
764.7606718523863
 20
1171.062939201605
 30
0.0
 11
764.7343424825266
 21
1171.062939201605
 31
0.0
  0
LINE
  5
66B
330
23
100
AcDbEntity
  8
SANINDUSA
100
AcDbLine
 10
764.7409550367589
 20
1171.032671516265
 30
0.0
 11
764.7424044586013
 21
1171.046461843921
 31
0.0
  0
LINE
  5
67B
330
23
100
AcDbEntity
  8
SANINDUSA
100
AcDbLine
 10
764.7606718523863
 20
1171.050939201605
 30
0.0
 11
764.7473770680781
 21
1171.050939201605
 31
0.0
  0
ARC
  5
67C
330
23
100
AcDbEntity
  8
SANINDUSA
100
AcDbCircle
 10
764.7606718523863
 20
1171.051939201605
 30
0.0
 40
0.0010000000000002
100
AcDbArc
 50
270.0
 51
0.0
  0
LINE
  5
67D
330
23
100
AcDbEntity
  8
SANINDUSA
100
AcDbLine
 10
764.7616718523862
 20
1171.061939201605
 30
0.0
 11
764.7616718523862
 21
1171.051939201605
 31
0.0
  0
ARC
  5
67E
330
23
100
AcDbEntity
  8
SANINDUSA
100
AcDbCircle
 10
764.7606718523863
 20
1171.061939201605
 30
0.0
 40
0.0010000000000001
100
AcDbArc
 50
0.0
 51
90.0
  0
LINE
  5
680
330
23
100
AcDbEntity
  8
SANINDUSA
100
AcDbLine
 10
764.7313424825267
 20
1171.059939201605
 30
0.0
 11
764.7313424825267
 21
1171.031194158582
 31
0.0
  0
ARC
  5
681
330
23
100
AcDbEntity
  8
SANINDUSA
100
AcDbCircle
 10
764.7343424825266
 20
1171.031194158582
 30
0.0
 40
0.0030000000000001
100
AcDbArc
 50
180.0
 51
270.0
  0
LINE
  5
682
330
23
100
AcDbEntity
  8
SANINDUSA
100
AcDbLine
 10
764.7359824272821
 20
1171.028194158582
 30
0.0
 11
764.7343424825266
 21
1171.028194158582
 31
0.0
  0
ARC
  5
683
330
23
100
AcDbEntity
  8
SANINDUSA
100
AcDbCircle
 10
764.7359824272821
 20
1171.033194158582
 30
0.0
 40
0.005
100
AcDbArc
 50
270.0
 51
354.0000000022097
  0
ARC
  5
685
330
23
100
AcDbEntity
  8
SANINDUSA
100
AcDbCircle
 10
764.7343424825266
 20
1171.059939201605
 30
0.0
 40
0.0030000000000001
100
AcDbArc
 50
90.0
 51
180.0
  0
LINE
  5
6E6
330
23
100
AcDbEntity
  8
SANINDUSA
100
AcDbLine
 10
764.9052124825267
 20
1170.946939201605
 30
0.0
 11
764.9067125282987
 21
1170.946939201605
 31
0.0
  0
ARC
  5
9E5
330
23
100
AcDbEntity
  8
SANINDUSA
100
AcDbCircle
 10
763.5272700287831
 20
1171.002675414894
 30
0.0
 40
0.0850000000000002
100
AcDbArc
 50
225.8756862656429
 51
256.3107411826932
  0
LINE
  5
9E6
330
23
100
AcDbEntity
  8
SANINDUSA
100
AcDbLine
 10
763.5064628480254
 20
1170.941721575898
 30
0.0
 11
763.3585608295845
 21
1170.941721575898
 31
0.0
  0
LINE
  5
9E8
330
23
100
AcDbEntity
  8
SANINDUSA
100
AcDbLine
 10
763.7205608295845
 20
1171.062939201605
 30
0.0
 11
763.3585608295845
 21
1171.062939201605
 31
0.0
  0
LINE
  5
9EA
330
23
100
AcDbEntity
  8
SANINDUSA
100
AcDbLine
 10
763.3585608295845
 20
1171.012939201605
 30
0.0
 11
763.7205608295845
 21
1171.012939201605
 31
0.0
  0
LINE
  5
9EC
330
23
100
AcDbEntity
  8
SANINDUSA
100
AcDbLine
 10
763.5064628480254
 20
1170.9416597956
 30
0.0
 11
763.3585608295845
 21
1170.941659786765
 31
0.0
  0
LINE
  5
9EE
330
23
100
AcDbEntity
  8
SANINDUSA
100
AcDbLine
 10
763.695734089988
 20
1170.989410052528
 30
0.0
 11
763.7016005718159
 21
1171.01293920086
 31
0.0
  0
ARC
  5
9EF
330
23
100
AcDbEntity
  8
SANINDUSA
100
AcDbCircle
 10
763.6324997046194
 20
1171.004472542486
 30
0.0
 40
0.0650000000000001
100
AcDbArc
 50
274.7699897560423
 51
345.9999999981683
  0
ARC
  5
9F3
330
23
100
AcDbEntity
  8
SANINDUSA
100
AcDbCircle
 10
763.6010144984104
 20
1170.900939201604
 30
0.0
 40
0.001
100
AcDbArc
 50
270.0
 51
355.0000000042766
  0
ARC
  5
9F4
330
23
100
AcDbEntity
  8
SANINDUSA
100
AcDbCircle
 10
763.5328471607586
 20
1170.900939201604
 30
0.0
 40
0.0010000000000001
100
AcDbArc
 50
184.9999999957234
 51
270.0
  0
LINE
  5
9F5
330
23
100
AcDbEntity
  8
SANINDUSA
100
AcDbLine
 10
763.5328471607586
 20
1170.899939201605
 30
0.0
 11
763.6010144984104
 21
1170.899939201605
 31
0.0
  0
LWPOLYLINE
  5
9FA
330
23
100
AcDbEntity
  8
SANINDUSA
100
AcDbPolyline
 90
       15
 70
   128
 43
0.0
 10
763.6090138682174
 20
1170.937311892521
 10
763.6089565881538
 20
1170.937311162364
 10
763.6076961510824
 20
1170.937295337331
 10
763.6051934563564
 20
1170.937265892636
 10
763.6015180439698
 20
1170.937229980838
 10
763.5969650612222
 20
1170.937204380643
 10
763.5914050617265
 20
1170.937186603557
 10
763.5853063107478
 20
1170.937176038634
 10
763.5784972623931
 20
1170.937171165954
 10
763.5715529208081
 20
1170.93717188121
 10
763.5642735731797
 20
1170.937178303611
 10
763.5572785359816
 20
1170.937190716278
 10
763.5503621848309
 20
1170.937210877549
 10
763.5441272275764
 20
1170.937239800703
 10
763.5383787855515
 20
1170.937282462727
  0
LWPOLYLINE
  5
9FE
330
23
100
AcDbEntity
  8
SANINDUSA
100
AcDbPolyline
 90
        3
 70
   128
 43
0.0
 10
763.6093683072375
 20
1170.937316437375
 10
763.6295345255184
 20
1170.938999203157
 10
763.6379048355864
 20
1170.939697665285
  0
LINE
  5
A01
330
23
100
AcDbEntity
  8
SANINDUSA
100
AcDbLine
 10
763.6048031115421
 20
1170.932769534607
 30
0.0
 11
763.6020106931085
 21
1170.900852045862
 31
0.0
  0
ARC
  5
A03
330
23
100
AcDbEntity
  8
SANINDUSA
100
AcDbCircle
 10
763.6097840850325
 20
1170.932333755894
 30
0.0
 40
0.005
100
AcDbArc
 50
94.7699897560423
 51
175.0000000042766
  0
LINE
  5
A0A
330
23
100
AcDbEntity
  8
SANINDUSA
100
AcDbLine
 10
763.507154268226
 20
1170.920089967161
 30
0.0
 11
763.5331124891255
 21
1170.913767190323
 31
0.0
  0
LWPOLYLINE
  5
A0D
330
23
100
AcDbEntity
  8
SANINDUSA
100
AcDbPolyline
 90
        3
 70
   128
 43
0.0
 10
763.5383787855515
 20
1170.937282462727
 10
763.5351399543704
 20
1170.937477235805
 10
763.5210243348973
 20
1170.938625713002
  0
ARC
  5
A0F
330
23
100
AcDbEntity
  8
SANINDUSA
100
AcDbCircle
 10
763.5260006165556
 20
1170.910353280463
 30
0.0
 40
0.005
100
AcDbArc
 50
5.026219309243302
 51
76.31074118269312
  0
LINE
  5
A10
330
23
100
AcDbEntity
  8
SANINDUSA
100
AcDbLine
 10
763.5318509660605
 20
1170.900852045862
 30
0.0
 11
763.5309813901064
 21
1170.910791338491
 31
0.0
  0
LINE
  5
A12
330
23
100
AcDbEntity
  8
SANINDUSA
100
AcDbLine
 10
763.5381026486375
 20
1170.932557936217
 30
0.0
 11
763.5392187169322
 21
1170.917164370448
 31
0.0
  0
LWPOLYLINE
  5
A15
330
23
100
AcDbEntity
  8
SANINDUSA
100
AcDbPolyline
 90
        9
 70
   128
 43
0.0
 10
763.5392187169762
 20
1170.917164375197
 10
763.5393822029708
 20
1170.916345243465
 10
763.5393636712814
 20
1170.915962060105
 10
763.5391213616365
 20
1170.915253047954
 10
763.538922520076
 20
1170.914962698828
 10
763.537812578679
 20
1170.914124448907
 10
763.5358715790333
 20
1170.913592641365
 10
763.5337774815979
 20
1170.913635556709
 10
763.5331124893399
 20
1170.913767193567
  0
ARC
  5
A1B
330
23
100
AcDbEntity
  8
SANINDUSA
100
AcDbCircle
 10
763.9869058571733
 20
1170.908696837162
 30
0.0
 40
0.4494370611848896
100
AcDbArc
 50
176.353344813494
 51
176.9566750905772
  0
ARC
  5
A21
330
23
100
AcDbEntity
  8
SANINDUSA
100
AcDbCircle
 10
763.5249832439525
 20
1170.992916882301
 30
0.0
 40
0.0544353196437235
100
AcDbArc
 50
250.3424651626668
 51
265.8293766590929
  0
ARC
  5
A28
330
23
100
AcDbEntity
  8
SANINDUSA
100
AcDbCircle
 10
763.7205608295845
 20
1171.052939201605
 30
0.0
 40
0.01
100
AcDbArc
 50
0.0
 51
90.0
  0
LINE
  5
A29
330
23
100
AcDbEntity
  8
SANINDUSA
100
AcDbLine
 10
763.7305608295845
 20
1171.022939201605
 30
0.0
 11
763.7305608295845
 21
1171.052939201605
 31
0.0
  0
ARC
  5
A2B
330
23
100
AcDbEntity
  8
SANINDUSA
100
AcDbCircle
 10
763.7205608295845
 20
1171.022939201605
 30
0.0
 40
0.01
100
AcDbArc
 50
270.0
 51
0.0
  0
LINE
  5
A2E
330
23
100
AcDbEntity
  8
SANINDUSA
100
AcDbLine
 10
763.7049415164637
 20
1171.01293920086
 30
0.0
 11
763.7016005718159
 21
1171.01293920086
 31
0.0
  0
LINE
  5
A2F
330
23
100
AcDbEntity
  8
SANINDUSA
100
AcDbLine
 10
763.7194959574388
 20
1171.01293920086
 30
0.0
 11
763.7049415164637
 21
1171.01293920086
 31
0.0
  0
LINE
  5
A36
330
23
100
AcDbEntity
  8
SANINDUSA
100
AcDbLine
 10
763.3555608295845
 20
1171.017874576769
 30
0.0
 11
763.3555608295845
 21
1170.990925696801
 31
0.0
  0
LINE
  5
A37
330
23
100
AcDbEntity
  8
SANINDUSA
100
AcDbLine
 10
763.3555608295845
 20
1170.990925696801
 30
0.0
 11
763.3555608295845
 21
1170.944684502418
 31
0.0
  0
ARC
  5
A3B
330
23
100
AcDbEntity
  8
SANINDUSA
100
AcDbCircle
 10
763.3585423981577
 20
1170.944703148117
 30
0.0
 40
0.002981626872167
100
AcDbArc
 50
180.3582961529961
 51
270.3543025643417
  0
ARC
  5
A3C
330
23
100
AcDbEntity
  8
SANINDUSA
100
AcDbCircle
 10
763.3585608295845
 20
1170.944659786765
 30
0.0
 40
0.0030000000000001
100
AcDbArc
 50
180.0
 51
270.0
  0
LINE
  5
A3E
330
23
100
AcDbEntity
  8
SANINDUSA
100
AcDbLine
 10
763.3555608295845
 20
1171.057939201605
 30
0.0
 11
763.3555608295845
 21
1171.017939201605
 31
0.0
  0
ARC
  5
A48
330
23
100
AcDbEntity
  8
SANINDUSA
100
AcDbCircle
 10
763.3585608295845
 20
1171.059939201605
 30
0.0
 40
0.003
100
AcDbArc
 50
90.0
 51
180.0
  0
ENDSEC
  0
SECTION
  2
OBJECTS
  0
DICTIONARY
  5
C
330
0
100
AcDbDictionary
281
     1
  3
ACAD_COLOR
350
1C
  3
ACAD_GROUP
350
D
  3
ACAD_LAYOUT
350
1A
  3
ACAD_MATERIAL
350
1B
  3
ACAD_MLINESTYLE
350
17
  3
ACAD_PLOTSETTINGS
350
19
  3
ACAD_PLOTSTYLENAME
350
E
  3
ACAD_TABLESTYLE
350
1D
  3
ACDBHEADERROUNDTRIPXREC
350
A64
  3
AcDbVariableDictionary
350
A5E
  0
DICTIONARY
  5
1C
102
{ACAD_REACTORS
330
C
102
}
330
C
100
AcDbDictionary
281
     1
  0
DICTIONARY
  5
D
102
{ACAD_REACTORS
330
C
102
}
330
C
100
AcDbDictionary
281
     1
  0
DICTIONARY
  5
1A
102
{ACAD_REACTORS
330
C
102
}
330
C
100
AcDbDictionary
281
     1
  3
Layout1
350
22
  3
Layout2
350
2A
  3
Model
350
26
  0
DICTIONARY
  5
1B
102
{ACAD_REACTORS
330
C
102
}
330
C
100
AcDbDictionary
281
     1
  0
DICTIONARY
  5
17
102
{ACAD_REACTORS
330
C
102
}
330
C
100
AcDbDictionary
281
     1
  3
Standard
350
18
  0
DICTIONARY
  5
19
102
{ACAD_REACTORS
330
C
102
}
330
C
100
AcDbDictionary
281
     1
  0
ACDBDICTIONARYWDFLT
  5
E
102
{ACAD_REACTORS
330
C
102
}
330
C
100
AcDbDictionary
281
     1
  3
Normal
350
F
100
AcDbDictionaryWithDefault
340
F
  0
DICTIONARY
  5
1D
102
{ACAD_REACTORS
330
C
102
}
330
C
100
AcDbDictionary
281
     1
  3
Standard
350
1E
  0
DICTIONARY
  5
A64
102
{ACAD_REACTORS
330
C
102
}
330
C
100
AcDbDictionary
281
     1
  0
DICTIONARY
  5
A5E
102
{ACAD_REACTORS
330
C
102
}
330
C
100
AcDbDictionary
281
     1
  3
CTABLESTYLE
350
A5F
  3
DIMASSOC
350
A61
  3
HIDETEXT
350
A60
  3
PROJECTNAME
350
A62
  0
LAYOUT
  5
22
102
{ACAD_XDICTIONARY
360
A65
102
}
102
{ACAD_REACTORS
330
1A
102
}
330
1A
100
AcDbPlotSettings
  1

  2
C:\Documents and Settings\Julio\Application Data\Autodesk\AutoCAD 2006\R16.2\enu\plotters\Default Windows System Printer.pc3
  4

  6

 40
0.0
 41
0.0
 42
0.0
 43
0.0
 44
0.0
 45
0.0
 46
0.0
 47
0.0
 48
0.0
 49
0.0
140
0.0
141
0.0
142
1.0
143
1.0
 70
   688
 72
     0
 73
     0
 74
     5
  7

 75
    16
147
1.0
148
0.0
149
0.0
100
AcDbLayout
  1
Layout1
 70
     1
 71
     1
 10
0.0
 20
0.0
 11
420.0
 21
297.0
 12
0.0
 22
0.0
 32
0.0
 14
1.000000000000000E+20
 24
1.000000000000000E+20
 34
1.000000000000000E+20
 15
-1.000000000000000E+20
 25
-1.000000000000000E+20
 35
-1.000000000000000E+20
146
0.0
 13
0.0
 23
0.0
 33
0.0
 16
1.0
 26
0.0
 36
0.0
 17
0.0
 27
1.0
 37
0.0
 76
     0
330
1F
  0
LAYOUT
  5
2A
102
{ACAD_XDICTIONARY
360
A69
102
}
102
{ACAD_REACTORS
330
1A
102
}
330
1A
100
AcDbPlotSettings
  1

  2
C:\Documents and Settings\Julio\Application Data\Autodesk\AutoCAD 2006\R16.2\enu\plotters\Default Windows System Printer.pc3
  4

  6

 40
0.0
 41
0.0
 42
0.0
 43
0.0
 44
0.0
 45
0.0
 46
0.0
 47
0.0
 48
0.0
 49
0.0
140
0.0
141
0.0
142
1.0
143
1.0
 70
   688
 72
     0
 73
     0
 74
     5
  7

 75
    16
147
1.0
148
0.0
149
0.0
100
AcDbLayout
  1
Layout2
 70
     1
 71
     2
 10
0.0
 20
0.0
 11
12.0
 21
9.0
 12
0.0
 22
0.0
 32
0.0
 14
0.0
 24
0.0
 34
0.0
 15
0.0
 25
0.0
 35
0.0
146
0.0
 13
0.0
 23
0.0
 33
0.0
 16
1.0
 26
0.0
 36
0.0
 17
0.0
 27
1.0
 37
0.0
 76
     0
330
27
  0
LAYOUT
  5
26
102
{ACAD_XDICTIONARY
360
A67
102
}
102
{ACAD_REACTORS
330
1A
102
}
330
1A
100
AcDbPlotSettings
  1

  2
C:\Documents and Settings\Julio\Application Data\Autodesk\AutoCAD 2006\R16.2\enu\plotters\Default Windows System Printer.pc3
  4

  6

 40
0.0
 41
0.0
 42
0.0
 43
0.0
 44
0.0
 45
0.0
 46
0.0
 47
0.0
 48
0.0
 49
0.0
140
0.0
141
0.0
142
1.0
143
1.0
 70
  1712
 72
     0
 73
     0
 74
     0
  7

 75
     0
147
1.0
148
0.0
149
0.0
100
AcDbLayout
  1
Model
 70
     1
 71
     0
 10
0.0
 20
0.0
 11
12.0
 21
9.0
 12
0.0
 22
0.0
 32
0.0
 14
0.0
 24
0.0
 34
0.0
 15
0.0
 25
0.0
 35
0.0
146
0.0
 13
0.0
 23
0.0
 33
0.0
 16
1.0
 26
0.0
 36
0.0
 17
0.0
 27
1.0
 37
0.0
 76
     0
330
23
  0
MLINESTYLE
  5
18
102
{ACAD_REACTORS
330
17
102
}
330
17
100
AcDbMlineStyle
  2
STANDARD
 70
     0
  3

 62
   256
 51
90.0
 52
90.0
 71
     2
 49
0.5
 62
   256
  6
BYLAYER
 49
-0.5
 62
   256
  6
BYLAYER
  0
ACDBPLACEHOLDER
  5
F
102
{ACAD_REACTORS
330
E
102
}
330
E
  0
TABLESTYLE
  5
1E
102
{ACAD_REACTORS
330
1D
102
}
330
1D
100
AcDbTableStyle
  3
Standard
 70
     0
 71
     0
 40
1.5
 41
1.5
280
     0
281
     0
  7
Standard
140
4.5
170
     2
 62
     0
 63
     7
283
     0
274
    -2
284
     1
 64
     0
275
    -2
285
     1
 65
     0
276
    -2
286
     1
 66
     0
277
    -2
287
     1
 67
     0
278
    -2
288
     1
 68
     0
279
    -2
289
     1
 69
     0
  7
Standard
140
6.0
170
     5
 62
     0
 63
     7
283
     0
274
    -2
284
     1
 64
     0
275
    -2
285
     1
 65
     0
276
    -2
286
     1
 66
     0
277
    -2
287
     1
 67
     0
278
    -2
288
     1
 68
     0
279
    -2
289
     1
 69
     0
  7
Standard
140
4.5
170
     5
 62
     0
 63
     7
283
     0
274
    -2
284
     1
 64
     0
275
    -2
285
     1
 65
     0
276
    -2
286
     1
 66
     0
277
    -2
287
     1
 67
     0
278
    -2
288
     1
 68
     0
279
    -2
289
     1
 69
     0
  0
DICTIONARYVAR
  5
A5F
102
{ACAD_REACTORS
330
A5E
102
}
330
A5E
100
DictionaryVariables
280
     0
  1
STANDARD
  0
DICTIONARYVAR
  5
A61
102
{ACAD_REACTORS
330
A5E
102
}
330
A5E
100
DictionaryVariables
280
     0
  1
2
  0
DICTIONARYVAR
  5
A60
102
{ACAD_REACTORS
330
A5E
102
}
330
A5E
100
DictionaryVariables
280
     0
  1
1
  0
DICTIONARYVAR
  5
A62
102
{ACAD_REACTORS
330
A5E
102
}
330
A5E
100
DictionaryVariables
280
     0
  1

  0
DICTIONARY
  5
A65
330
22
100
AcDbDictionary
280
     1
281
     1
  3
ACAD_XREC_ROUNDTRIP
360
A66
  0
DICTIONARY
  5
A69
330
2A
100
AcDbDictionary
280
     1
281
     1
  3
ACAD_XREC_ROUNDTRIP
360
A6A
  0
DICTIONARY
  5
A67
330
26
100
AcDbDictionary
280
     1
281
     1
  3
ACAD_XREC_ROUNDTRIP
360
A68
  0
XRECORD
  5
A66
102
{ACAD_REACTORS
330
A65
102
}
330
A65
100
AcDbXrecord
280
     1
102
SHADEPLOT
 70
     0
102
SHADEPLOTRESLEVEL
 70
     2
102
SHADEPLOTCUSTOMDPI
 70
   300
  0
XRECORD
  5
A6A
102
{ACAD_REACTORS
330
A69
102
}
330
A69
100
AcDbXrecord
280
     1
102
SHADEPLOT
 70
     0
102
SHADEPLOTRESLEVEL
 70
     2
102
SHADEPLOTCUSTOMDPI
 70
   300
  0
XRECORD
  5
A68
102
{ACAD_REACTORS
330
A67
102
}
330
A67
100
AcDbXrecord
280
     1
102
SHADEPLOT
 70
     0
102
SHADEPLOTRESLEVEL
 70
     2
102
SHADEPLOTCUSTOMDPI
 70
   300
  0
ENDSEC
  0
EOF
