  0
SECTION
  2
HEADER
  9
$ACADVER
  1
AC1015
  9
$ACADMAINTVER
 70
    20
  9
$DWGCODEPAGE
  3
ANSI_1252
  9
$INSBASE
 10
0.0
 20
0.0
 30
0.0
  9
$EXTMIN
 10
1248.787368742683
 20
1633.073968102142
 30
0.0
  9
$EXTMAX
 10
1252.936894534358
 20
1633.974208208191
 30
0.0
  9
$LIMMIN
 10
0.0
 20
0.0
  9
$LIMMAX
 10
420.0
 20
297.0
  9
$ORTHOMODE
 70
     0
  9
$REGENMODE
 70
     1
  9
$FILLMODE
 70
     1
  9
$QTEXTMODE
 70
     0
  9
$MIRRTEXT
 70
     1
  9
$LTSCALE
 40
1.0
  9
$ATTMODE
 70
     1
  9
$TEXTSIZE
 40
2.5
  9
$TRACEWID
 40
1.0
  9
$TEXTSTYLE
  7
SANINDUSA
  9
$CLAYER
  8
0
  9
$CELTYPE
  6
ByLayer
  9
$CECOLOR
 62
   256
  9
$CELTSCALE
 40
1.0
  9
$DISPSILH
 70
     0
  9
$DIMSCALE
 40
1.0
  9
$DIMASZ
 40
2.0
  9
$DIMEXO
 40
1.0
  9
$DIMDLI
 40
1.0
  9
$DIMRND
 40
0.0
  9
$DIMDLE
 40
0.0
  9
$DIMEXE
 40
1.0
  9
$DIMTP
 40
0.0
  9
$DIMTM
 40
0.0
  9
$DIMTXT
 40
2.0
  9
$DIMCEN
 40
0.0
  9
$DIMTSZ
 40
0.0
  9
$DIMTOL
 70
     0
  9
$DIMLIM
 70
     0
  9
$DIMTIH
 70
     0
  9
$DIMTOH
 70
     0
  9
$DIMSE1
 70
     0
  9
$DIMSE2
 70
     0
  9
$DIMTAD
 70
     1
  9
$DIMZIN
 70
     8
  9
$DIMBLK
  1

  9
$DIMASO
 70
     1
  9
$DIMSHO
 70
     1
  9
$DIMPOST
  1

  9
$DIMAPOST
  1

  9
$DIMALT
 70
     0
  9
$DIMALTD
 70
     3
  9
$DIMALTF
 40
0.03937007874016
  9
$DIMLFAC
 40
1.0
  9
$DIMTOFL
 70
     1
  9
$DIMTVP
 40
0.0
  9
$DIMTIX
 70
     0
  9
$DIMSOXD
 70
     0
  9
$DIMSAH
 70
     0
  9
$DIMBLK1
  1

  9
$DIMBLK2
  1

  9
$DIMSTYLE
  2
SANINDUSA
  9
$DIMCLRD
 70
   256
  9
$DIMCLRE
 70
   256
  9
$DIMCLRT
 70
   256
  9
$DIMTFAC
 40
1.0
  9
$DIMGAP
 40
1.0
  9
$DIMJUST
 70
     0
  9
$DIMSD1
 70
     0
  9
$DIMSD2
 70
     0
  9
$DIMTOLJ
 70
     0
  9
$DIMTZIN
 70
     8
  9
$DIMALTZ
 70
     0
  9
$DIMALTTZ
 70
     0
  9
$DIMUPT
 70
     0
  9
$DIMDEC
 70
     1
  9
$DIMTDEC
 70
     1
  9
$DIMALTU
 70
     2
  9
$DIMALTTD
 70
     3
  9
$DIMTXSTY
  7
SANINDUSA
  9
$DIMAUNIT
 70
     0
  9
$DIMADEC
 70
     1
  9
$DIMALTRND
 40
0.0
  9
$DIMAZIN
 70
     0
  9
$DIMDSEP
 70
    44
  9
$DIMATFIT
 70
     3
  9
$DIMFRAC
 70
     0
  9
$DIMLDRBLK
  1

  9
$DIMLUNIT
 70
     2
  9
$DIMLWD
 70
    -1
  9
$DIMLWE
 70
    -1
  9
$DIMTMOVE
 70
     0
  9
$LUNITS
 70
     2
  9
$LUPREC
 70
     4
  9
$SKETCHINC
 40
1.0
  9
$FILLETRAD
 40
0.0
  9
$AUNITS
 70
     0
  9
$AUPREC
 70
     0
  9
$MENU
  1
.
  9
$ELEVATION
 40
0.0
  9
$PELEVATION
 40
0.0
  9
$THICKNESS
 40
0.0
  9
$LIMCHECK
 70
     0
  9
$CHAMFERA
 40
10.0
  9
$CHAMFERB
 40
10.0
  9
$CHAMFERC
 40
20.0
  9
$CHAMFERD
 40
0.0
  9
$SKPOLY
 70
     0
  9
$TDCREATE
 40
2453567.467285509
  9
$TDUCREATE
 40
2453567.425618843
  9
$TDUPDATE
 40
2456150.630033634
  9
$TDUUPDATE
 40
2456150.588366968
  9
$TDINDWG
 40
0.0038997454
  9
$TDUSRTIMER
 40
0.0038997454
  9
$USRTIMER
 70
     1
  9
$ANGBASE
 50
0.0
  9
$ANGDIR
 70
     0
  9
$PDMODE
 70
     0
  9
$PDSIZE
 40
0.0
  9
$PLINEWID
 40
0.0
  9
$SPLFRAME
 70
     0
  9
$SPLINETYPE
 70
     6
  9
$SPLINESEGS
 70
     8
  9
$HANDSEED
  5
10EC
  9
$SURFTAB1
 70
     6
  9
$SURFTAB2
 70
     6
  9
$SURFTYPE
 70
     6
  9
$SURFU
 70
     6
  9
$SURFV
 70
     6
  9
$UCSBASE
  2

  9
$UCSNAME
  2

  9
$UCSORG
 10
0.0
 20
0.0
 30
0.0
  9
$UCSXDIR
 10
1.0
 20
0.0
 30
0.0
  9
$UCSYDIR
 10
0.0
 20
1.0
 30
0.0
  9
$UCSORTHOREF
  2

  9
$UCSORTHOVIEW
 70
     0
  9
$UCSORGTOP
 10
0.0
 20
0.0
 30
0.0
  9
$UCSORGBOTTOM
 10
0.0
 20
0.0
 30
0.0
  9
$UCSORGLEFT
 10
0.0
 20
0.0
 30
0.0
  9
$UCSORGRIGHT
 10
0.0
 20
0.0
 30
0.0
  9
$UCSORGFRONT
 10
0.0
 20
0.0
 30
0.0
  9
$UCSORGBACK
 10
0.0
 20
0.0
 30
0.0
  9
$PUCSBASE
  2

  9
$PUCSNAME
  2

  9
$PUCSORG
 10
0.0
 20
0.0
 30
0.0
  9
$PUCSXDIR
 10
1.0
 20
0.0
 30
0.0
  9
$PUCSYDIR
 10
0.0
 20
1.0
 30
0.0
  9
$PUCSORTHOREF
  2

  9
$PUCSORTHOVIEW
 70
     0
  9
$PUCSORGTOP
 10
0.0
 20
0.0
 30
0.0
  9
$PUCSORGBOTTOM
 10
0.0
 20
0.0
 30
0.0
  9
$PUCSORGLEFT
 10
0.0
 20
0.0
 30
0.0
  9
$PUCSORGRIGHT
 10
0.0
 20
0.0
 30
0.0
  9
$PUCSORGFRONT
 10
0.0
 20
0.0
 30
0.0
  9
$PUCSORGBACK
 10
0.0
 20
0.0
 30
0.0
  9
$USERI1
 70
     0
  9
$USERI2
 70
     0
  9
$USERI3
 70
     0
  9
$USERI4
 70
     0
  9
$USERI5
 70
     0
  9
$USERR1
 40
0.0
  9
$USERR2
 40
0.0
  9
$USERR3
 40
0.0
  9
$USERR4
 40
0.0
  9
$USERR5
 40
0.0
  9
$WORLDVIEW
 70
     1
  9
$SHADEDGE
 70
     3
  9
$SHADEDIF
 70
    70
  9
$TILEMODE
 70
     1
  9
$MAXACTVP
 70
    64
  9
$PINSBASE
 10
0.0
 20
0.0
 30
0.0
  9
$PLIMCHECK
 70
     0
  9
$PEXTMIN
 10
1.000000000000000E+20
 20
1.000000000000000E+20
 30
1.000000000000000E+20
  9
$PEXTMAX
 10
-1.000000000000000E+20
 20
-1.000000000000000E+20
 30
-1.000000000000000E+20
  9
$PLIMMIN
 10
0.0
 20
0.0
  9
$PLIMMAX
 10
420.0
 20
297.0
  9
$UNITMODE
 70
     0
  9
$VISRETAIN
 70
     1
  9
$PLINEGEN
 70
     0
  9
$PSLTSCALE
 70
     1
  9
$TREEDEPTH
 70
  3020
  9
$CMLSTYLE
  2
Standard
  9
$CMLJUST
 70
     0
  9
$CMLSCALE
 40
20.0
  9
$PROXYGRAPHICS
 70
     1
  9
$MEASUREMENT
 70
     1
  9
$CELWEIGHT
370
    -1
  9
$ENDCAPS
280
     0
  9
$JOINSTYLE
280
     0
  9
$LWDISPLAY
290
     0
  9
$INSUNITS
 70
     4
  9
$HYPERLINKBASE
  1

  9
$STYLESHEET
  1
monochrome.ctb
  9
$XEDIT
290
     1
  9
$CEPSNTYPE
380
     0
  9
$PSTYLEMODE
290
     1
  9
$FINGERPRINTGUID
  2
{211514F3-AE38-4BF9-A5E3-565E69DEC694}
  9
$VERSIONGUID
  2
{80604145-BA2A-4707-B05C-3A9D9D7C6CD9}
  9
$EXTNAMES
290
     1
  9
$PSVPSCALE
 40
0.0
  9
$OLESTARTUP
290
     0
  0
ENDSEC
  0
SECTION
  2
CLASSES
  0
CLASS
  1
ACDBDICTIONARYWDFLT
  2
AcDbDictionaryWithDefault
  3
ObjectDBX Classes
 90
        0
280
     0
281
     0
  0
CLASS
  1
ACDBPLACEHOLDER
  2
AcDbPlaceHolder
  3
ObjectDBX Classes
 90
        0
280
     0
281
     0
  0
CLASS
  1
LAYOUT
  2
AcDbLayout
  3
ObjectDBX Classes
 90
        0
280
     0
281
     0
  0
CLASS
  1
DICTIONARYVAR
  2
AcDbDictionaryVar
  3
ObjectDBX Classes
 90
        0
280
     0
281
     0
  0
CLASS
  1
DIMASSOC
  2
AcDbDimAssoc
  3
"AcDbDimAssoc|Product Desc:     AcDim ARX App For Dimension|Company:          Autodesk, Inc.|WEB Address:      www.autodesk.com"
 90
    32768
280
     0
281
     0
  0
CLASS
  1
TABLESTYLE
  2
AcDbTableStyle
  3
ObjectDBX Classes
 90
     4095
280
     0
281
     0
  0
CLASS
  1
MATERIAL
  2
AcDbMaterial
  3
ObjectDBX Classes
 90
     1153
280
     0
281
     0
  0
CLASS
  1
VISUALSTYLE
  2
AcDbVisualStyle
  3
ObjectDBX Classes
 90
     4095
280
     0
281
     0
  0
CLASS
  1
SCALE
  2
AcDbScale
  3
ObjectDBX Classes
 90
     1153
280
     0
281
     0
  0
CLASS
  1
MLEADERSTYLE
  2
AcDbMLeaderStyle
  3
ACDB_MLEADERSTYLE_CLASS
 90
     4095
280
     0
281
     0
  0
CLASS
  1
CELLSTYLEMAP
  2
AcDbCellStyleMap
  3
ObjectDBX Classes
 90
     1152
280
     0
281
     0
  0
ENDSEC
  0
SECTION
  2
TABLES
  0
TABLE
  2
VPORT
  5
8
330
0
100
AcDbSymbolTable
 70
     1
  0
VPORT
  5
1035
330
8
100
AcDbSymbolTableRecord
100
AcDbViewportTableRecord
  2
*Active
 70
     0
 10
0.0
 20
0.0
 11
1.0
 21
1.0
 12
1250.86213163852
 22
1633.524088155166
 13
0.0
 23
0.0
 14
10.0
 24
10.0
 15
10.0
 25
10.0
 16
0.0
 26
0.0
 36
1.0
 17
0.0
 27
0.0
 37
0.0
 40
2.531375318976614
 41
1.645464025026068
 42
50.0
 43
0.0
 44
0.0
 50
0.0
 51
0.0
 71
     0
 72
   100
 73
     1
 74
     2
 75
     0
 76
     0
 77
     0
 78
     0
281
     0
 65
     1
110
0.0
120
0.0
130
0.0
111
1.0
121
0.0
131
0.0
112
0.0
122
1.0
132
0.0
 79
     0
146
0.0
  0
ENDTAB
  0
TABLE
  2
LTYPE
  5
5
330
0
100
AcDbSymbolTable
 70
     3
  0
LTYPE
  5
14
330
5
100
AcDbSymbolTableRecord
100
AcDbLinetypeTableRecord
  2
ByBlock
 70
     0
  3

 72
    65
 73
     0
 40
0.0
  0
LTYPE
  5
15
330
5
100
AcDbSymbolTableRecord
100
AcDbLinetypeTableRecord
  2
ByLayer
 70
     0
  3

 72
    65
 73
     0
 40
0.0
  0
LTYPE
  5
16
330
5
100
AcDbSymbolTableRecord
100
AcDbLinetypeTableRecord
  2
Continuous
 70
     0
  3
Solid line
 72
    65
 73
     0
 40
0.0
  0
LTYPE
  5
2D
330
5
100
AcDbSymbolTableRecord
100
AcDbLinetypeTableRecord
  2
DASHDOT
 70
     0
  3
Dash dot __ . __ . __ . __ . __ . __ . __ . __
 72
    65
 73
     4
 40
25.4
 49
12.7
 74
     0
 49
-6.349999999999999
 74
     0
 49
0.0
 74
     0
 49
-6.349999999999999
 74
     0
  0
LTYPE
  5
2E
330
5
100
AcDbSymbolTableRecord
100
AcDbLinetypeTableRecord
  2
HIDDEN
 70
     0
  3
Hidden __ __ __ __ __ __ __ __ __ __ __ __ __ _
 72
    65
 73
     2
 40
9.524999999999998
 49
6.349999999999999
 74
     0
 49
-3.174999999999999
 74
     0
  0
ENDTAB
  0
TABLE
  2
LAYER
  5
2
330
0
100
AcDbSymbolTable
 70
    18
  0
LAYER
  5
10
102
{ACAD_XDICTIONARY
360
1084
102
}
330
2
100
AcDbSymbolTableRecord
100
AcDbLayerTableRecord
  2
0
 70
     0
 62
     7
  6
Continuous
370
    -3
390
F
  0
LAYER
  5
2F
102
{ACAD_XDICTIONARY
360
1086
102
}
330
2
100
AcDbSymbolTableRecord
100
AcDbLayerTableRecord
  2
1
 70
     0
 62
     1
  6
Continuous
370
    -3
390
F
  0
LAYER
  5
30
102
{ACAD_XDICTIONARY
360
1088
102
}
330
2
100
AcDbSymbolTableRecord
100
AcDbLayerTableRecord
  2
2
 70
     0
 62
     2
  6
Continuous
370
    -3
390
F
  0
LAYER
  5
31
102
{ACAD_XDICTIONARY
360
108A
102
}
330
2
100
AcDbSymbolTableRecord
100
AcDbLayerTableRecord
  2
3
 70
     0
 62
     3
  6
Continuous
370
    -3
390
F
  0
LAYER
  5
32
102
{ACAD_XDICTIONARY
360
108C
102
}
330
2
100
AcDbSymbolTableRecord
100
AcDbLayerTableRecord
  2
4
 70
     0
 62
     4
  6
Continuous
370
    -3
390
F
  0
LAYER
  5
33
102
{ACAD_XDICTIONARY
360
108E
102
}
330
2
100
AcDbSymbolTableRecord
100
AcDbLayerTableRecord
  2
5
 70
     0
 62
     5
  6
Continuous
370
    -3
390
F
  0
LAYER
  5
34
102
{ACAD_XDICTIONARY
360
1090
102
}
330
2
100
AcDbSymbolTableRecord
100
AcDbLayerTableRecord
  2
6
 70
     0
 62
     6
  6
Continuous
370
    -3
390
F
  0
LAYER
  5
35
102
{ACAD_XDICTIONARY
360
1092
102
}
330
2
100
AcDbSymbolTableRecord
100
AcDbLayerTableRecord
  2
7
 70
     0
 62
     7
  6
Continuous
370
    -3
390
F
  0
LAYER
  5
36
102
{ACAD_XDICTIONARY
360
1094
102
}
330
2
100
AcDbSymbolTableRecord
100
AcDbLayerTableRecord
  2
cen
 70
     0
 62
     7
  6
DASHDOT
370
    -3
390
F
  0
LAYER
  5
37
102
{ACAD_XDICTIONARY
360
1096
102
}
330
2
100
AcDbSymbolTableRecord
100
AcDbLayerTableRecord
  2
hid
 70
     0
 62
     7
  6
HIDDEN
370
    -3
390
F
  0
LAYER
  5
5D6
102
{ACAD_XDICTIONARY
360
1098
102
}
330
2
100
AcDbSymbolTableRecord
100
AcDbLayerTableRecord
  2
hatch
 70
     0
 62
     9
  6
Continuous
370
    -3
390
F
  0
LAYER
  5
8AF
102
{ACAD_XDICTIONARY
360
109A
102
}
330
2
100
AcDbSymbolTableRecord
100
AcDbLayerTableRecord
  2
9
 70
     0
 62
     9
  6
Continuous
370
    -3
390
F
  0
LAYER
  5
8F8
102
{ACAD_XDICTIONARY
360
109C
102
}
330
2
100
AcDbSymbolTableRecord
100
AcDbLayerTableRecord
  2
leg fin
 70
     0
 62
     9
  6
Continuous
370
    -3
390
F
  0
LAYER
  5
91D
102
{ACAD_XDICTIONARY
360
109E
102
}
330
2
100
AcDbSymbolTableRecord
100
AcDbLayerTableRecord
  2
cotas
 70
     0
 62
     1
  6
Continuous
370
    -3
390
F
  0
LAYER
  5
92F
330
2
100
AcDbSymbolTableRecord
100
AcDbLayerTableRecord
  2
Defpoints
 70
     0
 62
     7
  6
Continuous
290
     0
370
    -3
390
F
  0
LAYER
  5
BA5
102
{ACAD_XDICTIONARY
360
10A0
102
}
330
2
100
AcDbSymbolTableRecord
100
AcDbLayerTableRecord
  2
SANINDUSA
 70
     0
 62
     3
  6
Continuous
370
    -3
390
F
  0
LAYER
  5
C98
102
{ACAD_XDICTIONARY
360
10A2
102
}
330
2
100
AcDbSymbolTableRecord
100
AcDbLayerTableRecord
  2
INDUSA
 70
     0
 62
     3
  6
Continuous
370
    -3
390
F
  0
LAYER
  5
C99
102
{ACAD_XDICTIONARY
360
10A4
102
}
330
2
100
AcDbSymbolTableRecord
100
AcDbLayerTableRecord
  2
INDUSA CEN
 70
     0
 62
     7
  6
DASHDOT
370
    -3
390
F
  0
ENDTAB
  0
TABLE
  2
STYLE
  5
3
330
0
100
AcDbSymbolTable
 70
     3
  0
STYLE
  5
11
330
3
100
AcDbSymbolTableRecord
100
AcDbTextStyleTableRecord
  2
Standard
 70
     0
 40
0.0
 41
1.0
 50
0.0
 71
     0
 42
2.5
  3
Avgardn.ttf
  4

1001
ACAD
1000
AvantGarde Bk BT
1071
       34
  0
STYLE
  5
2C
330
3
100
AcDbSymbolTableRecord
100
AcDbTextStyleTableRecord
  2

 70
     1
 40
0.0
 41
1.0
 50
0.0
 71
     0
 42
2.5
  3
ltypeshp.shx
  4

  0
STYLE
  5
91F
330
3
100
AcDbSymbolTableRecord
100
AcDbTextStyleTableRecord
  2
SANINDUSA
 70
     0
 40
0.0
 41
1.0
 50
0.0
 71
     0
 42
2.5
  3
verdana.TTF
  4

1001
ACAD
1000
Verdana
1071
       34
  0
ENDTAB
  0
TABLE
  2
VIEW
  5
6
330
0
100
AcDbSymbolTable
 70
     0
  0
ENDTAB
  0
TABLE
  2
UCS
  5
7
330
0
100
AcDbSymbolTable
 70
     0
  0
ENDTAB
  0
TABLE
  2
APPID
  5
9
330
0
100
AcDbSymbolTable
 70
    10
  0
APPID
  5
12
330
9
100
AcDbSymbolTableRecord
100
AcDbRegAppTableRecord
  2
ACAD
 70
     0
  0
APPID
  5
3A
330
9
100
AcDbSymbolTableRecord
100
AcDbRegAppTableRecord
  2
DCO15
 70
     0
  0
APPID
  5
C9B
330
9
100
AcDbSymbolTableRecord
100
AcDbRegAppTableRecord
  2
GENIUS_GENSCREG_15
 70
     0
  0
APPID
  5
C9C
330
9
100
AcDbSymbolTableRecord
100
AcDbRegAppTableRecord
  2
GENIUS_GENODEF_13
 70
     0
  0
APPID
  5
C9D
330
9
100
AcDbSymbolTableRecord
100
AcDbRegAppTableRecord
  2
GENIUS_GENOBJ-N-SDF_13
 70
     0
  0
APPID
  5
C9E
330
9
100
AcDbSymbolTableRecord
100
AcDbRegAppTableRecord
  2
GENIUS_GENOBJ-N-ZOO_13
 70
     0
  0
APPID
  5
C9F
330
9
100
AcDbSymbolTableRecord
100
AcDbRegAppTableRecord
  2
GENIUS_GENZOO_16
 70
     0
  0
APPID
  5
CA0
330
9
100
AcDbSymbolTableRecord
100
AcDbRegAppTableRecord
  2
GENIUS_GENOBJ-N-CEN_13
 70
     0
  0
APPID
  5
CA1
330
9
100
AcDbSymbolTableRecord
100
AcDbRegAppTableRecord
  2
GENIUS_GENOREF_13
 70
     0
  0
APPID
  5
10EB
330
9
100
AcDbSymbolTableRecord
100
AcDbRegAppTableRecord
  2
ACAD_MLEADERVER
 70
     0
  0
ENDTAB
  0
TABLE
  2
DIMSTYLE
  5
A
330
0
100
AcDbSymbolTable
 70
     3
100
AcDbDimStyleTable
 71
     1
340
921
  0
DIMSTYLE
105
45
330
A
100
AcDbSymbolTableRecord
100
AcDbDimStyleTableRecord
  2
STANDARD
 70
     0
289
     0
340
11
  0
DIMSTYLE
105
921
330
A
100
AcDbSymbolTableRecord
100
AcDbDimStyleTableRecord
  2
SANINDUSA
 70
     0
 41
2.0
 42
1.0
 43
1.0
 44
1.0
 73
     0
 74
     0
 77
     1
 78
     8
140
2.0
141
0.0
143
0.03937007874016
147
1.0
171
     3
172
     1
176
   256
177
   256
178
   256
179
     1
271
     1
272
     1
274
     3
278
    44
283
     0
284
     8
340
91F
371
    -1
372
    -1
  0
DIMSTYLE
105
C9A
330
A
100
AcDbSymbolTableRecord
100
AcDbDimStyleTableRecord
  2
ISO-25
 70
     0
 41
2.5
 42
0.625
 43
3.75
 44
1.25
 73
     0
 74
     0
 77
     1
 78
     8
140
2.5
141
2.5
143
0.03937007874016
147
0.625
171
     3
172
     1
271
     2
272
     2
274
     3
278
    44
283
     0
284
     8
340
11
  0
ENDTAB
  0
TABLE
  2
BLOCK_RECORD
  5
1
330
0
100
AcDbSymbolTable
 70
    42
  0
BLOCK_RECORD
  5
1F
330
1
100
AcDbSymbolTableRecord
100
AcDbBlockTableRecord
  2
*Model_Space
340
22
  0
BLOCK_RECORD
  5
1B
330
1
100
AcDbSymbolTableRecord
100
AcDbBlockTableRecord
  2
*Paper_Space
340
1E
  0
BLOCK_RECORD
  5
23
330
1
100
AcDbSymbolTableRecord
100
AcDbBlockTableRecord
  2
*Paper_Space0
340
26
  0
BLOCK_RECORD
  5
919
330
1
100
AcDbSymbolTableRecord
100
AcDbBlockTableRecord
  2
_DotSmall
340
0
  0
BLOCK_RECORD
  5
922
330
1
100
AcDbSymbolTableRecord
100
AcDbBlockTableRecord
  2
base para cotas
340
0
310
2800000020000000200000000100080000000000000400000000000000000000000000000000000000000000000080000080000000808000800000008000800080800000C0C0C000C0DCC000F0CAA6000020400000206000002080000020A0000020C0000020E00000400000004020000040400000406000004080000040A0
310
000040C0000040E00000600000006020000060400000606000006080000060A0000060C0000060E00000800000008020000080400000806000008080000080A0000080C0000080E00000A0000000A0200000A0400000A0600000A0800000A0A00000A0C00000A0E00000C0000000C0200000C0400000C0600000C0800000C0
310
A00000C0C00000C0E00000E0000000E0200000E0400000E0600000E0800000E0A00000E0C00000E0E00040000000400020004000400040006000400080004000A0004000C0004000E00040200000402020004020400040206000402080004020A0004020C0004020E000404000004040200040404000404060004040800040
310
40A0004040C0004040E00040600000406020004060400040606000406080004060A0004060C0004060E00040800000408020004080400040806000408080004080A0004080C0004080E00040A0000040A0200040A0400040A0600040A0800040A0A00040A0C00040A0E00040C0000040C0200040C0400040C0600040C08000
310
40C0A00040C0C00040C0E00040E0000040E0200040E0400040E0600040E0800040E0A00040E0C00040E0E00080000000800020008000400080006000800080008000A0008000C0008000E00080200000802020008020400080206000802080008020A0008020C0008020E00080400000804020008040400080406000804080
310
008040A0008040C0008040E00080600000806020008060400080606000806080008060A0008060C0008060E00080800000808020008080400080806000808080008080A0008080C0008080E00080A0000080A0200080A0400080A0600080A0800080A0A00080A0C00080A0E00080C0000080C0200080C0400080C0600080C0
310
800080C0A00080C0C00080C0E00080E0000080E0200080E0400080E0600080E0800080E0A00080E0C00080E0E000C0000000C0002000C0004000C0006000C0008000C000A000C000C000C000E000C0200000C0202000C0204000C0206000C0208000C020A000C020C000C020E000C0400000C0402000C0404000C0406000C0
310
408000C040A000C040C000C040E000C0600000C0602000C0604000C0606000C0608000C060A000C060C000C060E000C0800000C0802000C0804000C0806000C0808000C080A000C080C000C080E000C0A00000C0A02000C0A04000C0A06000C0A08000C0A0A000C0A0C000C0A0E000C0C00000C0C02000C0C04000C0C06000
310
C0C08000C0C0A000F0FBFF00A4A0A000808080000000FF0000FF000000FFFF00FF000000FF00FF00FFFF0000FFFFFF00A4A4A4A4A4A4A4A4A4A4A4A4A4A4A4A4A4A4A4A4A4A4A4A4A4A4A4A4A4A4A4A4A4A4A4A4A4A4A4A4A4A4A4A4A4A4A4A4A4A4A4A4A4A4A4A4A4A4A4A4A4A4A4A4A4A4A4A4A4A4A4A4A4A4A4A4A4A4A4
310
A4A4A4A4A4A4A4A4A4A4A4A4A4A4A4A4A4A4A4A4A4A4A4A4A4A4A4A4A4A4A4A4A4A4A4A4A4A4A4A4A4A4A4A4A4A4A4A4A4A4A4A4A4A4A4A4A4A4A4A4A4A4A4A4A4A4A4A4A4A4A4A4A4A4A4A4A4A4A4A4A4A4A4A4A4A4A4A4A4A4A4A4A4A4A4A4A4A4A4A4A4A4A4A4A4A4A4A4A4A4A4A4A4A4A4A4A4A4A4A4A4A4A4A4A4A4A4
310
A4A4A4A4A4A4A4A4A4A4A4A4A4A4A4A4A4A4A4A4A4A4A4A4A4A4A4A4A4A4A4A4A4A4A4A4A4A4A4A4A4A4A4A4A4A4A4A4A4A4A4A4A4A4A4A4A4A4A4A4A4A4A4A4A4A4A4A4A4A4A4A4A4A4A4A4A4A4A4A4A4A4A4A4A4A4A4A4A4A4A4A4A4A4A4A4A4A4A4A4A4A4A4A4A4A4A4A4A4A4A4A4A4A4A4A4A4A4A4A4A4A4A4A4A4A4A4
310
A4A4A4A4A4A4A4A4A4A4A4A4A4A4A4A4A4A4A4A4A4A4A4A4A4A4A4A4A4A4A4A4A4A4A4A4A4A4A4A4A4A4A4A4A4A4A4A4A4A4A4A4A4A4A4A4A4A4A4A4A4A4A4A4A4A4A4A4A4A4A4A4A4A4A4A4A4A4A4A4A4A4A4A4A4A4A4A4A4A4A4A4A4A4A4A4A4A4A4A4A4A4A4A4A4A4A4A4A4A4A4A4A4A4A4A4F9F9F9F9F9F9F9F9F9F9F9
310
F9F9F9F9F9F9F9F9F9F9F9F9F9F9F9F9F9F9F9A4A4F9F9F9F9F9F9F9F9F9F9F9F9F9F9F9F9F9F9F9F9F9F9F9F9F9F9F9F9F9F9A4A4F9F9F9F9F9F9F9F9F9F9F9F9F9F9F9F9F9F9F9F9F9F9F9F9F9F9F9F9F9F9A4A4F9A4A4A4A4A4A4A4A4A4A4A4A4A4A4A4A4A4A4A4A4A4A4A4A4A4A4A4A4F9A4A4A4A4A4A4A4A4A4A4A4A4
310
A4A4A4A4A4A4A4A4A4A4A4A4A4A4A4A4A4A4A4A4A4A4A4A4A4A4A4A4A4A4A4A4A4A4A4A4A4A4A4A4A4A4A4A4A4A4A4A4A4A4A4A4A4A4A4A4A4A4A4A4A4A4A4A4A4A4A4A4A4A4A4A4A4A4A4A4A4A4A4A4A4A4A4A4A4A4A4A4A4A4A4A4A4A4A4A4A4A4A4A4A4A4A4A4A4A4A4A4A4A4A4A4A4A4A4A4A4A4A4A4A4A4A4A4A4A4A4
310
A4A4A4A4A4A4A4A4A4A4A4A4A4A4A4A4A4A4A4A4A4A4A4A4A4A4A4A4A4A4A4A4A4A4A4A4A4A4A4A4A4A4A4A4A4A4A4A4A4A4A4A4A4A4A4A4A4A4A4A4A4A4A4A4A4A4A4A4A4A4A4A4A4A4A4A4A4A4A4A4A4A4A4A4A4A4A4A4A4A4A4A4A4A4A4A4A4A4A4A4A4A4A4A4A4A4A4A4A4A4A4A4A4A4A4A4A4A4A4A4A4A4A4A4A4A4A4
310
A4A4A4A4A4A4A4A4A4A4A4A4A4A4A4A4A4A4A4A4A4A4A4A4A4A4A4A4A4A4A4A4A4A4A4A4A4A4A4A4A4A4A4A4A4A4A4A4A4A4A4A4A4A4A4A4A4A4A4A4A4A4A4A4A4A4A4A4A4A4A4A4A4A4A4A4A4A4A4A4A4A4A4A4A4A4A4A4A4A4A4A4A4A4A4A4A4A4A4A4A4A4A4A4A4A4A4A4A4A4A4A4A4A4A4A4A4A4A4A4A4A4A4A4A4A4A4
310
A4A4A4A4A4A4A4A4A4A4A4A4A4A4A4A4A4A4A4A4A4A4A4A4A4A4A4A4A4A4A4A4A4A4A4A4A4A4A4A4A4A4A4A4A4A4A4A4A4A4A4A4A4A4A4A4
1001
ACAD
1000
DesignCenter Data
1002
{
1070
     1
1070
     4
1002
}
  0
BLOCK_RECORD
  5
AA8
330
1
100
AcDbSymbolTableRecord
100
AcDbBlockTableRecord
  2
_CLOSED
340
0
  0
ENDTAB
  0
ENDSEC
  0
SECTION
  2
BLOCKS
  0
BLOCK
  5
20
330
1F
100
AcDbEntity
  8
0
100
AcDbBlockBegin
  2
*Model_Space
 70
     0
 10
0.0
 20
0.0
 30
0.0
  3
*Model_Space
  1

  0
ENDBLK
  5
21
330
1F
100
AcDbEntity
  8
0
100
AcDbBlockEnd
  0
BLOCK
  5
1C
330
1B
100
AcDbEntity
 67
     1
  8
0
100
AcDbBlockBegin
  2
*Paper_Space
 70
     0
 10
0.0
 20
0.0
 30
0.0
  3
*Paper_Space
  1

  0
ENDBLK
  5
1D
330
1B
100
AcDbEntity
 67
     1
  8
0
100
AcDbBlockEnd
  0
BLOCK
  5
24
330
23
100
AcDbEntity
 67
     1
  8
0
100
AcDbBlockBegin
  2
*Paper_Space0
 70
     0
 10
0.0
 20
0.0
 30
0.0
  3
*Paper_Space0
  1

  0
ENDBLK
  5
25
330
23
100
AcDbEntity
 67
     1
  8
0
100
AcDbBlockEnd
  0
BLOCK
  5
91B
330
919
100
AcDbEntity
  8
0
100
AcDbBlockBegin
  2
_DotSmall
 70
     0
 10
0.0
 20
0.0
 30
0.0
  3
_DotSmall
  1

  0
LWPOLYLINE
  5
91A
330
919
100
AcDbEntity
  8
0
  6
ByBlock
 62
     0
100
AcDbPolyline
 90
        2
 70
     1
 43
0.5
 10
-0.0625
 20
0.0
 42
1.0
 10
0.0625
 20
0.0
 42
1.0
  0
ENDBLK
  5
91C
330
919
100
AcDbEntity
  8
0
100
AcDbBlockEnd
  0
BLOCK
  5
92A
330
922
100
AcDbEntity
  8
0
100
AcDbBlockBegin
  2
base para cotas
 70
     0
 10
0.0
 20
0.0
 30
0.0
  3
base para cotas
  1

  0
LINE
  5
B36
330
922
100
AcDbEntity
  8
cotas
100
AcDbLine
 10
0.0
 20
-30.0
 30
0.0
 11
327.1260136525398
 21
-30.0
 31
0.0
  0
LINE
  5
B37
330
922
100
AcDbEntity
  8
cotas
100
AcDbLine
 10
0.0
 20
-25.0
 30
0.0
 11
327.1260136525398
 21
-25.0
 31
0.0
  0
LINE
  5
B38
330
922
100
AcDbEntity
  8
cotas
100
AcDbLine
 10
0.0
 20
-20.0
 30
0.0
 11
327.1260136525398
 21
-20.0
 31
0.0
  0
LINE
  5
B39
330
922
100
AcDbEntity
  8
cotas
100
AcDbLine
 10
0.0
 20
-15.0
 30
0.0
 11
327.1260136525398
 21
-15.0
 31
0.0
  0
LINE
  5
B3A
330
922
100
AcDbEntity
  8
cotas
100
AcDbLine
 10
0.0
 20
-10.0
 30
0.0
 11
327.1260136525398
 21
-10.0
 31
0.0
  0
LINE
  5
B3B
330
922
100
AcDbEntity
  8
cotas
100
AcDbLine
 10
0.0
 20
0.0
 30
0.0
 11
0.0
 21
-30.0
 31
0.0
  0
LINE
  5
B3C
330
922
100
AcDbEntity
  8
cotas
100
AcDbLine
 10
327.1260136525398
 20
-30.0
 30
0.0
 11
327.1260136525398
 21
0.0
 31
0.0
  0
ENDBLK
  5
92B
330
922
100
AcDbEntity
  8
0
100
AcDbBlockEnd
  0
BLOCK
  5
AAD
330
AA8
100
AcDbEntity
  8
0
100
AcDbBlockBegin
  2
_CLOSED
 70
     0
 10
0.0
 20
0.0
 30
0.0
  3
_CLOSED
  1

  0
LINE
  5
AA9
330
AA8
100
AcDbEntity
  8
0
100
AcDbLine
 10
-1.0
 20
0.166667
 30
0.0
 11
0.0
 21
0.0
 31
0.0
  0
LINE
  5
AAA
330
AA8
100
AcDbEntity
  8
0
100
AcDbLine
 10
0.0
 20
0.0
 30
0.0
 11
-1.0
 21
-0.166667
 31
0.0
  0
LINE
  5
AAB
330
AA8
100
AcDbEntity
  8
0
100
AcDbLine
 10
-1.0
 20
0.166667
 30
0.0
 11
-1.0
 21
-0.166667
 31
0.0
  0
LINE
  5
AAC
330
AA8
100
AcDbEntity
  8
0
100
AcDbLine
 10
0.0
 20
0.0
 30
0.0
 11
-1.0
 21
0.0
 31
0.0
  0
ENDBLK
  5
AAE
330
AA8
100
AcDbEntity
  8
0
100
AcDbBlockEnd
  0
ENDSEC
  0
SECTION
  2
ENTITIES
  0
ARC
  5
DCB
330
1F
100
AcDbEntity
  8
SANINDUSA
100
AcDbCircle
 10
1251.994047800139
 20
1633.699092331805
 30
0.0
 40
0.08
100
AcDbArc
 50
246.0231698868886
 51
268.5000000021631
  0
ARC
  5
DCC
330
1F
100
AcDbEntity
  8
SANINDUSA
100
AcDbCircle
 10
1251.99494059545
 20
1633.703070324308
 30
0.0
 40
0.08
100
AcDbArc
 50
246.3761007713592
 51
268.5000000021631
  0
LINE
  5
DCD
330
1F
100
AcDbEntity
  8
SANINDUSA
100
AcDbLine
 10
1252.049613889009
 20
1633.62076085506
 30
0.0
 11
1252.043006414479
 21
1633.621242304096
 31
0.0
  0
LINE
  5
DCE
330
1F
100
AcDbEntity
  8
SANINDUSA
100
AcDbLine
 10
1252.048208361067
 20
1633.616852663519
 30
0.0
 11
1252.042715727897
 21
1633.617252880415
 31
0.0
  0
ARC
  5
DCF
330
1F
100
AcDbEntity
  8
SANINDUSA
100
AcDbCircle
 10
1252.00667059174
 20
1633.1225643439
 30
0.0
 40
0.5000000000000001
100
AcDbArc
 50
85.83254774885867
 51
88.50000000216311
  0
ARC
  5
DD0
330
1F
100
AcDbEntity
  8
SANINDUSA
100
AcDbCircle
 10
1252.00667059174
 20
1633.1225643439
 30
0.0
 40
0.4960000000000004
100
AcDbArc
 50
85.83254774885867
 51
88.50000000216311
  0
LINE
  5
DD1
330
1F
100
AcDbEntity
  8
SANINDUSA
100
AcDbLine
 10
1252.818260898458
 20
1633.626704482416
 30
0.0
 11
1252.223033205265
 21
1633.618392995851
 31
0.0
  0
LINE
  5
DD5
330
1F
100
AcDbEntity
  8
SANINDUSA
100
AcDbLine
 10
1252.193028565669
 20
1633.620611038579
 30
0.0
 11
1252.121393767112
 21
1633.619500150327
 31
0.0
  0
ARC
  5
DD6
330
1F
100
AcDbEntity
  8
SANINDUSA
100
AcDbCircle
 10
1252.236121679419
 20
1633.1225643439
 30
0.0
 40
0.4960000000000004
100
AcDbArc
 50
91.49999999783688
 51
94.16745225114132
  0
ARC
  5
DD7
330
1F
100
AcDbEntity
  8
SANINDUSA
100
AcDbCircle
 10
1252.236121679419
 20
1633.1225643439
 30
0.0
 40
0.5000000000000001
100
AcDbArc
 50
91.49999999783688
 51
94.16745225114132
  0
LINE
  5
DD8
330
1F
100
AcDbEntity
  8
SANINDUSA
100
AcDbLine
 10
1252.194583910092
 20
1633.616852663519
 30
0.0
 11
1252.200076543262
 21
1633.617252880415
 31
0.0
  0
LINE
  5
DD9
330
1F
100
AcDbEntity
  8
SANINDUSA
100
AcDbLine
 10
1252.19317838215
 20
1633.62076085506
 30
0.0
 11
1252.19978585668
 21
1633.621242304096
 31
0.0
  0
LINE
  5
DDA
330
1F
100
AcDbEntity
  8
SANINDUSA
100
AcDbLine
 10
1252.818205055033
 20
1633.630703713181
 30
0.0
 11
1252.223033205265
 21
1633.622393006388
 31
0.0
  0
LINE
  5
DE5
330
1F
100
AcDbEntity
  8
SANINDUSA
100
AcDbLine
 10
1252.063896135579
 20
1633.601164889007
 30
0.0
 11
1252.04824185792
 21
1633.616819166667
 31
0.0
  0
LINE
  5
DE6
330
1F
100
AcDbEntity
  8
SANINDUSA
100
AcDbLine
 10
1252.065209855063
 20
1633.605164889007
 30
0.0
 11
1252.049613889009
 21
1633.62076085506
 31
0.0
  0
LINE
  5
DE7
330
1F
100
AcDbEntity
  8
SANINDUSA
100
AcDbLine
 10
1252.178896135579
 20
1633.601164889007
 30
0.0
 11
1252.194550413239
 21
1633.616819166667
 31
0.0
  0
LINE
  5
DE8
330
1F
100
AcDbEntity
  8
SANINDUSA
100
AcDbLine
 10
1252.177582416097
 20
1633.605164889007
 30
0.0
 11
1252.19317838215
 21
1633.62076085506
 31
0.0
  0
LINE
  5
DEA
330
1F
100
AcDbEntity
  8
SANINDUSA
100
AcDbLine
 10
1252.121393767112
 20
1633.619500187056
 30
0.0
 11
1252.049763658751
 21
1633.620611085319
 31
0.0
  0
LINE
  5
DEB
330
1F
100
AcDbEntity
  8
SANINDUSA
100
AcDbLine
 10
1252.06109613558
 20
1633.603964889007
 30
0.0
 11
1251.898434293096
 21
1633.603964889007
 31
0.0
  0
LINE
  5
DEC
330
1F
100
AcDbEntity
  8
SANINDUSA
100
AcDbLine
 10
1251.991953644274
 20
1633.619119745807
 30
0.0
 11
1252.019654358101
 21
1633.618394377088
 31
0.0
  0
LINE
  5
DED
330
1F
100
AcDbEntity
  8
SANINDUSA
100
AcDbLine
 10
1251.992846439585
 20
1633.623097738309
 30
0.0
 11
1252.019759065894
 21
1633.622393006388
 31
0.0
  0
LINE
  5
DEF
330
1F
100
AcDbEntity
  8
SANINDUSA
100
AcDbLine
 10
1252.063896135579
 20
1633.601164889007
 30
0.0
 11
1252.121396135579
 21
1633.601164889007
 31
0.0
  0
LINE
  5
DF0
330
1F
100
AcDbEntity
  8
SANINDUSA
100
AcDbLine
 10
1252.065209855063
 20
1633.605164889007
 30
0.0
 11
1252.121396135579
 21
1633.605164889007
 31
0.0
  0
ARC
  5
DF2
330
1F
100
AcDbEntity
  8
SANINDUSA
100
AcDbCircle
 10
1248.892488795707
 20
1633.869088155166
 30
0.0
 40
0.0239677488551932
100
AcDbArc
 50
90.0
 51
180.0
  0
LINE
  5
DFF
330
1F
100
AcDbEntity
  8
SANINDUSA
100
AcDbLine
 10
1249.865314409754
 20
1633.633964889007
 30
0.0
 11
1250.208435528912
 21
1633.633964889007
 31
0.0
  0
LINE
  5
E00
330
1F
100
AcDbEntity
  8
SANINDUSA
100
AcDbLine
 10
1249.86491081083
 20
1633.603964889007
 30
0.0
 11
1249.968187211981
 21
1633.603964889007
 31
0.0
  0
ARC
  5
E02
330
1F
100
AcDbEntity
  8
SANINDUSA
100
AcDbCircle
 10
1249.865314409754
 20
1633.626964889007
 30
0.0
 40
0.0070000000000001
100
AcDbArc
 50
90.0
 51
179.0000000030781
  0
LINE
  5
E03
330
1F
100
AcDbEntity
  8
SANINDUSA
100
AcDbLine
 10
1249.857911876964
 20
1633.603964889007
 30
0.0
 11
1249.86491081083
 21
1633.603964889007
 31
0.0
  0
LINE
  5
E05
330
1F
100
AcDbEntity
  8
SANINDUSA
100
AcDbLine
 10
1249.857911876964
 20
1633.603964889007
 30
0.0
 11
1249.858315475887
 21
1633.627087055852
 31
0.0
  0
LINE
  5
E08
330
1F
100
AcDbEntity
  8
SANINDUSA
100
AcDbLine
 10
1249.98661694685
 20
1633.601164889007
 30
0.0
 11
1250.069796979234
 21
1633.601164889007
 31
0.0
  0
LINE
  5
E09
330
1F
100
AcDbEntity
  8
SANINDUSA
100
AcDbLine
 10
1249.968187211981
 20
1633.603964889007
 30
0.0
 11
1249.972349996259
 21
1633.601164889007
 31
0.0
  0
LINE
  5
E0A
330
1F
100
AcDbEntity
  8
SANINDUSA
100
AcDbLine
 10
1249.972349996259
 20
1633.601164889007
 30
0.0
 11
1249.98661694685
 21
1633.601164889007
 31
0.0
  0
LINE
  5
E0C
330
1F
100
AcDbEntity
  8
SANINDUSA
100
AcDbLine
 10
1250.069775774887
 20
1633.601113534543
 30
0.0
 11
1250.073782308901
 21
1633.603964889007
 31
0.0
  0
LINE
  5
E0D
330
1F
100
AcDbEntity
  8
SANINDUSA
100
AcDbLine
 10
1250.208435528912
 20
1633.633964889007
 30
0.0
 11
1250.75155664807
 21
1633.633964889007
 31
0.0
  0
LINE
  5
E0E
330
1F
100
AcDbEntity
  8
SANINDUSA
100
AcDbLine
 10
1250.208435528912
 20
1633.603964889007
 30
0.0
 11
1250.75895918086
 21
1633.603964889007
 31
0.0
  0
ARC
  5
E10
330
1F
100
AcDbEntity
  8
SANINDUSA
100
AcDbCircle
 10
1250.75155664807
 20
1633.626964889007
 30
0.0
 40
0.007
100
AcDbArc
 50
0.9999999969218754
 51
90.0
  0
LINE
  5
E11
330
1F
100
AcDbEntity
  8
SANINDUSA
100
AcDbLine
 10
1250.75895918086
 20
1633.603964889007
 30
0.0
 11
1250.758555581936
 21
1633.627087055852
 31
0.0
  0
LINE
  5
E12
330
1F
100
AcDbEntity
  8
SANINDUSA
100
AcDbLine
 10
1250.073782308901
 20
1633.603964889007
 30
0.0
 11
1250.208435528912
 21
1633.603964889007
 31
0.0
  0
LINE
  5
E13
330
1F
100
AcDbEntity
  8
SANINDUSA
100
AcDbLine
 10
1249.968187211981
 20
1633.603964889007
 30
0.0
 11
1250.073782308901
 21
1633.603964889007
 31
0.0
  0
LINE
  5
E2D
330
1F
100
AcDbEntity
  8
SANINDUSA
100
AcDbLine
 10
1252.772821031932
 20
1633.603964889007
 30
0.0
 11
1252.529913235904
 21
1633.603964889007
 31
0.0
  0
LINE
  5
E2E
330
1F
100
AcDbEntity
  8
SANINDUSA
100
AcDbLine
 10
1252.523890478769
 20
1633.633964889007
 30
0.0
 11
1252.729533723618
 21
1633.633964889007
 31
0.0
  0
LINE
  5
E30
330
1F
100
AcDbEntity
  8
SANINDUSA
100
AcDbLine
 10
1252.177582416097
 20
1633.605164889007
 30
0.0
 11
1252.121396135579
 21
1633.605164889007
 31
0.0
  0
LINE
  5
E31
330
1F
100
AcDbEntity
  8
SANINDUSA
100
AcDbLine
 10
1252.178896135579
 20
1633.601164889007
 30
0.0
 11
1252.121396135579
 21
1633.601164889007
 31
0.0
  0
LINE
  5
E32
330
1F
100
AcDbEntity
  8
SANINDUSA
100
AcDbLine
 10
1252.07105650318
 20
1633.633964889007
 30
0.0
 11
1252.487621067936
 21
1633.633964889007
 31
0.0
  0
LINE
  5
E34
330
1F
100
AcDbEntity
  8
SANINDUSA
100
AcDbLine
 10
1252.001532240448
 20
1633.633964889007
 30
0.0
 11
1252.022457944887
 21
1633.633964889007
 31
0.0
  0
LINE
  5
E36
330
1F
100
AcDbEntity
  8
SANINDUSA
100
AcDbLine
 10
1251.980369078295
 20
1633.633964889007
 30
0.0
 11
1252.001532240448
 21
1633.633964889007
 31
0.0
  0
LINE
  5
E37
330
1F
100
AcDbEntity
  8
SANINDUSA
100
AcDbLine
 10
1251.971268779128
 20
1633.633964889007
 30
0.0
 11
1251.980369078295
 21
1633.633964889007
 31
0.0
  0
LINE
  5
E3A
330
1F
100
AcDbEntity
  8
SANINDUSA
100
AcDbLine
 10
1251.898434293096
 20
1633.603964889007
 30
0.0
 11
1251.897555668901
 21
1633.603964889007
 31
0.0
  0
LINE
  5
E3E
330
1F
100
AcDbEntity
  8
SANINDUSA
100
AcDbLine
 10
1251.942845535398
 20
1633.633964889007
 30
0.0
 11
1251.90112434216
 21
1633.633964889007
 31
0.0
  0
ARC
  5
E3F
330
1F
100
AcDbEntity
  8
SANINDUSA
100
AcDbCircle
 10
1251.90112434216
 20
1633.626964889007
 30
0.0
 40
0.0070000000000001
100
AcDbArc
 50
90.0
 51
178.5859299995731
  0
LINE
  5
E40
330
1F
100
AcDbEntity
  8
SANINDUSA
100
AcDbLine
 10
1251.894126473941
 20
1633.62713763271
 30
0.0
 11
1251.89355445037
 21
1633.603964889007
 31
0.0
  0
LINE
  5
E41
330
1F
100
AcDbEntity
  8
SANINDUSA
100
AcDbLine
 10
1251.89812525578
 20
1633.627038922023
 30
0.0
 11
1251.897555668901
 21
1633.603964889007
 31
0.0
  0
ARC
  5
E42
330
1F
100
AcDbEntity
  8
SANINDUSA
100
AcDbCircle
 10
1251.90112434216
 20
1633.626964889007
 30
0.0
 40
0.0029999999999999
100
AcDbArc
 50
90.0
 51
178.5859299995731
  0
LINE
  5
E43
330
1F
100
AcDbEntity
  8
SANINDUSA
100
AcDbLine
 10
1251.942845535398
 20
1633.629964889007
 30
0.0
 11
1251.90112434216
 21
1633.629964889007
 31
0.0
  0
LINE
  5
E45
330
1F
100
AcDbEntity
  8
SANINDUSA
100
AcDbLine
 10
1251.942845535398
 20
1633.633964889007
 30
0.0
 11
1251.971268779128
 21
1633.633964889007
 31
0.0
  0
ARC
  5
E46
330
1F
100
AcDbEntity
  8
SANINDUSA
100
AcDbCircle
 10
1251.942845535398
 20
1633.583964889007
 30
0.0
 40
0.0499999999999999
100
AcDbArc
 50
66.37610077135917
 51
90.0
  0
ARC
  5
E47
330
1F
100
AcDbEntity
  8
SANINDUSA
100
AcDbCircle
 10
1251.942845535398
 20
1633.583964889007
 30
0.0
 40
0.046
100
AcDbArc
 50
66.02316988688862
 51
90.0
  0
LINE
  5
E4A
330
1F
100
AcDbEntity
  8
SANINDUSA
100
AcDbLine
 10
1252.068789396934
 20
1633.633964889007
 30
0.0
 11
1252.07105650318
 21
1633.633964889007
 31
0.0
  0
LINE
  5
E4B
330
1F
100
AcDbEntity
  8
SANINDUSA
100
AcDbLine
 10
1252.043676055912
 20
1633.633964889007
 30
0.0
 11
1252.068789396934
 21
1633.633964889007
 31
0.0
  0
LINE
  5
E4C
330
1F
100
AcDbEntity
  8
SANINDUSA
100
AcDbLine
 10
1252.022457944887
 20
1633.633964889007
 30
0.0
 11
1252.043676055912
 21
1633.633964889007
 31
0.0
  0
LINE
  5
E50
330
1F
100
AcDbEntity
  8
SANINDUSA
100
AcDbLine
 10
1252.525671241391
 20
1633.603964889007
 30
0.0
 11
1252.181696135579
 21
1633.603964889007
 31
0.0
  0
LINE
  5
E52
330
1F
100
AcDbEntity
  8
SANINDUSA
100
AcDbLine
 10
1252.495549852406
 20
1633.633964889007
 30
0.0
 11
1252.487621067936
 21
1633.633964889007
 31
0.0
  0
LINE
  5
E57
330
1F
100
AcDbEntity
  8
SANINDUSA
100
AcDbLine
 10
1252.495549852406
 20
1633.633964889007
 30
0.0
 11
1252.523890478769
 21
1633.633964889007
 31
0.0
  0
LINE
  5
E5A
330
1F
100
AcDbEntity
  8
SANINDUSA
100
AcDbLine
 10
1252.529913235904
 20
1633.603964889007
 30
0.0
 11
1252.525671241391
 21
1633.603964889007
 31
0.0
  0
LINE
  5
E5B
330
1F
100
AcDbEntity
  8
SANINDUSA
100
AcDbLine
 10
1252.929492001568
 20
1633.629964889007
 30
0.0
 11
1252.868747726549
 21
1633.629964889007
 31
0.0
  0
LINE
  5
E5C
330
1F
100
AcDbEntity
  8
SANINDUSA
100
AcDbLine
 10
1252.929492001568
 20
1633.633964889007
 30
0.0
 11
1252.868747726549
 21
1633.633964889007
 31
0.0
  0
LINE
  5
E5D
330
1F
100
AcDbEntity
  8
SANINDUSA
100
AcDbLine
 10
1252.932893925046
 20
1633.603964889007
 30
0.0
 11
1252.772821031932
 21
1633.603964889007
 31
0.0
  0
LINE
  5
E5F
330
1F
100
AcDbEntity
  8
SANINDUSA
100
AcDbLine
 10
1252.729533827103
 20
1633.633964889007
 30
0.0
 11
1252.868747726549
 21
1633.633964889007
 31
0.0
  0
LINE
  5
E63
330
1F
100
AcDbEntity
  8
SANINDUSA
100
AcDbLine
 10
1252.864504049904
 20
1633.629744678223
 30
0.0
 11
1252.868747726549
 21
1633.629964889007
 31
0.0
  0
LINE
  5
E64
330
1F
100
AcDbEntity
  8
SANINDUSA
100
AcDbLine
 10
1252.864090032668
 20
1633.633723194244
 30
0.0
 11
1252.868747726549
 21
1633.633964889007
 31
0.0
  0
LWPOLYLINE
  5
E65
330
1F
100
AcDbEntity
  8
SANINDUSA
100
AcDbPolyline
 90
        4
 70
   128
 43
0.0
 10
1252.818205055033
 20
1633.630703713181
 10
1252.831307679446
 20
1633.631208821722
 10
1252.844200745195
 20
1633.631983820244
 10
1252.864090032668
 20
1633.633723194244
  0
LWPOLYLINE
  5
E66
330
1F
100
AcDbEntity
  8
SANINDUSA
100
AcDbPolyline
 90
        3
 70
   128
 43
0.0
 10
1252.818315982121
 20
1633.62670525158
 10
1252.841439505074
 20
1633.627786306708
 10
1252.864504049902
 20
1633.629744678223
  0
LINE
  5
E67
330
1F
100
AcDbEntity
  8
SANINDUSA
100
AcDbLine
 10
1252.932893925046
 20
1633.603964889007
 30
0.0
 11
1252.936894534358
 21
1633.603964889007
 31
0.0
  0
ARC
  5
E68
330
1F
100
AcDbEntity
  8
SANINDUSA
100
AcDbCircle
 10
1252.929492001568
 20
1633.626964889007
 30
0.0
 40
0.0030000000000005
100
AcDbArc
 50
0.9999999969218754
 51
90.0
  0
LINE
  5
E69
330
1F
100
AcDbEntity
  8
SANINDUSA
100
AcDbLine
 10
1252.932893925046
 20
1633.603964889007
 30
0.0
 11
1252.932491544654
 21
1633.627017246226
 31
0.0
  0
LINE
  5
E6A
330
1F
100
AcDbEntity
  8
SANINDUSA
100
AcDbLine
 10
1252.936894534358
 20
1633.603964889007
 30
0.0
 11
1252.936490935434
 21
1633.627087055852
 31
0.0
  0
ARC
  5
E6B
330
1F
100
AcDbEntity
  8
SANINDUSA
100
AcDbCircle
 10
1252.929492001568
 20
1633.626964889007
 30
0.0
 40
0.0070000000000001
100
AcDbArc
 50
0.9999999969218754
 51
90.0
  0
ARC
  5
E6C
330
1F
100
AcDbEntity
  8
SANINDUSA
100
AcDbCircle
 10
1249.137488795707
 20
1633.624088155167
 30
0.0
 40
0.5501200530242853
100
AcDbArc
 50
270.0
 51
0.0
  0
LINE
  5
E6D
330
1F
100
AcDbEntity
  8
SANINDUSA
100
AcDbLine
 10
1248.794367676549
 20
1633.974208208191
 30
0.0
 11
1249.680609914865
 21
1633.974208208191
 31
0.0
  0
LWPOLYLINE
  5
E6F
330
1F
100
AcDbEntity
  8
SANINDUSA
100
AcDbPolyline
 90
       17
 70
   128
 43
0.0
 10
1249.622673868432
 20
1633.623967537403
 10
1249.621844239206
 20
1633.60024160408
 10
1249.619846425382
 20
1633.576594858766
 10
1249.61668042696
 20
1633.553027301459
 10
1249.61234624394
 20
1633.529538932162
 10
1249.606900478443
 20
1633.506375061453
 10
1249.600357058314
 20
1633.483577542517
 10
1249.592715983552
 20
1633.461146375353
 10
1249.583977254159
 20
1633.439081559961
 10
1249.574213533709
 20
1633.417541774218
 10
1249.563421060565
 20
1633.396505636914
 10
1249.551599834726
 20
1633.375973148049
 10
1249.538749856194
 20
1633.355944307623
 10
1249.52500249616
 20
1633.336606268666
 10
1249.510391855811
 20
1633.318002240821
 10
1249.494917935146
 20
1633.300132224089
 10
1249.478580734165
 20
1633.282996218469
  0
LWPOLYLINE
  5
E73
330
1F
100
AcDbEntity
  8
SANINDUSA
100
AcDbPolyline
 90
        7
 70
   128
 43
0.0
 10
1249.033596999533
 20
1633.966118230511
 10
1249.163592636487
 20
1633.965052992006
 10
1249.293587918267
 20
1633.963943623784
 10
1249.455538884975
 20
1633.962481668042
 10
1249.571483020807
 20
1633.96134843005
 42
-0.4147482218842747
 10
1249.625941776894
 20
1633.905713138069
 10
1249.622673723577
 20
1633.623967538899
  0
LWPOLYLINE
  5
E74
330
1F
100
AcDbEntity
  8
SANINDUSA
100
AcDbPolyline
 90
       21
 70
   128
 43
0.0
 10
1249.566753348793
 20
1633.598949669453
 10
1249.566822346191
 20
1633.596551400636
 10
1249.566878833541
 20
1633.583190776012
 10
1249.566387723213
 20
1633.569838736356
 10
1249.565350418604
 20
1633.55642887895
 10
1249.563777812494
 20
1633.543070940288
 10
1249.56170978935
 20
1633.529962716853
 10
1249.559136584155
 20
1633.516944012804
 10
1249.555818003903
 20
1633.503081936035
 10
1249.551933677092
 20
1633.489367408764
 10
1249.544973723988
 20
1633.468876378585
 10
1249.536763122113
 20
1633.448853407253
 10
1249.527187674915
 20
1633.429074080911
 10
1249.518892819442
 20
1633.41408589361
 10
1249.509908218268
 20
1633.399500145667
 10
1249.500286943483
 20
1633.38534989086
 10
1249.490063020593
 20
1633.37161010491
 10
1249.479308454979
 20
1633.35828042796
 10
1249.467554606384
 20
1633.344736155257
 10
1249.455372566464
 20
1633.331568217689
 10
1249.442841667519
 20
1633.318735283356
  0
LINE
  5
E75
330
1F
100
AcDbEntity
  8
SANINDUSA
100
AcDbLine
 10
1248.787368742683
 20
1633.080967036008
 30
0.0
 11
1248.787368742683
 21
1633.967209274325
 31
0.0
  0
LWPOLYLINE
  5
E78
330
1F
100
AcDbEntity
  8
SANINDUSA
100
AcDbPolyline
 90
        7
 70
   128
 43
0.0
 10
1249.137609411975
 20
1633.138903227296
 10
1248.855859936979
 20
1633.135635129022
 42
-0.4147235358476991
 10
1248.800224690482
 20
1633.190089251459
 10
1248.799396669585
 20
1633.274081848441
 10
1248.798198344834
 20
1633.404076394196
 10
1248.796792191733
 20
1633.566027847361
 10
1248.795458720363
 20
1633.727979951341
  0
LWPOLYLINE
  5
E79
330
1F
100
AcDbEntity
  8
SANINDUSA
100
AcDbPolyline
 90
       10
 70
   128
 43
0.0
 10
1248.868521046852
 20
1633.727075278114
 10
1248.866921688621
 20
1633.647104421009
 10
1248.865233441263
 20
1633.567135264578
 10
1248.862848822059
 20
1633.461366416198
 10
1248.860267880324
 20
1633.355601761152
 10
1248.858173700989
 20
1633.27591668739
 10
1248.856225541435
 20
1633.206710472042
 42
0.4255537352474226
 10
1248.871375888885
 20
1633.19128920246
 10
1249.004007497014
 20
1633.192671184916
 10
1249.137489110205
 20
1633.193843220516
  0
LINE
  5
E7A
330
1F
100
AcDbEntity
  8
SANINDUSA
100
AcDbLine
 10
1249.137488795707
 20
1633.073968102143
 30
0.0
 11
1248.794367676549
 21
1633.073968102143
 31
0.0
  0
LWPOLYLINE
  5
E7C
330
1F
100
AcDbEntity
  8
SANINDUSA
100
AcDbPolyline
 90
        9
 70
   128
 43
0.0
 10
1248.787368742683
 20
1633.080967036008
 10
1248.787503589064
 20
1633.079601873037
 10
1248.787902116517
 20
1633.078289152234
 10
1248.788549015777
 20
1633.077079301226
 10
1248.789419436477
 20
1633.076018795937
 10
1248.790479941767
 20
1633.075148375237
 10
1248.791689792775
 20
1633.074501475977
 10
1248.793002513577
 20
1633.074102948523
 10
1248.794367676549
 20
1633.073968102143
  0
LWPOLYLINE
  5
E80
330
1F
100
AcDbEntity
  8
SANINDUSA
100
AcDbPolyline
 90
       17
 70
   128
 43
0.0
 10
1249.478580732405
 20
1633.282996216708
 10
1249.461445315873
 20
1633.266659604843
 10
1249.4435754955
 20
1633.251185880554
 10
1249.424971271286
 20
1633.23657504384
 10
1249.40563264323
 20
1633.222827094701
 10
1249.385605264345
 20
1633.209977912111
 10
1249.365073262664
 20
1633.198156951584
 10
1249.344036638186
 20
1633.187364213118
 10
1249.322495390912
 20
1633.177599696714
 10
1249.300432165975
 20
1633.168861466078
 10
1249.278001528962
 20
1633.161220557572
 10
1249.255203479874
 20
1633.154676971196
 10
1249.232038018712
 20
1633.149230706952
 10
1249.208550481164
 20
1633.144896532532
 10
1249.184983201109
 20
1633.141730536973
 10
1249.161336178544
 20
1633.139732720277
 10
1249.137609413471
 20
1633.138903082442
  0
LWPOLYLINE
  5
E81
330
1F
100
AcDbEntity
  8
SANINDUSA
100
AcDbPolyline
 90
       29
 70
   128
 43
0.0
 10
1249.442841667517
 20
1633.318735283357
 10
1249.427857494584
 20
1633.304177587736
 10
1249.412383684448
 20
1633.290096285475
 10
1249.396381962004
 20
1633.276623852075
 10
1249.379814052148
 20
1633.26389276304
 10
1249.362641679774
 20
1633.252035493873
 10
1249.345504899143
 20
1633.241554943409
 10
1249.327755966617
 20
1633.232009490278
 10
1249.309477596165
 20
1633.223450180713
 10
1249.290752501753
 20
1633.215928060948
 10
1249.27166339735
 20
1633.209494177217
 10
1249.252292996924
 20
1633.204199575753
 10
1249.235701982914
 20
1633.200620192036
 10
1249.218934005515
 20
1633.19786040452
 10
1249.20205061178
 20
1633.195939723002
 10
1249.185113348765
 20
1633.194877657277
 10
1249.168244730335
 20
1633.194690316153
 10
1249.165987969846
 20
1633.194731989823
 10
1249.164584754844
 20
1633.19476593148
 10
1249.164031017181
 20
1633.194781024332
 10
1249.162977941926
 20
1633.194812385144
 10
1249.162714697398
 20
1633.194820769588
 10
1249.162648887818
 20
1633.194822899737
 10
1249.162632435521
 20
1633.19482343441
 10
1249.162628322452
 20
1633.19482356808
 10
1249.154249106087
 20
1633.194711278396
 10
1249.145871058823
 20
1633.194200016615
 10
1249.137489170144
 20
1633.193843259764
 10
1249.137489110158
 20
1633.193843259085
  0
LINE
  5
E82
330
1F
100
AcDbEntity
  8
SANINDUSA
100
AcDbLine
 10
1249.442841667517
 20
1633.318735283357
 30
0.0
 11
1249.442759211595
 21
1633.318817741396
 31
0.0
  0
LINE
  5
E84
330
1F
100
AcDbEntity
  8
SANINDUSA
100
AcDbLine
 10
1249.034501672759
 20
1633.893055904022
 30
0.0
 11
1248.994888148549
 21
1633.893055904022
 31
0.0
  0
LINE
  5
E86
330
1F
100
AcDbEntity
  8
SANINDUSA
100
AcDbLine
 10
1248.994888148549
 20
1633.966131179398
 30
0.0
 11
1249.03040377602
 21
1633.966131179398
 31
0.0
  0
LINE
  5
E87
330
1F
100
AcDbEntity
  8
SANINDUSA
100
AcDbLine
 10
1248.867243725819
 20
1633.796512169798
 30
0.0
 11
1248.868521046852
 21
1633.766688802325
 31
0.0
  0
LINE
  5
E89
330
1F
100
AcDbEntity
  8
SANINDUSA
100
AcDbLine
 10
1248.795445771476
 20
1633.766688802325
 30
0.0
 11
1248.795406916756
 21
1633.796656887984
 31
0.0
  0
ARC
  5
E8A
330
1F
100
AcDbEntity
  8
SANINDUSA
100
AcDbCircle
 10
1248.95012335538
 20
1633.811453595494
 30
0.0
 40
0.0580909766866838
100
AcDbArc
 50
45.78576691945622
 51
224.2142330805438
  0
ARC
  5
E8B
330
1F
100
AcDbEntity
  8
SANINDUSA
100
AcDbCircle
 10
1248.95012335538
 20
1633.811453595494
 30
0.0
 40
0.0475000000000005
100
AcDbArc
 50
225.0
 51
45.0
  0
LWPOLYLINE
  5
E8C
330
1F
100
AcDbEntity
  8
SANINDUSA
100
AcDbPolyline
 90
       29
 70
   128
 43
0.0
 10
1248.991760026221
 20
1633.851961817634
 10
1248.996032044888
 20
1633.847036313968
 10
1248.999739741977
 20
1633.841647879136
 10
1249.002813429198
 20
1633.835897790071
 10
1249.005213776525
 20
1633.829839051437
 10
1249.006929085428
 20
1633.823530410128
 10
1249.007927142763
 20
1633.81709032582
 10
1249.008188387133
 20
1633.810581237981
 10
1249.00772108691
 20
1633.804062877189
 10
1249.006534004762
 20
1633.797657547611
 10
1249.004629038225
 20
1633.791429790314
 10
1249.002033818199
 20
1633.785434024184
 10
1248.998797009651
 20
1633.7797826903
 10
1248.994941046243
 20
1633.774535206227
 10
1248.990510453864
 20
1633.769734735257
 10
1248.985588301505
 20
1633.765471281913
 10
1248.980214385663
 20
1633.761792885141
 10
1248.974445847926
 20
1633.758726384938
 10
1248.968390855951
 20
1633.756329278546
 10
1248.96210174039
 20
1633.754633521509
 10
1248.955642379572
 20
1633.753646038147
 10
1248.949133946289
 20
1633.753385347647
 10
1248.942635474011
 20
1633.753864445488
 10
1248.936210567681
 20
1633.755068822229
 10
1248.929979838977
 20
1633.756975864083
 10
1248.924002768789
 20
1633.759578611883
 10
1248.91833530933
 20
1633.762842126136
 10
1248.913083952886
 20
1633.766705082923
 10
1248.909615133239
 20
1633.769816924653
  0
LINE
  5
E8D
330
1F
100
AcDbEntity
  8
SANINDUSA
100
AcDbLine
 10
1248.868521046852
 20
1633.766688802325
 30
0.0
 11
1248.868521046852
 21
1633.727075278114
 31
0.0
  0
LINE
  5
E90
330
1F
100
AcDbEntity
  8
SANINDUSA
100
AcDbLine
 10
1248.795458720363
 20
1633.727979951341
 30
0.0
 11
1248.795445771476
 21
1633.731173174854
 31
0.0
  0
LINE
  5
E91
330
1F
100
AcDbEntity
  8
SANINDUSA
100
AcDbLine
 10
1248.795445771476
 20
1633.731173174854
 30
0.0
 11
1248.795445771476
 21
1633.766688802325
 31
0.0
  0
LINE
  5
E92
330
1F
100
AcDbEntity
  8
SANINDUSA
100
AcDbLine
 10
1248.909615133239
 20
1633.769816924653
 30
0.0
 11
1248.909043402505
 21
1633.770376992137
 31
0.0
  0
LINE
  5
E93
330
1F
100
AcDbEntity
  8
SANINDUSA
100
AcDbLine
 10
1248.909043402505
 20
1633.770376992137
 30
0.0
 11
1248.908487379795
 21
1633.770944249541
 31
0.0
  0
ARC
  5
E95
330
1F
100
AcDbEntity
  8
SANINDUSA
100
AcDbCircle
 10
1248.892488795707
 20
1633.869088155166
 30
0.0
 40
0.097043024230931
100
AcDbArc
 50
90.0
 51
180.0
  0
LINE
  5
E96
330
1F
100
AcDbEntity
  8
SANINDUSA
100
AcDbLine
 10
1248.905358562211
 20
1633.893055904022
 30
0.0
 11
1248.892488795707
 21
1633.893055904022
 31
0.0
  0
ARC
  5
E97
330
1F
100
AcDbEntity
  8
SANINDUSA
100
AcDbCircle
 10
1248.95012335538
 20
1633.811453595494
 30
0.0
 40
0.0475000000000005
100
AcDbArc
 50
45.0
 51
225.0
  0
LINE
  5
E98
330
1F
100
AcDbEntity
  8
SANINDUSA
100
AcDbLine
 10
1248.868521046852
 20
1633.869088155166
 30
0.0
 11
1248.868521046852
 21
1633.856218388663
 31
0.0
  0
LINE
  5
E9A
330
1F
100
AcDbEntity
  8
SANINDUSA
100
AcDbLine
 10
1248.795445771476
 20
1633.856218388663
 30
0.0
 11
1248.795445771476
 21
1633.869088155166
 31
0.0
  0
LWPOLYLINE
  5
E9B
330
1F
100
AcDbEntity
  8
SANINDUSA
100
AcDbPolyline
 90
        3
 70
   128
 43
0.0
 10
1248.867243725819
 20
1633.826395021189
 10
1248.867246810025
 20
1633.809752919897
 10
1248.867243725819
 20
1633.796512169798
  0
LINE
  5
E9D
330
1F
100
AcDbEntity
  8
SANINDUSA
100
AcDbLine
 10
1248.795406916756
 20
1633.796656887984
 30
0.0
 11
1248.795406916756
 21
1633.826250303003
 31
0.0
  0
LINE
  5
E9E
330
1F
100
AcDbEntity
  8
SANINDUSA
100
AcDbLine
 10
1248.868521046852
 20
1633.856218388663
 30
0.0
 11
1248.867243725819
 21
1633.826395021189
 31
0.0
  0
LINE
  5
EA0
330
1F
100
AcDbEntity
  8
SANINDUSA
100
AcDbLine
 10
1248.795406916756
 20
1633.826250303003
 30
0.0
 11
1248.795445771476
 21
1633.856218388663
 31
0.0
  0
LWPOLYLINE
  5
EA4
330
1F
100
AcDbEntity
  8
SANINDUSA
100
AcDbPolyline
 90
        3
 70
   128
 43
0.0
 10
1248.965064781075
 20
1633.894333225054
 10
1248.948422679783
 20
1633.894330140849
 10
1248.935181929685
 20
1633.894333225054
  0
LINE
  5
EA5
330
1F
100
AcDbEntity
  8
SANINDUSA
100
AcDbLine
 10
1248.994888148549
 20
1633.893055904022
 30
0.0
 11
1248.965064781075
 21
1633.894333225054
 31
0.0
  0
LINE
  5
EA6
330
1F
100
AcDbEntity
  8
SANINDUSA
100
AcDbLine
 10
1248.935181929685
 20
1633.894333225054
 30
0.0
 11
1248.905358562211
 21
1633.893055904022
 31
0.0
  0
LINE
  5
EA8
330
1F
100
AcDbEntity
  8
SANINDUSA
100
AcDbLine
 10
1248.892488795707
 20
1633.966131179398
 30
0.0
 11
1248.905358562211
 21
1633.966131179398
 31
0.0
  0
LINE
  5
EAC
330
1F
100
AcDbEntity
  8
SANINDUSA
100
AcDbLine
 10
1248.905358562211
 20
1633.966131179398
 30
0.0
 11
1248.93532664787
 21
1633.966170034118
 31
0.0
  0
LINE
  5
EAD
330
1F
100
AcDbEntity
  8
SANINDUSA
100
AcDbLine
 10
1248.93532664787
 20
1633.966170034118
 30
0.0
 11
1248.96492006289
 21
1633.966170034118
 31
0.0
  0
LINE
  5
EAE
330
1F
100
AcDbEntity
  8
SANINDUSA
100
AcDbLine
 10
1248.96492006289
 20
1633.966170034118
 30
0.0
 11
1248.994888148549
 21
1633.966131179398
 31
0.0
  0
LWPOLYLINE
  5
EB1
330
1F
100
AcDbEntity
  8
SANINDUSA
100
AcDbPolyline
 90
       10
 70
   128
 43
0.0
 10
1249.567733730358
 20
1633.624087840669
 10
1249.568905765958
 20
1633.75756945386
 10
1249.570287713257
 20
1633.890197687863
 42
0.425648722509123
 10
1249.554861620393
 20
1633.90534789876
 10
1249.511461423331
 20
1633.904112208128
 10
1249.457579190778
 20
1633.902649321453
 10
1249.351817402553
 20
1633.899961090043
 10
1249.246050078065
 20
1633.897484263732
 10
1249.140277652549
 20
1633.895189932795
 10
1249.034501672759
 20
1633.893055904022
  0
LINE
  5
EB2
330
1F
100
AcDbEntity
  8
SANINDUSA
100
AcDbLine
 10
1249.687608848731
 20
1633.967209274325
 30
0.0
 11
1249.687608848731
 21
1633.624088155167
 31
0.0
  0
LWPOLYLINE
  5
EB4
330
1F
100
AcDbEntity
  8
SANINDUSA
100
AcDbPolyline
 90
        5
 70
   128
 43
0.0
 10
1249.567733691789
 20
1633.624087840716
 10
1249.567733691109
 20
1633.62408778073
 10
1249.56746297111
 20
1633.612719041285
 10
1249.566907502891
 20
1633.6013534431
 10
1249.566753348793
 20
1633.598949669453
  0
LWPOLYLINE
  5
EB6
330
1F
100
AcDbEntity
  8
SANINDUSA
100
AcDbPolyline
 90
        9
 70
   128
 43
0.0
 10
1249.687608848731
 20
1633.967209274325
 10
1249.687474002351
 20
1633.968574437297
 10
1249.687075474897
 20
1633.969887158099
 10
1249.686428575637
 20
1633.971097009107
 10
1249.685558154937
 20
1633.972157514396
 10
1249.684497649648
 20
1633.973027935096
 10
1249.683287798639
 20
1633.973674834356
 10
1249.681975077837
 20
1633.97407336181
 10
1249.680609914865
 20
1633.974208208191
  0
LWPOLYLINE
  5
ECB
330
1F
100
AcDbEntity
  8
SANINDUSA
100
AcDbPolyline
 90
        9
 70
   128
 43
0.0
 10
1248.794367676549
 20
1633.974208208191
 10
1248.793002513577
 20
1633.97407336181
 10
1248.791689792775
 20
1633.973674834356
 10
1248.790479941767
 20
1633.973027935096
 10
1248.789419436477
 20
1633.972157514396
 10
1248.788549015777
 20
1633.971097009107
 10
1248.787902116517
 20
1633.969887158099
 10
1248.787503589064
 20
1633.968574437297
 10
1248.787368742683
 20
1633.967209274325
  0
LINE
  5
ECE
330
1F
100
AcDbEntity
  8
SANINDUSA
100
AcDbLine
 10
1251.89355445037
 20
1633.603964889007
 30
0.0
 11
1251.897555668901
 21
1633.603964889007
 31
0.0
  0
LINE
  5
1022
330
1F
100
AcDbEntity
  8
SANINDUSA
100
AcDbLine
 10
1250.89939330955
 20
1633.633964889007
 30
0.0
 11
1251.242514428708
 21
1633.633964889007
 31
0.0
  0
LINE
  5
1023
330
1F
100
AcDbEntity
  8
SANINDUSA
100
AcDbLine
 10
1250.898989710626
 20
1633.603964889007
 30
0.0
 11
1251.002266111777
 21
1633.603964889007
 31
0.0
  0
ARC
  5
1024
330
1F
100
AcDbEntity
  8
SANINDUSA
100
AcDbCircle
 10
1250.89939330955
 20
1633.626964889007
 30
0.0
 40
0.0070000000000001
100
AcDbArc
 50
90.0
 51
179.0000000030781
  0
LINE
  5
1025
330
1F
100
AcDbEntity
  8
SANINDUSA
100
AcDbLine
 10
1250.89199077676
 20
1633.603964889007
 30
0.0
 11
1250.898989710626
 21
1633.603964889007
 31
0.0
  0
LINE
  5
1026
330
1F
100
AcDbEntity
  8
SANINDUSA
100
AcDbLine
 10
1250.89199077676
 20
1633.603964889007
 30
0.0
 11
1250.892394375684
 21
1633.627087055852
 31
0.0
  0
LINE
  5
1027
330
1F
100
AcDbEntity
  8
SANINDUSA
100
AcDbLine
 10
1251.020695846647
 20
1633.601164889007
 30
0.0
 11
1251.103875879031
 21
1633.601164889007
 31
0.0
  0
LINE
  5
1028
330
1F
100
AcDbEntity
  8
SANINDUSA
100
AcDbLine
 10
1251.002266111777
 20
1633.603964889007
 30
0.0
 11
1251.006428896056
 21
1633.601164889007
 31
0.0
  0
LINE
  5
1029
330
1F
100
AcDbEntity
  8
SANINDUSA
100
AcDbLine
 10
1251.006428896056
 20
1633.601164889007
 30
0.0
 11
1251.020695846647
 21
1633.601164889007
 31
0.0
  0
LINE
  5
102A
330
1F
100
AcDbEntity
  8
SANINDUSA
100
AcDbLine
 10
1251.103854674684
 20
1633.601113534543
 30
0.0
 11
1251.107861208698
 21
1633.603964889007
 31
0.0
  0
LINE
  5
102B
330
1F
100
AcDbEntity
  8
SANINDUSA
100
AcDbLine
 10
1251.242514428708
 20
1633.633964889007
 30
0.0
 11
1251.785635547866
 21
1633.633964889007
 31
0.0
  0
LINE
  5
102C
330
1F
100
AcDbEntity
  8
SANINDUSA
100
AcDbLine
 10
1251.242514428708
 20
1633.603964889007
 30
0.0
 11
1251.793038080656
 21
1633.603964889007
 31
0.0
  0
ARC
  5
102D
330
1F
100
AcDbEntity
  8
SANINDUSA
100
AcDbCircle
 10
1251.785635547866
 20
1633.626964889007
 30
0.0
 40
0.007
100
AcDbArc
 50
0.9999999969218754
 51
90.0
  0
LINE
  5
102E
330
1F
100
AcDbEntity
  8
SANINDUSA
100
AcDbLine
 10
1251.793038080656
 20
1633.603964889007
 30
0.0
 11
1251.792634481732
 21
1633.627087055852
 31
0.0
  0
LINE
  5
102F
330
1F
100
AcDbEntity
  8
SANINDUSA
100
AcDbLine
 10
1251.107861208698
 20
1633.603964889007
 30
0.0
 11
1251.242514428708
 21
1633.603964889007
 31
0.0
  0
LINE
  5
1030
330
1F
100
AcDbEntity
  8
SANINDUSA
100
AcDbLine
 10
1251.002266111777
 20
1633.603964889007
 30
0.0
 11
1251.107861208698
 21
1633.603964889007
 31
0.0
  0
ENDSEC
  0
SECTION
  2
OBJECTS
  0
DICTIONARY
  5
C
330
0
100
AcDbDictionary
281
     1
  3
ACAD_COLOR
350
BA9
  3
ACAD_GROUP
350
D
  3
ACAD_LAYOUT
350
1A
  3
ACAD_MATERIAL
350
BA8
  3
ACAD_MLEADERSTYLE
350
107D
  3
ACAD_MLINESTYLE
350
17
  3
ACAD_PLOTSETTINGS
350
19
  3
ACAD_PLOTSTYLENAME
350
E
  3
ACAD_SCALELIST
350
106B
  3
ACAD_TABLESTYLE
350
BAA
  3
ACAD_VISUALSTYLE
350
1057
  3
ACDB_RECOMPOSE_DATA
350
10AD
  3
AcDbVariableDictionary
350
3D
  3
ASE_INDEX_DICTIONARY
350
1031
  3
DWGPROPS
350
10AE
  0
DICTIONARY
  5
1084
330
10
100
AcDbDictionary
280
     1
281
     1
  3
ADSK_XREC_LAYER_RECONCILED
360
1085
  0
DICTIONARY
  5
1086
330
2F
100
AcDbDictionary
280
     1
281
     1
  3
ADSK_XREC_LAYER_RECONCILED
360
1087
  0
DICTIONARY
  5
1088
330
30
100
AcDbDictionary
280
     1
281
     1
  3
ADSK_XREC_LAYER_RECONCILED
360
1089
  0
DICTIONARY
  5
108A
330
31
100
AcDbDictionary
280
     1
281
     1
  3
ADSK_XREC_LAYER_RECONCILED
360
108B
  0
DICTIONARY
  5
108C
330
32
100
AcDbDictionary
280
     1
281
     1
  3
ADSK_XREC_LAYER_RECONCILED
360
108D
  0
DICTIONARY
  5
108E
330
33
100
AcDbDictionary
280
     1
281
     1
  3
ADSK_XREC_LAYER_RECONCILED
360
108F
  0
DICTIONARY
  5
1090
330
34
100
AcDbDictionary
280
     1
281
     1
  3
ADSK_XREC_LAYER_RECONCILED
360
1091
  0
DICTIONARY
  5
1092
330
35
100
AcDbDictionary
280
     1
281
     1
  3
ADSK_XREC_LAYER_RECONCILED
360
1093
  0
DICTIONARY
  5
1094
330
36
100
AcDbDictionary
280
     1
281
     1
  3
ADSK_XREC_LAYER_RECONCILED
360
1095
  0
DICTIONARY
  5
1096
330
37
100
AcDbDictionary
280
     1
281
     1
  3
ADSK_XREC_LAYER_RECONCILED
360
1097
  0
DICTIONARY
  5
1098
330
5D6
100
AcDbDictionary
280
     1
281
     1
  3
ADSK_XREC_LAYER_RECONCILED
360
1099
  0
DICTIONARY
  5
109A
330
8AF
100
AcDbDictionary
280
     1
281
     1
  3
ADSK_XREC_LAYER_RECONCILED
360
109B
  0
DICTIONARY
  5
109C
330
8F8
100
AcDbDictionary
280
     1
281
     1
  3
ADSK_XREC_LAYER_RECONCILED
360
109D
  0
DICTIONARY
  5
109E
330
91D
100
AcDbDictionary
280
     1
281
     1
  3
ADSK_XREC_LAYER_RECONCILED
360
109F
  0
DICTIONARY
  5
10A0
330
BA5
100
AcDbDictionary
280
     1
281
     1
  3
ADSK_XREC_LAYER_RECONCILED
360
10A1
  0
DICTIONARY
  5
10A2
330
C98
100
AcDbDictionary
280
     1
281
     1
  3
ADSK_XREC_LAYER_RECONCILED
360
10A3
  0
DICTIONARY
  5
10A4
330
C99
100
AcDbDictionary
280
     1
281
     1
  3
ADSK_XREC_LAYER_RECONCILED
360
10A5
  0
DICTIONARY
  5
BA9
102
{ACAD_REACTORS
330
C
102
}
330
C
100
AcDbDictionary
281
     1
  0
DICTIONARY
  5
D
102
{ACAD_REACTORS
330
C
102
}
330
C
100
AcDbDictionary
281
     1
  0
DICTIONARY
  5
1A
102
{ACAD_REACTORS
330
C
102
}
330
C
100
AcDbDictionary
281
     1
  3
Layout1
350
1E
  3
Layout2
350
26
  3
Model
350
22
  0
DICTIONARY
  5
BA8
102
{ACAD_REACTORS
330
C
102
}
330
C
100
AcDbDictionary
281
     1
  3
ByBlock
350
1047
  3
ByLayer
350
103F
  3
Global
350
104F
  0
DICTIONARY
  5
107D
102
{ACAD_REACTORS
330
C
102
}
330
C
100
AcDbDictionary
281
     1
  3
Standard
350
107E
  0
DICTIONARY
  5
17
102
{ACAD_REACTORS
330
C
102
}
330
C
100
AcDbDictionary
281
     1
  3
Standard
350
18
  0
DICTIONARY
  5
19
102
{ACAD_REACTORS
330
C
102
}
330
C
100
AcDbDictionary
281
     1
  0
ACDBDICTIONARYWDFLT
  5
E
102
{ACAD_REACTORS
330
C
102
}
330
C
100
AcDbDictionary
281
     1
  3
Normal
350
F
100
AcDbDictionaryWithDefault
340
F
  0
DICTIONARY
  5
106B
102
{ACAD_REACTORS
330
C
102
}
330
C
100
AcDbDictionary
281
     1
  3
A0
350
106C
  3
A1
350
106D
  3
A2
350
106E
  3
A3
350
106F
  3
A4
350
1070
  3
A5
350
1071
  3
A6
350
1072
  3
A7
350
1073
  3
A8
350
1074
  3
A9
350
1075
  3
B0
350
1076
  3
B1
350
1077
  3
B2
350
1078
  3
B3
350
1079
  3
B4
350
107A
  3
B5
350
107B
  3
B6
350
107C
  0
DICTIONARY
  5
BAA
102
{ACAD_REACTORS
330
C
102
}
330
C
100
AcDbDictionary
281
     1
  3
Standard
350
BAB
  0
DICTIONARY
  5
1057
102
{ACAD_REACTORS
330
C
102
}
330
C
100
AcDbDictionary
281
     1
  3
2dWireframe
350
105D
  3
3D Hidden
350
105F
  3
3dWireframe
350
105E
  3
Basic
350
105C
  3
Brighten
350
1063
  3
ColorChange
350
1067
  3
Conceptual
350
1060
  3
Dim
350
1062
  3
EdgeColorOff
350
106A
  3
Facepattern
350
1066
  3
Flat
350
1058
  3
FlatWithEdges
350
1059
  3
Gouraud
350
105A
  3
GouraudWithEdges
350
105B
  3
JitterOff
350
1068
  3
Linepattern
350
1065
  3
OverhangOff
350
1069
  3
Realistic
350
1061
  3
Thicken
350
1064
  0
XRECORD
  5
10AD
102
{ACAD_REACTORS
330
C
102
}
330
C
100
AcDbXrecord
280
     1
 90
        1
330
BAB
  0
DICTIONARY
  5
3D
102
{ACAD_REACTORS
330
C
102
}
330
C
100
AcDbDictionary
281
     1
  3
CANNOSCALE
350
10A7
  3
CMLEADERSTYLE
350
10A6
  3
CTABLESTYLE
350
1034
  3
DIMASSOC
350
3F
  3
HIDETEXT
350
3E
  3
INDEXCTL
350
10A9
  3
PROJECTNAME
350
103D
  3
SORTENTS
350
10A8
  3
XCLIPFRAME
350
10AA
  0
DICTIONARY
  5
1031
102
{ACAD_REACTORS
330
C
102
}
330
C
100
AcDbDictionary
281
     1
  3
ASEBlockHierarchyIndexRecord
350
1032
1001
DCO15
1040
1534831991.031
  0
XRECORD
  5
10AE
102
{ACAD_REACTORS
330
C
102
}
330
C
100
AcDbXrecord
280
     1
  1
DWGPROPS COOKIE
  2

  3

  4

  6

  7

  8
Julio
  9

300
=
301
=
302
=
303
=
304
=
305
=
306
=
307
=
308
=
309
=
 40
0.0038995601851852
 41
2453567.467285509
 42
2456150.630033634
  1

 90
        0
  0
XRECORD
  5
1085
102
{ACAD_REACTORS
330
1084
102
}
330
1084
100
AcDbXrecord
280
     1
290
     1
  0
XRECORD
  5
1087
102
{ACAD_REACTORS
330
1086
102
}
330
1086
100
AcDbXrecord
280
     1
290
     1
  0
XRECORD
  5
1089
102
{ACAD_REACTORS
330
1088
102
}
330
1088
100
AcDbXrecord
280
     1
290
     1
  0
XRECORD
  5
108B
102
{ACAD_REACTORS
330
108A
102
}
330
108A
100
AcDbXrecord
280
     1
290
     1
  0
XRECORD
  5
108D
102
{ACAD_REACTORS
330
108C
102
}
330
108C
100
AcDbXrecord
280
     1
290
     1
  0
XRECORD
  5
108F
102
{ACAD_REACTORS
330
108E
102
}
330
108E
100
AcDbXrecord
280
     1
290
     1
  0
XRECORD
  5
1091
102
{ACAD_REACTORS
330
1090
102
}
330
1090
100
AcDbXrecord
280
     1
290
     1
  0
XRECORD
  5
1093
102
{ACAD_REACTORS
330
1092
102
}
330
1092
100
AcDbXrecord
280
     1
290
     1
  0
XRECORD
  5
1095
102
{ACAD_REACTORS
330
1094
102
}
330
1094
100
AcDbXrecord
280
     1
290
     1
  0
XRECORD
  5
1097
102
{ACAD_REACTORS
330
1096
102
}
330
1096
100
AcDbXrecord
280
     1
290
     1
  0
XRECORD
  5
1099
102
{ACAD_REACTORS
330
1098
102
}
330
1098
100
AcDbXrecord
280
     1
290
     1
  0
XRECORD
  5
109B
102
{ACAD_REACTORS
330
109A
102
}
330
109A
100
AcDbXrecord
280
     1
290
     1
  0
XRECORD
  5
109D
102
{ACAD_REACTORS
330
109C
102
}
330
109C
100
AcDbXrecord
280
     1
290
     1
  0
XRECORD
  5
109F
102
{ACAD_REACTORS
330
109E
102
}
330
109E
100
AcDbXrecord
280
     1
290
     1
  0
XRECORD
  5
10A1
102
{ACAD_REACTORS
330
10A0
102
}
330
10A0
100
AcDbXrecord
280
     1
290
     1
  0
XRECORD
  5
10A3
102
{ACAD_REACTORS
330
10A2
102
}
330
10A2
100
AcDbXrecord
280
     1
290
     1
  0
XRECORD
  5
10A5
102
{ACAD_REACTORS
330
10A4
102
}
330
10A4
100
AcDbXrecord
280
     1
290
     1
  0
LAYOUT
  5
1E
102
{ACAD_XDICTIONARY
360
10AF
102
}
102
{ACAD_REACTORS
330
1A
102
}
330
1A
100
AcDbPlotSettings
  1

  2
Ploter HP500
  4

  6

 40
0.0
 41
0.0
 42
0.0
 43
0.0
 44
0.0
 45
0.0
 46
0.0
 47
0.0
 48
0.0
 49
0.0
140
0.0
141
0.0
142
1.0
143
1.0
 70
   688
 72
     0
 73
     0
 74
     5
  7
monochrome.ctb
 75
    16
147
1.0
148
0.0
149
0.0
100
AcDbLayout
  1
Layout1
 70
     1
 71
     1
 10
0.0
 20
0.0
 11
420.0
 21
297.0
 12
0.0
 22
0.0
 32
0.0
 14
1.000000000000000E+20
 24
1.000000000000000E+20
 34
1.000000000000000E+20
 15
-1.000000000000000E+20
 25
-1.000000000000000E+20
 35
-1.000000000000000E+20
146
0.0
 13
0.0
 23
0.0
 33
0.0
 16
1.0
 26
0.0
 36
0.0
 17
0.0
 27
1.0
 37
0.0
 76
     0
330
1B
  0
LAYOUT
  5
26
102
{ACAD_XDICTIONARY
360
10B3
102
}
102
{ACAD_REACTORS
330
1A
102
}
330
1A
100
AcDbPlotSettings
  1

  2
Ploter HP500
  4

  6

 40
0.0
 41
0.0
 42
0.0
 43
0.0
 44
0.0
 45
0.0
 46
0.0
 47
0.0
 48
0.0
 49
0.0
140
0.0
141
0.0
142
1.0
143
1.0
 70
   688
 72
     0
 73
     0
 74
     5
  7
monochrome.ctb
 75
    16
147
1.0
148
0.0
149
0.0
100
AcDbLayout
  1
Layout2
 70
     1
 71
     2
 10
0.0
 20
0.0
 11
12.0
 21
9.0
 12
0.0
 22
0.0
 32
0.0
 14
0.0
 24
0.0
 34
0.0
 15
0.0
 25
0.0
 35
0.0
146
0.0
 13
0.0
 23
0.0
 33
0.0
 16
1.0
 26
0.0
 36
0.0
 17
0.0
 27
1.0
 37
0.0
 76
     0
330
23
  0
LAYOUT
  5
22
102
{ACAD_XDICTIONARY
360
10B1
102
}
102
{ACAD_REACTORS
330
1A
102
}
330
1A
100
AcDbPlotSettings
  1

  2
Ploter HP500
  4
User268
  6

 40
4.995333194732666
 41
16.97565841674804
 42
4.995330810546875
 43
16.97567749023437
 44
209.9733276367187
 45
296.9259948730469
 46
0.0
 47
0.0
 48
0.0
 49
0.0
140
0.0
141
0.0
142
1.0
143
1.0
 70
 11952
 72
     1
 73
     1
 74
     0
  7

 75
     0
147
1.0
148
-427.5957866592534
149
7.362384574453926
100
AcDbLayout
  1
Model
 70
     1
 71
     0
 10
0.0
 20
0.0
 11
12.0
 21
9.0
 12
0.0
 22
0.0
 32
0.0
 14
0.0
 24
0.0
 34
0.0
 15
0.0
 25
0.0
 35
0.0
146
0.0
 13
0.0
 23
0.0
 33
0.0
 16
1.0
 26
0.0
 36
0.0
 17
0.0
 27
1.0
 37
0.0
 76
     0
330
1F
331
1035
  0
MATERIAL
  5
1047
102
{ACAD_XDICTIONARY
360
1048
102
}
102
{ACAD_REACTORS
330
BA8
102
}
330
BA8
100
AcDbMaterial
  1
ByBlock
 72
     0
 43
0.0008202099737533
 43
0.0
 43
0.0
 43
0.0
 43
0.0
 43
0.0008202099737533
 43
0.0
 43
0.0
 43
0.0
 43
0.0
 43
1.0
 43
0.0
 43
0.0
 43
0.0
 43
0.0
 43
1.0
 77
     0
 47
0.0008202099737533
 47
0.0
 47
0.0
 47
0.0
 47
0.0
 47
0.0008202099737533
 47
0.0
 47
0.0
 47
0.0
 47
0.0
 47
1.0
 47
0.0
 47
0.0
 47
0.0
 47
0.0
 47
1.0
171
     0
 49
0.0008202099737533
 49
0.0
 49
0.0
 49
0.0
 49
0.0
 49
0.0008202099737533
 49
0.0
 49
0.0
 49
0.0
 49
0.0
 49
1.0
 49
0.0
 49
0.0
 49
0.0
 49
0.0
 49
1.0
175
     0
142
0.0008202099737533
142
0.0
142
0.0
142
0.0
142
0.0
142
0.0008202099737533
142
0.0
142
0.0
142
0.0
142
0.0
142
1.0
142
0.0
142
0.0
142
0.0
142
0.0
142
1.0
179
     0
144
0.0008202099737533
144
0.0
144
0.0
144
0.0
144
0.0
144
0.0008202099737533
144
0.0
144
0.0
144
0.0
144
0.0
144
1.0
144
0.0
144
0.0
144
0.0
144
0.0
144
1.0
147
0.0008202099737533
147
0.0
147
0.0
147
0.0
147
0.0
147
0.0008202099737533
147
0.0
147
0.0
147
0.0
147
0.0
147
1.0
147
0.0
147
0.0
147
0.0
147
0.0
147
1.0
  0
MATERIAL
  5
103F
102
{ACAD_XDICTIONARY
360
1040
102
}
102
{ACAD_REACTORS
330
BA8
102
}
330
BA8
100
AcDbMaterial
  1
ByLayer
 72
     0
 43
0.0008202099737533
 43
0.0
 43
0.0
 43
0.0
 43
0.0
 43
0.0008202099737533
 43
0.0
 43
0.0
 43
0.0
 43
0.0
 43
1.0
 43
0.0
 43
0.0
 43
0.0
 43
0.0
 43
1.0
 77
     0
 47
0.0008202099737533
 47
0.0
 47
0.0
 47
0.0
 47
0.0
 47
0.0008202099737533
 47
0.0
 47
0.0
 47
0.0
 47
0.0
 47
1.0
 47
0.0
 47
0.0
 47
0.0
 47
0.0
 47
1.0
171
     0
 49
0.0008202099737533
 49
0.0
 49
0.0
 49
0.0
 49
0.0
 49
0.0008202099737533
 49
0.0
 49
0.0
 49
0.0
 49
0.0
 49
1.0
 49
0.0
 49
0.0
 49
0.0
 49
0.0
 49
1.0
175
     0
142
0.0008202099737533
142
0.0
142
0.0
142
0.0
142
0.0
142
0.0008202099737533
142
0.0
142
0.0
142
0.0
142
0.0
142
1.0
142
0.0
142
0.0
142
0.0
142
0.0
142
1.0
179
     0
144
0.0008202099737533
144
0.0
144
0.0
144
0.0
144
0.0
144
0.0008202099737533
144
0.0
144
0.0
144
0.0
144
0.0
144
1.0
144
0.0
144
0.0
144
0.0
144
0.0
144
1.0
147
0.0008202099737533
147
0.0
147
0.0
147
0.0
147
0.0
147
0.0008202099737533
147
0.0
147
0.0
147
0.0
147
0.0
147
1.0
147
0.0
147
0.0
147
0.0
147
0.0
147
1.0
  0
MATERIAL
  5
104F
102
{ACAD_XDICTIONARY
360
1050
102
}
102
{ACAD_REACTORS
330
BA8
102
}
330
BA8
100
AcDbMaterial
  1
Global
 72
     0
 43
0.0008202099737533
 43
0.0
 43
0.0
 43
0.0
 43
0.0
 43
0.0008202099737533
 43
0.0
 43
0.0
 43
0.0
 43
0.0
 43
1.0
 43
0.0
 43
0.0
 43
0.0
 43
0.0
 43
1.0
 77
     0
 47
0.0008202099737533
 47
0.0
 47
0.0
 47
0.0
 47
0.0
 47
0.0008202099737533
 47
0.0
 47
0.0
 47
0.0
 47
0.0
 47
1.0
 47
0.0
 47
0.0
 47
0.0
 47
0.0
 47
1.0
171
     0
 49
0.0008202099737533
 49
0.0
 49
0.0
 49
0.0
 49
0.0
 49
0.0008202099737533
 49
0.0
 49
0.0
 49
0.0
 49
0.0
 49
1.0
 49
0.0
 49
0.0
 49
0.0
 49
0.0
 49
1.0
175
     0
142
0.0008202099737533
142
0.0
142
0.0
142
0.0
142
0.0
142
0.0008202099737533
142
0.0
142
0.0
142
0.0
142
0.0
142
1.0
142
0.0
142
0.0
142
0.0
142
0.0
142
1.0
179
     0
144
0.0008202099737533
144
0.0
144
0.0
144
0.0
144
0.0
144
0.0008202099737533
144
0.0
144
0.0
144
0.0
144
0.0
144
1.0
144
0.0
144
0.0
144
0.0
144
0.0
144
1.0
147
0.0008202099737533
147
0.0
147
0.0
147
0.0
147
0.0
147
0.0008202099737533
147
0.0
147
0.0
147
0.0
147
0.0
147
1.0
147
0.0
147
0.0
147
0.0
147
0.0
147
1.0
  0
MLEADERSTYLE
  5
107E
102
{ACAD_REACTORS
330
107D
102
}
330
107D
100
AcDbMLeaderStyle
170
     2
171
     1
172
     0
 90
        2
 40
0.0
 41
0.0
173
     1
 91
-1056964608
340
14
 92
       -2
290
     1
 42
2.0
291
     1
 43
0.36
  3
Standard
 44
4.0
300

342
11
174
     1
178
     6
175
     1
176
     0
 93
-1056964608
 45
4.0
292
     0
297
     0
 46
4.0
 94
-1056964608
 47
1.0
 49
1.0
140
1.0
293
     1
141
0.0
294
     1
177
     0
142
1.0
295
     0
296
     0
143
0.125
1001
ACAD_MLEADERVER
1070
     2
  0
MLINESTYLE
  5
18
102
{ACAD_REACTORS
330
17
102
}
330
17
100
AcDbMlineStyle
  2
STANDARD
 70
     0
  3

 62
   256
 51
90.0
 52
90.0
 71
     2
 49
0.5
 62
   256
  6
BYLAYER
 49
-0.5
 62
   256
  6
BYLAYER
  0
ACDBPLACEHOLDER
  5
F
102
{ACAD_REACTORS
330
E
102
}
330
E
  0
SCALE
  5
106C
102
{ACAD_REACTORS
330
106B
102
}
330
106B
100
AcDbScale
 70
     0
300
1:1
140
1.0
141
1.0
290
     1
  0
SCALE
  5
106D
102
{ACAD_REACTORS
330
106B
102
}
330
106B
100
AcDbScale
 70
     0
300
1:2
140
1.0
141
2.0
290
     0
  0
SCALE
  5
106E
102
{ACAD_REACTORS
330
106B
102
}
330
106B
100
AcDbScale
 70
     0
300
1:4
140
1.0
141
4.0
290
     0
  0
SCALE
  5
106F
102
{ACAD_REACTORS
330
106B
102
}
330
106B
100
AcDbScale
 70
     0
300
1:5
140
1.0
141
5.0
290
     0
  0
SCALE
  5
1070
102
{ACAD_REACTORS
330
106B
102
}
330
106B
100
AcDbScale
 70
     0
300
1:8
140
1.0
141
8.0
290
     0
  0
SCALE
  5
1071
102
{ACAD_REACTORS
330
106B
102
}
330
106B
100
AcDbScale
 70
     0
300
1:10
140
1.0
141
10.0
290
     0
  0
SCALE
  5
1072
102
{ACAD_REACTORS
330
106B
102
}
330
106B
100
AcDbScale
 70
     0
300
1:16
140
1.0
141
16.0
290
     0
  0
SCALE
  5
1073
102
{ACAD_REACTORS
330
106B
102
}
330
106B
100
AcDbScale
 70
     0
300
1:20
140
1.0
141
20.0
290
     0
  0
SCALE
  5
1074
102
{ACAD_REACTORS
330
106B
102
}
330
106B
100
AcDbScale
 70
     0
300
1:30
140
1.0
141
30.0
290
     0
  0
SCALE
  5
1075
102
{ACAD_REACTORS
330
106B
102
}
330
106B
100
AcDbScale
 70
     0
300
1:40
140
1.0
141
40.0
290
     0
  0
SCALE
  5
1076
102
{ACAD_REACTORS
330
106B
102
}
330
106B
100
AcDbScale
 70
     0
300
1:50
140
1.0
141
50.0
290
     0
  0
SCALE
  5
1077
102
{ACAD_REACTORS
330
106B
102
}
330
106B
100
AcDbScale
 70
     0
300
1:100
140
1.0
141
100.0
290
     0
  0
SCALE
  5
1078
102
{ACAD_REACTORS
330
106B
102
}
330
106B
100
AcDbScale
 70
     0
300
2:1
140
2.0
141
1.0
290
     0
  0
SCALE
  5
1079
102
{ACAD_REACTORS
330
106B
102
}
330
106B
100
AcDbScale
 70
     0
300
4:1
140
4.0
141
1.0
290
     0
  0
SCALE
  5
107A
102
{ACAD_REACTORS
330
106B
102
}
330
106B
100
AcDbScale
 70
     0
300
8:1
140
8.0
141
1.0
290
     0
  0
SCALE
  5
107B
102
{ACAD_REACTORS
330
106B
102
}
330
106B
100
AcDbScale
 70
     0
300
10:1
140
10.0
141
1.0
290
     0
  0
SCALE
  5
107C
102
{ACAD_REACTORS
330
106B
102
}
330
106B
100
AcDbScale
 70
     0
300
100:1
140
100.0
141
1.0
290
     0
  0
TABLESTYLE
  5
BAB
102
{ACAD_XDICTIONARY
360
10AB
102
}
102
{ACAD_REACTORS
330
BAA
102
}
330
BAA
100
AcDbTableStyle
  3
Standard
 70
     0
 71
     0
 40
1.5
 41
1.5
280
     0
281
     0
  7
Standard
140
4.5
170
     2
 62
     0
 63
     7
283
     0
274
    -2
284
     1
 64
     0
275
    -2
285
     1
 65
     0
276
    -2
286
     1
 66
     0
277
    -2
287
     1
 67
     0
278
    -2
288
     1
 68
     0
279
    -2
289
     1
 69
     0
  7
Standard
140
6.0
170
     5
 62
     0
 63
     7
283
     0
274
    -2
284
     1
 64
     0
275
    -2
285
     1
 65
     0
276
    -2
286
     1
 66
     0
277
    -2
287
     1
 67
     0
278
    -2
288
     1
 68
     0
279
    -2
289
     1
 69
     0
  7
Standard
140
4.5
170
     5
 62
     0
 63
     7
283
     0
274
    -2
284
     1
 64
     0
275
    -2
285
     1
 65
     0
276
    -2
286
     1
 66
     0
277
    -2
287
     1
 67
     0
278
    -2
288
     1
 68
     0
279
    -2
289
     1
 69
     0
  0
VISUALSTYLE
  5
105D
102
{ACAD_XDICTIONARY
360
10CF
102
}
102
{ACAD_REACTORS
330
1057
102
}
330
1057
100
AcDbVisualStyle
  2
2dWireframe
 70
     4
 71
     0
 72
     2
 73
     0
 90
        0
 40
-0.6
 41
-30.0
 62
     5
 63
     7
 74
     1
 91
        4
 64
     7
 65
   257
 75
     1
175
     1
 42
1.0
 92
        0
 66
   257
 43
1.0
 76
     1
 77
     6
 78
     2
 67
     7
 79
     5
170
     0
171
     0
290
     0
174
     0
 93
        1
 44
0.0
173
     0
291
     0
 45
0.0
1001
ACAD
1000
AcDbSavedByObjectVersion
1070
     0
  0
VISUALSTYLE
  5
105F
102
{ACAD_XDICTIONARY
360
10D3
102
}
102
{ACAD_REACTORS
330
1057
102
}
330
1057
100
AcDbVisualStyle
  2
3D Hidden
 70
     6
 71
     1
 72
     2
 73
     2
 90
        0
 40
-0.6
 41
-30.0
 62
     5
 63
     7
 74
     2
 91
        2
 64
     7
 65
   257
 75
     2
175
     1
 42
179.0
 92
        0
 66
   257
 43
1.0
 76
     1
 77
     6
 78
     2
 67
     7
 79
     3
170
     0
171
     0
290
     0
174
     0
 93
        1
 44
0.0
173
     0
291
     0
 45
0.0
1001
ACAD
1000
AcDbSavedByObjectVersion
1070
     0
  0
VISUALSTYLE
  5
105E
102
{ACAD_XDICTIONARY
360
10D1
102
}
102
{ACAD_REACTORS
330
1057
102
}
330
1057
100
AcDbVisualStyle
  2
3dWireframe
 70
     5
 71
     0
 72
     2
 73
     0
 90
        0
 40
-0.6
 41
-30.0
 62
     5
 63
     7
 74
     1
 91
        4
 64
     7
 65
   257
 75
     1
175
     1
 42
1.0
 92
        0
 66
   257
 43
1.0
 76
     1
 77
     6
 78
     2
 67
     7
 79
     5
170
     0
171
     0
290
     0
174
     0
 93
        1
 44
0.0
173
     0
291
     0
 45
0.0
1001
ACAD
1000
AcDbSavedByObjectVersion
1070
     0
  0
VISUALSTYLE
  5
105C
102
{ACAD_XDICTIONARY
360
10CD
102
}
102
{ACAD_REACTORS
330
1057
102
}
330
1057
100
AcDbVisualStyle
  2
Basic
 70
     7
 71
     1
 72
     0
 73
     1
 90
        0
 40
-0.6
 41
-30.0
 62
     5
 63
     7
 74
     0
 91
        4
 64
     7
 65
   257
 75
     1
175
     1
 42
1.0
 92
        8
 66
     7
 43
1.0
 76
     1
 77
     6
 78
     2
 67
     7
 79
     5
170
     0
171
     0
290
     0
174
     0
 93
        1
 44
0.0
173
     0
291
     1
 45
0.0
1001
ACAD
1000
AcDbSavedByObjectVersion
1070
     0
  0
VISUALSTYLE
  5
1063
102
{ACAD_XDICTIONARY
360
10DB
102
}
102
{ACAD_REACTORS
330
1057
102
}
330
1057
100
AcDbVisualStyle
  2
Brighten
 70
    12
 71
     2
 72
     2
 73
     0
 90
        0
 40
-0.6
 41
-30.0
 62
     5
 63
     7
 74
     1
 91
        4
 64
     7
 65
   257
 75
     1
175
     1
 42
1.0
 92
        8
 66
     7
 43
1.0
 76
     1
 77
     6
 78
     2
 67
     7
 79
     5
170
     0
171
     0
290
     0
174
     0
 93
        1
 44
50.0
173
     0
291
     1
 45
0.0
1001
ACAD
1000
AcDbSavedByObjectVersion
1070
     0
  0
VISUALSTYLE
  5
1067
102
{ACAD_XDICTIONARY
360
10E3
102
}
102
{ACAD_REACTORS
330
1057
102
}
330
1057
100
AcDbVisualStyle
  2
ColorChange
 70
    16
 71
     2
 72
     2
 73
     3
 90
        0
 40
-0.6
 41
-30.0
 62
     5
 63
     8
 74
     1
 91
        4
 64
     7
 65
   257
 75
     1
175
     1
 42
1.0
 92
        8
 66
     8
 43
1.0
 76
     1
 77
     6
 78
     2
 67
     7
 79
     5
170
     0
171
     0
290
     0
174
     0
 93
        1
 44
0.0
173
     0
291
     1
 45
0.0
1001
ACAD
1000
AcDbSavedByObjectVersion
1070
     0
  0
VISUALSTYLE
  5
1060
102
{ACAD_XDICTIONARY
360
10D5
102
}
102
{ACAD_REACTORS
330
1057
102
}
330
1057
100
AcDbVisualStyle
  2
Conceptual
 70
     9
 71
     3
 72
     2
 73
     0
 90
        0
 40
-0.6
 41
-30.0
 62
     5
 63
     7
 74
     2
 91
        2
 64
     7
 65
   257
 75
     1
175
     1
 42
179.0
 92
        8
 66
     7
 43
1.0
 76
     1
 77
     6
 78
     2
 67
     7
 79
     3
170
     0
171
     0
290
     0
174
     0
 93
        1
 44
0.0
173
     0
291
     0
 45
0.0
1001
ACAD
1000
AcDbSavedByObjectVersion
1070
     0
  0
VISUALSTYLE
  5
1062
102
{ACAD_XDICTIONARY
360
10D9
102
}
102
{ACAD_REACTORS
330
1057
102
}
330
1057
100
AcDbVisualStyle
  2
Dim
 70
    11
 71
     2
 72
     2
 73
     0
 90
        0
 40
-0.6
 41
-30.0
 62
     5
 63
     7
 74
     1
 91
        4
 64
     7
 65
   257
 75
     1
175
     1
 42
1.0
 92
        8
 66
     7
 43
1.0
 76
     1
 77
     6
 78
     2
 67
     7
 79
     5
170
     0
171
     0
290
     0
174
     0
 93
        1
 44
-50.0
173
     0
291
     1
 45
0.0
1001
ACAD
1000
AcDbSavedByObjectVersion
1070
     0
  0
VISUALSTYLE
  5
106A
102
{ACAD_XDICTIONARY
360
10E9
102
}
102
{ACAD_REACTORS
330
1057
102
}
330
1057
100
AcDbVisualStyle
  2
EdgeColorOff
 70
    22
 71
     2
 72
     2
 73
     0
 90
        0
 40
-0.6
 41
-30.0
 62
     5
 63
     7
 74
     1
 91
        4
 64
     7
 65
   257
 75
     1
175
     1
 42
1.0
 92
        8
 66
     7
 43
1.0
 76
     1
 77
     6
 78
     2
 67
     7
 79
     5
170
     0
171
     0
290
     0
174
     0
 93
        1
 44
0.0
173
     0
291
     1
 45
0.0
1001
ACAD
1000
AcDbSavedByObjectVersion
1070
     0
  0
VISUALSTYLE
  5
1066
102
{ACAD_XDICTIONARY
360
10E1
102
}
102
{ACAD_REACTORS
330
1057
102
}
330
1057
100
AcDbVisualStyle
  2
Facepattern
 70
    15
 71
     2
 72
     2
 73
     0
 90
        0
 40
-0.6
 41
-30.0
 62
     5
 63
     7
 74
     1
 91
        4
 64
     7
 65
   257
 75
     1
175
     1
 42
1.0
 92
        8
 66
     7
 43
1.0
 76
     1
 77
     6
 78
     2
 67
     7
 79
     5
170
     0
171
     0
290
     0
174
     0
 93
        1
 44
0.0
173
     0
291
     1
 45
0.0
1001
ACAD
1000
AcDbSavedByObjectVersion
1070
     0
  0
VISUALSTYLE
  5
1058
102
{ACAD_XDICTIONARY
360
10C5
102
}
102
{ACAD_REACTORS
330
1057
102
}
330
1057
100
AcDbVisualStyle
  2
Flat
 70
     0
 71
     2
 72
     1
 73
     1
 90
        2
 40
-0.6
 41
30.0
 62
     5
 63
     7
 74
     0
 91
        4
 64
     7
 65
   257
 75
     1
175
     1
 42
1.0
 92
        8
 66
     7
 43
1.0
 76
     1
 77
     6
 78
     2
 67
     7
 79
     5
170
     0
171
     0
290
     0
174
     0
 93
       13
 44
0.0
173
     0
291
     1
 45
0.0
1001
ACAD
1000
AcDbSavedByObjectVersion
1070
     0
  0
VISUALSTYLE
  5
1059
102
{ACAD_XDICTIONARY
360
10C7
102
}
102
{ACAD_REACTORS
330
1057
102
}
330
1057
100
AcDbVisualStyle
  2
FlatWithEdges
 70
     1
 71
     2
 72
     1
 73
     1
 90
        2
 40
-0.6
 41
30.0
 62
     5
 63
     7
 74
     1
 91
        4
 64
     7
 65
   257
 75
     1
175
     1
 42
1.0
 92
        0
 66
   257
 43
1.0
 76
     1
 77
     6
 78
     2
 67
     7
 79
     5
170
     0
171
     0
290
     0
174
     0
 93
       13
 44
0.0
173
     0
291
     1
 45
0.0
1001
ACAD
1000
AcDbSavedByObjectVersion
1070
     0
  0
VISUALSTYLE
  5
105A
102
{ACAD_XDICTIONARY
360
10C9
102
}
102
{ACAD_REACTORS
330
1057
102
}
330
1057
100
AcDbVisualStyle
  2
Gouraud
 70
     2
 71
     2
 72
     2
 73
     1
 90
        2
 40
-0.6
 41
30.0
 62
     5
 63
     7
 74
     0
 91
        4
 64
     7
 65
   257
 75
     1
175
     1
 42
1.0
 92
        0
 66
     7
 43
1.0
 76
     1
 77
     6
 78
     2
 67
     7
 79
     5
170
     0
171
     0
290
     0
174
     0
 93
       13
 44
0.0
173
     0
291
     1
 45
0.0
1001
ACAD
1000
AcDbSavedByObjectVersion
1070
     0
  0
VISUALSTYLE
  5
105B
102
{ACAD_XDICTIONARY
360
10CB
102
}
102
{ACAD_REACTORS
330
1057
102
}
330
1057
100
AcDbVisualStyle
  2
GouraudWithEdges
 70
     3
 71
     2
 72
     2
 73
     1
 90
        2
 40
-0.6
 41
30.0
 62
     5
 63
     7
 74
     1
 91
        4
 64
     7
 65
   257
 75
     1
175
     1
 42
1.0
 92
        0
 66
   257
 43
1.0
 76
     1
 77
     6
 78
     2
 67
     7
 79
     5
170
     0
171
     0
290
     0
174
     0
 93
       13
 44
0.0
173
     0
291
     1
 45
0.0
1001
ACAD
1000
AcDbSavedByObjectVersion
1070
     0
  0
VISUALSTYLE
  5
1068
102
{ACAD_XDICTIONARY
360
10E5
102
}
102
{ACAD_REACTORS
330
1057
102
}
330
1057
100
AcDbVisualStyle
  2
JitterOff
 70
    20
 71
     2
 72
     2
 73
     0
 90
        0
 40
-0.6
 41
-30.0
 62
     5
 63
     7
 74
     1
 91
        4
 64
     7
 65
   257
 75
     1
175
     1
 42
1.0
 92
       10
 66
     7
 43
1.0
 76
     1
 77
     6
 78
     2
 67
     7
 79
     5
170
     0
171
     0
290
     0
174
     0
 93
        1
 44
0.0
173
     0
291
     1
 45
0.0
1001
ACAD
1000
AcDbSavedByObjectVersion
1070
     0
  0
VISUALSTYLE
  5
1065
102
{ACAD_XDICTIONARY
360
10DF
102
}
102
{ACAD_REACTORS
330
1057
102
}
330
1057
100
AcDbVisualStyle
  2
Linepattern
 70
    14
 71
     2
 72
     2
 73
     0
 90
        0
 40
-0.6
 41
-30.0
 62
     5
 63
     7
 74
     1
 91
        4
 64
     7
 65
   257
 75
     7
175
     7
 42
1.0
 92
        8
 66
     7
 43
1.0
 76
     1
 77
     6
 78
     2
 67
     7
 79
     5
170
     0
171
     0
290
     0
174
     0
 93
        1
 44
0.0
173
     0
291
     1
 45
0.0
1001
ACAD
1000
AcDbSavedByObjectVersion
1070
     0
  0
VISUALSTYLE
  5
1069
102
{ACAD_XDICTIONARY
360
10E7
102
}
102
{ACAD_REACTORS
330
1057
102
}
330
1057
100
AcDbVisualStyle
  2
OverhangOff
 70
    21
 71
     2
 72
     2
 73
     0
 90
        0
 40
-0.6
 41
-30.0
 62
     5
 63
     7
 74
     1
 91
        4
 64
     7
 65
   257
 75
     1
175
     1
 42
1.0
 92
        9
 66
     7
 43
1.0
 76
     1
 77
     6
 78
     2
 67
     7
 79
     5
170
     0
171
     0
290
     0
174
     0
 93
        1
 44
0.0
173
     0
291
     1
 45
0.0
1001
ACAD
1000
AcDbSavedByObjectVersion
1070
     0
  0
VISUALSTYLE
  5
1061
102
{ACAD_XDICTIONARY
360
10D7
102
}
102
{ACAD_REACTORS
330
1057
102
}
330
1057
100
AcDbVisualStyle
  2
Realistic
 70
     8
 71
     2
 72
     2
 73
     0
 90
        0
 40
-0.6
 41
-30.0
 62
     5
 63
     7
 74
     1
 91
        0
 64
     7
 65
   257
 75
     1
175
     1
 42
1.0
 92
        8
 66
     8
 43
1.0
 76
     1
 77
     6
 78
     2
 67
     7
 79
     5
170
     0
171
     0
290
     0
174
     0
 93
       13
 44
0.0
173
     0
291
     0
 45
0.0
1001
ACAD
1000
AcDbSavedByObjectVersion
1070
     0
  0
VISUALSTYLE
  5
1064
102
{ACAD_XDICTIONARY
360
10DD
102
}
102
{ACAD_REACTORS
330
1057
102
}
330
1057
100
AcDbVisualStyle
  2
Thicken
 70
    13
 71
     2
 72
     2
 73
     0
 90
        0
 40
-0.6
 41
-30.0
 62
     5
 63
     7
 74
     1
 91
        4
 64
     7
 65
   257
 75
     1
175
     1
 42
1.0
 92
       12
 66
     7
 43
1.0
 76
     1
 77
     6
 78
     2
 67
     7
 79
     5
170
     0
171
     0
290
     0
174
     0
 93
        1
 44
0.0
173
     0
291
     1
 45
0.0
1001
ACAD
1000
AcDbSavedByObjectVersion
1070
     0
  0
DICTIONARYVAR
  5
10A7
102
{ACAD_REACTORS
330
3D
102
}
330
3D
100
DictionaryVariables
280
     0
  1
1:1
  0
DICTIONARYVAR
  5
10A6
102
{ACAD_REACTORS
330
3D
102
}
330
3D
100
DictionaryVariables
280
     0
  1
STANDARD
  0
DICTIONARYVAR
  5
1034
102
{ACAD_REACTORS
330
3D
102
}
330
3D
100
DictionaryVariables
280
     0
  1
STANDARD
  0
DICTIONARYVAR
  5
3F
102
{ACAD_REACTORS
330
3D
102
}
330
3D
100
DictionaryVariables
280
     0
  1
2
  0
DICTIONARYVAR
  5
3E
102
{ACAD_REACTORS
330
3D
102
}
330
3D
100
DictionaryVariables
280
     0
  1
1
  0
DICTIONARYVAR
  5
10A9
102
{ACAD_REACTORS
330
3D
102
}
330
3D
100
DictionaryVariables
280
     0
  1
0
  0
DICTIONARYVAR
  5
103D
102
{ACAD_REACTORS
330
3D
102
}
330
3D
100
DictionaryVariables
280
     0
  1

  0
DICTIONARYVAR
  5
10A8
102
{ACAD_REACTORS
330
3D
102
}
330
3D
100
DictionaryVariables
280
     0
  1
127
  0
DICTIONARYVAR
  5
10AA
102
{ACAD_REACTORS
330
3D
102
}
330
3D
100
DictionaryVariables
280
     0
  1
2
  0
XRECORD
  5
1032
102
{ACAD_REACTORS
330
1031
102
}
330
1031
100
AcDbXrecord
280
     1
  0
DICTIONARY
  5
10AF
330
1E
100
AcDbDictionary
280
     1
281
     1
  3
ACAD_XREC_ROUNDTRIP
360
10B0
  0
DICTIONARY
  5
10B3
330
26
100
AcDbDictionary
280
     1
281
     1
  3
ACAD_XREC_ROUNDTRIP
360
10B4
  0
DICTIONARY
  5
10B1
330
22
100
AcDbDictionary
280
     1
281
     1
  3
ACAD_XREC_ROUNDTRIP
360
10B2
  0
DICTIONARY
  5
1048
330
1047
100
AcDbDictionary
280
     1
281
     1
  3
ACAD_XREC_ROUNDTRIP
360
10C3
  3
BUMPTILE
360
104A
  3
DIFFUSETILE
360
1049
  3
OPACITYTILE
360
104D
  3
REFLECTIONTILE
360
104C
  3
REFRACTIONTILE
360
104E
  3
SPECULARTILE
360
104B
  0
DICTIONARY
  5
1040
330
103F
100
AcDbDictionary
280
     1
281
     1
  3
ACAD_XREC_ROUNDTRIP
360
10C2
  3
BUMPTILE
360
1042
  3
DIFFUSETILE
360
1041
  3
OPACITYTILE
360
1045
  3
REFLECTIONTILE
360
1044
  3
REFRACTIONTILE
360
1046
  3
SPECULARTILE
360
1043
  0
DICTIONARY
  5
1050
330
104F
100
AcDbDictionary
280
     1
281
     1
  3
ACAD_XREC_ROUNDTRIP
360
10C4
  3
BUMPTILE
360
1052
  3
DIFFUSETILE
360
1051
  3
OPACITYTILE
360
1055
  3
REFLECTIONTILE
360
1054
  3
REFRACTIONTILE
360
1056
  3
SPECULARTILE
360
1053
  0
DICTIONARY
  5
10AB
330
BAB
100
AcDbDictionary
280
     1
281
     1
  3
ACAD_ROUNDTRIP_2008_TABLESTYLE_CELLSTYLEMAP
360
10AC
  3
ACAD_XREC_ROUNDTRIP
360
10B5
  0
DICTIONARY
  5
10CF
330
105D
100
AcDbDictionary
280
     1
281
     1
  3
ACAD_XREC_ROUNDTRIP
360
10D0
  0
DICTIONARY
  5
10D3
330
105F
100
AcDbDictionary
280
     1
281
     1
  3
ACAD_XREC_ROUNDTRIP
360
10D4
  0
DICTIONARY
  5
10D1
330
105E
100
AcDbDictionary
280
     1
281
     1
  3
ACAD_XREC_ROUNDTRIP
360
10D2
  0
DICTIONARY
  5
10CD
330
105C
100
AcDbDictionary
280
     1
281
     1
  3
ACAD_XREC_ROUNDTRIP
360
10CE
  0
DICTIONARY
  5
10DB
330
1063
100
AcDbDictionary
280
     1
281
     1
  3
ACAD_XREC_ROUNDTRIP
360
10DC
  0
DICTIONARY
  5
10E3
330
1067
100
AcDbDictionary
280
     1
281
     1
  3
ACAD_XREC_ROUNDTRIP
360
10E4
  0
DICTIONARY
  5
10D5
330
1060
100
AcDbDictionary
280
     1
281
     1
  3
ACAD_XREC_ROUNDTRIP
360
10D6
  0
DICTIONARY
  5
10D9
330
1062
100
AcDbDictionary
280
     1
281
     1
  3
ACAD_XREC_ROUNDTRIP
360
10DA
  0
DICTIONARY
  5
10E9
330
106A
100
AcDbDictionary
280
     1
281
     1
  3
ACAD_XREC_ROUNDTRIP
360
10EA
  0
DICTIONARY
  5
10E1
330
1066
100
AcDbDictionary
280
     1
281
     1
  3
ACAD_XREC_ROUNDTRIP
360
10E2
  0
DICTIONARY
  5
10C5
330
1058
100
AcDbDictionary
280
     1
281
     1
  3
ACAD_XREC_ROUNDTRIP
360
10C6
  0
DICTIONARY
  5
10C7
330
1059
100
AcDbDictionary
280
     1
281
     1
  3
ACAD_XREC_ROUNDTRIP
360
10C8
  0
DICTIONARY
  5
10C9
330
105A
100
AcDbDictionary
280
     1
281
     1
  3
ACAD_XREC_ROUNDTRIP
360
10CA
  0
DICTIONARY
  5
10CB
330
105B
100
AcDbDictionary
280
     1
281
     1
  3
ACAD_XREC_ROUNDTRIP
360
10CC
  0
DICTIONARY
  5
10E5
330
1068
100
AcDbDictionary
280
     1
281
     1
  3
ACAD_XREC_ROUNDTRIP
360
10E6
  0
DICTIONARY
  5
10DF
330
1065
100
AcDbDictionary
280
     1
281
     1
  3
ACAD_XREC_ROUNDTRIP
360
10E0
  0
DICTIONARY
  5
10E7
330
1069
100
AcDbDictionary
280
     1
281
     1
  3
ACAD_XREC_ROUNDTRIP
360
10E8
  0
DICTIONARY
  5
10D7
330
1061
100
AcDbDictionary
280
     1
281
     1
  3
ACAD_XREC_ROUNDTRIP
360
10D8
  0
DICTIONARY
  5
10DD
330
1064
100
AcDbDictionary
280
     1
281
     1
  3
ACAD_XREC_ROUNDTRIP
360
10DE
  0
XRECORD
  5
10B0
102
{ACAD_REACTORS
330
10AF
102
}
330
10AF
100
AcDbXrecord
280
     1
102
SHADEPLOT
 70
     0
102
SHADEPLOTRESLEVEL
 70
     2
102
SHADEPLOTCUSTOMDPI
 70
   300
  0
XRECORD
  5
10B4
102
{ACAD_REACTORS
330
10B3
102
}
330
10B3
100
AcDbXrecord
280
     1
102
SHADEPLOT
 70
     0
102
SHADEPLOTRESLEVEL
 70
     2
102
SHADEPLOTCUSTOMDPI
 70
   300
  0
XRECORD
  5
10B2
102
{ACAD_REACTORS
330
10B1
102
}
330
10B1
100
AcDbXrecord
280
     1
102
SHADEPLOT
 70
     0
102
SHADEPLOTRESLEVEL
 70
     2
102
SHADEPLOTCUSTOMDPI
 70
   300
  0
XRECORD
  5
10C3
102
{ACAD_REACTORS
330
1048
102
}
330
1048
100
AcDbXrecord
280
     1
102
MATERIAL
148
0.0
149
0.0
149
0.0
 93
        0
 94
      127
282
     0
 72
     0
 77
     0
171
     0
175
     0
179
     0
273
     0
  0
XRECORD
  5
104A
102
{ACAD_REACTORS
330
1048
102
}
330
1048
100
AcDbXrecord
280
     1
270
     1
271
     1
  0
XRECORD
  5
1049
102
{ACAD_REACTORS
330
1048
102
}
330
1048
100
AcDbXrecord
280
     1
270
     1
271
     1
  0
XRECORD
  5
104D
102
{ACAD_REACTORS
330
1048
102
}
330
1048
100
AcDbXrecord
280
     1
270
     1
271
     1
  0
XRECORD
  5
104C
102
{ACAD_REACTORS
330
1048
102
}
330
1048
100
AcDbXrecord
280
     1
270
     1
271
     1
  0
XRECORD
  5
104E
102
{ACAD_REACTORS
330
1048
102
}
330
1048
100
AcDbXrecord
280
     1
270
     1
271
     1
  0
XRECORD
  5
104B
102
{ACAD_REACTORS
330
1048
102
}
330
1048
100
AcDbXrecord
280
     1
270
     1
271
     1
  0
XRECORD
  5
10C2
102
{ACAD_REACTORS
330
1040
102
}
330
1040
100
AcDbXrecord
280
     1
102
MATERIAL
148
0.0
149
0.0
149
0.0
 93
        0
 94
      127
282
     0
 72
     0
 77
     0
171
     0
175
     0
179
     0
273
     0
  0
XRECORD
  5
1042
102
{ACAD_REACTORS
330
1040
102
}
330
1040
100
AcDbXrecord
280
     1
270
     1
271
     1
  0
XRECORD
  5
1041
102
{ACAD_REACTORS
330
1040
102
}
330
1040
100
AcDbXrecord
280
     1
270
     1
271
     1
  0
XRECORD
  5
1045
102
{ACAD_REACTORS
330
1040
102
}
330
1040
100
AcDbXrecord
280
     1
270
     1
271
     1
  0
XRECORD
  5
1044
102
{ACAD_REACTORS
330
1040
102
}
330
1040
100
AcDbXrecord
280
     1
270
     1
271
     1
  0
XRECORD
  5
1046
102
{ACAD_REACTORS
330
1040
102
}
330
1040
100
AcDbXrecord
280
     1
270
     1
271
     1
  0
XRECORD
  5
1043
102
{ACAD_REACTORS
330
1040
102
}
330
1040
100
AcDbXrecord
280
     1
270
     1
271
     1
  0
XRECORD
  5
10C4
102
{ACAD_REACTORS
330
1050
102
}
330
1050
100
AcDbXrecord
280
     1
102
MATERIAL
148
0.0
149
0.0
149
0.0
 93
        0
 94
      127
282
     0
 72
     0
 77
     0
171
     0
175
     0
179
     0
273
     0
  0
XRECORD
  5
1052
102
{ACAD_REACTORS
330
1050
102
}
330
1050
100
AcDbXrecord
280
     1
270
     1
271
     1
  0
XRECORD
  5
1051
102
{ACAD_REACTORS
330
1050
102
}
330
1050
100
AcDbXrecord
280
     1
270
     1
271
     1
  0
XRECORD
  5
1055
102
{ACAD_REACTORS
330
1050
102
}
330
1050
100
AcDbXrecord
280
     1
270
     1
271
     1
  0
XRECORD
  5
1054
102
{ACAD_REACTORS
330
1050
102
}
330
1050
100
AcDbXrecord
280
     1
270
     1
271
     1
  0
XRECORD
  5
1056
102
{ACAD_REACTORS
330
1050
102
}
330
1050
100
AcDbXrecord
280
     1
270
     1
271
     1
  0
XRECORD
  5
1053
102
{ACAD_REACTORS
330
1050
102
}
330
1050
100
AcDbXrecord
280
     1
270
     1
271
     1
  0
CELLSTYLEMAP
  5
10AC
102
{ACAD_REACTORS
330
10AB
102
}
330
10AB
100
AcDbCellStyleMap
 90
        3
300
CELLSTYLE
  1
TABLEFORMAT_BEGIN
 90
        5
170
     1
 91
        0
 92
    32768
 62
   257
 93
        1
300
CONTENTFORMAT
  1
CONTENTFORMAT_BEGIN
 90
        0
 91
        0
 92
        4
 93
        0
300

 40
0.0
140
1.0
 94
        5
 62
     0
340
11
144
6.0
309
CONTENTFORMAT_END
171
     1
301
MARGIN
  1
CELLMARGIN_BEGIN
 40
1.5
 40
1.5
 40
1.5
 40
1.5
 40
0.18
 40
0.18
309
CELLMARGIN_END
 94
        6
 95
        1
302
GRIDFORMAT
  1
GRIDFORMAT_BEGIN
 90
        0
 91
        1
 62
     0
 92
       -2
340
0
 93
        0
 40
0.045
309
GRIDFORMAT_END
 95
        2
302
GRIDFORMAT
  1
GRIDFORMAT_BEGIN
 90
        0
 91
        1
 62
     0
 92
       -2
340
0
 93
        0
 40
0.045
309
GRIDFORMAT_END
 95
        4
302
GRIDFORMAT
  1
GRIDFORMAT_BEGIN
 90
        0
 91
        1
 62
     0
 92
       -2
340
0
 93
        0
 40
0.045
309
GRIDFORMAT_END
 95
        8
302
GRIDFORMAT
  1
GRIDFORMAT_BEGIN
 90
        0
 91
        1
 62
     0
 92
       -2
340
0
 93
        0
 40
0.045
309
GRIDFORMAT_END
 95
       16
302
GRIDFORMAT
  1
GRIDFORMAT_BEGIN
 90
        0
 91
        1
 62
     0
 92
       -2
340
0
 93
        0
 40
0.045
309
GRIDFORMAT_END
 95
       32
302
GRIDFORMAT
  1
GRIDFORMAT_BEGIN
 90
        0
 91
        1
 62
     0
 92
       -2
340
0
 93
        0
 40
0.045
309
GRIDFORMAT_END
309
TABLEFORMAT_END
  1
CELLSTYLE_BEGIN
 90
        1
 91
        1
300
_TITLE
309
CELLSTYLE_END
300
CELLSTYLE
  1
TABLEFORMAT_BEGIN
 90
        5
170
     1
 91
        0
 92
        0
 62
   257
 93
        1
300
CONTENTFORMAT
  1
CONTENTFORMAT_BEGIN
 90
        0
 91
        0
 92
        4
 93
        0
300

 40
0.0
140
1.0
 94
        5
 62
     0
340
11
144
4.5
309
CONTENTFORMAT_END
171
     1
301
MARGIN
  1
CELLMARGIN_BEGIN
 40
1.5
 40
1.5
 40
1.5
 40
1.5
 40
0.18
 40
0.18
309
CELLMARGIN_END
 94
        6
 95
        1
302
GRIDFORMAT
  1
GRIDFORMAT_BEGIN
 90
        0
 91
        1
 62
     0
 92
       -2
340
0
 93
        0
 40
0.045
309
GRIDFORMAT_END
 95
        2
302
GRIDFORMAT
  1
GRIDFORMAT_BEGIN
 90
        0
 91
        1
 62
     0
 92
       -2
340
0
 93
        0
 40
0.045
309
GRIDFORMAT_END
 95
        4
302
GRIDFORMAT
  1
GRIDFORMAT_BEGIN
 90
        0
 91
        1
 62
     0
 92
       -2
340
0
 93
        0
 40
0.045
309
GRIDFORMAT_END
 95
        8
302
GRIDFORMAT
  1
GRIDFORMAT_BEGIN
 90
        0
 91
        1
 62
     0
 92
       -2
340
0
 93
        0
 40
0.045
309
GRIDFORMAT_END
 95
       16
302
GRIDFORMAT
  1
GRIDFORMAT_BEGIN
 90
        0
 91
        1
 62
     0
 92
       -2
340
0
 93
        0
 40
0.045
309
GRIDFORMAT_END
 95
       32
302
GRIDFORMAT
  1
GRIDFORMAT_BEGIN
 90
        0
 91
        1
 62
     0
 92
       -2
340
0
 93
        0
 40
0.045
309
GRIDFORMAT_END
309
TABLEFORMAT_END
  1
CELLSTYLE_BEGIN
 90
        2
 91
        1
300
_HEADER
309
CELLSTYLE_END
300
CELLSTYLE
  1
TABLEFORMAT_BEGIN
 90
        5
170
     1
 91
        0
 92
        0
 62
   257
 93
        1
300
CONTENTFORMAT
  1
CONTENTFORMAT_BEGIN
 90
        0
 91
        0
 92
        4
 93
        0
300

 40
0.0
140
1.0
 94
        2
 62
     0
340
11
144
4.5
309
CONTENTFORMAT_END
171
     1
301
MARGIN
  1
CELLMARGIN_BEGIN
 40
1.5
 40
1.5
 40
1.5
 40
1.5
 40
0.18
 40
0.18
309
CELLMARGIN_END
 94
        6
 95
        1
302
GRIDFORMAT
  1
GRIDFORMAT_BEGIN
 90
        0
 91
        1
 62
     0
 92
       -2
340
0
 93
        0
 40
0.045
309
GRIDFORMAT_END
 95
        2
302
GRIDFORMAT
  1
GRIDFORMAT_BEGIN
 90
        0
 91
        1
 62
     0
 92
       -2
340
0
 93
        0
 40
0.045
309
GRIDFORMAT_END
 95
        4
302
GRIDFORMAT
  1
GRIDFORMAT_BEGIN
 90
        0
 91
        1
 62
     0
 92
       -2
340
0
 93
        0
 40
0.045
309
GRIDFORMAT_END
 95
        8
302
GRIDFORMAT
  1
GRIDFORMAT_BEGIN
 90
        0
 91
        1
 62
     0
 92
       -2
340
0
 93
        0
 40
0.045
309
GRIDFORMAT_END
 95
       16
302
GRIDFORMAT
  1
GRIDFORMAT_BEGIN
 90
        0
 91
        1
 62
     0
 92
       -2
340
0
 93
        0
 40
0.045
309
GRIDFORMAT_END
 95
       32
302
GRIDFORMAT
  1
GRIDFORMAT_BEGIN
 90
        0
 91
        1
 62
     0
 92
       -2
340
0
 93
        0
 40
0.045
309
GRIDFORMAT_END
309
TABLEFORMAT_END
  1
CELLSTYLE_BEGIN
 90
        3
 91
        2
300
_DATA
309
CELLSTYLE_END
  0
XRECORD
  5
10B5
102
{ACAD_REACTORS
330
10AB
102
}
330
10AB
100
AcDbXrecord
280
     1
102
ACAD_ROUNDTRIP_PRE2007_TABLESTYLE
 90
        4
 91
        0
  1

 92
        4
 93
        0
  2

 94
        4
 95
        0
  3

  0
XRECORD
  5
10D0
102
{ACAD_REACTORS
330
10CF
102
}
330
10CF
100
AcDbXrecord
280
     1
102
RTVSPropertyOp0
 70
     1
102
RTVSPropertyOp1
 70
     1
102
RTVSPropertyOp2
 70
     1
102
RTVSPropertyOp3
 70
     1
102
RTVSPropertyOp4
 70
     1
102
RTVSPropertyOp5
 70
     1
102
RTVSPropertyOp6
 70
     1
102
RTVSPropertyOp7
 70
     1
102
RTVSPropertyOp8
 70
     1
102
RTVSPropertyOp9
 70
     1
102
RTVSPropertyOp10
 70
     1
102
RTVSPropertyOp11
 70
     1
102
RTVSPropertyOp12
 70
     1
102
RTVSPropertyOp13
 70
     1
102
RTVSPropertyOp14
 70
     1
102
RTVSPropertyOp15
 70
     1
102
RTVSPropertyOp16
 70
     1
102
RTVSPropertyOp17
 70
     1
102
RTVSPropertyOp18
 70
     1
102
RTVSPropertyOp19
 70
     1
102
RTVSPropertyOp20
 70
     1
102
RTVSPropertyOp21
 70
     1
102
RTVSPropertyOp22
 70
     1
102
RTVSPropertyOp23
 70
     1
102
RTVSPropertyOp24
 70
     1
102
RTVSPropertyOp25
 70
     1
102
RTVSPropertyOp26
 70
     1
102
RTVSPropertyOp27
 70
     1
  0
XRECORD
  5
10D4
102
{ACAD_REACTORS
330
10D3
102
}
330
10D3
100
AcDbXrecord
280
     1
102
RTVSPropertyOp0
 70
     1
102
RTVSPropertyOp1
 70
     1
102
RTVSPropertyOp2
 70
     1
102
RTVSPropertyOp3
 70
     1
102
RTVSPropertyOp4
 70
     1
102
RTVSPropertyOp5
 70
     1
102
RTVSPropertyOp6
 70
     1
102
RTVSPropertyOp7
 70
     1
102
RTVSPropertyOp8
 70
     1
102
RTVSPropertyOp9
 70
     1
102
RTVSPropertyOp10
 70
     1
102
RTVSPropertyOp11
 70
     1
102
RTVSPropertyOp12
 70
     1
102
RTVSPropertyOp13
 70
     1
102
RTVSPropertyOp14
 70
     1
102
RTVSPropertyOp15
 70
     1
102
RTVSPropertyOp16
 70
     1
102
RTVSPropertyOp17
 70
     1
102
RTVSPropertyOp18
 70
     1
102
RTVSPropertyOp19
 70
     1
102
RTVSPropertyOp20
 70
     1
102
RTVSPropertyOp21
 70
     1
102
RTVSPropertyOp22
 70
     1
102
RTVSPropertyOp23
 70
     1
102
RTVSPropertyOp24
 70
     1
102
RTVSPropertyOp25
 70
     1
102
RTVSPropertyOp26
 70
     1
102
RTVSPropertyOp27
 70
     1
  0
XRECORD
  5
10D2
102
{ACAD_REACTORS
330
10D1
102
}
330
10D1
100
AcDbXrecord
280
     1
102
RTVSPropertyOp0
 70
     1
102
RTVSPropertyOp1
 70
     1
102
RTVSPropertyOp2
 70
     1
102
RTVSPropertyOp3
 70
     1
102
RTVSPropertyOp4
 70
     1
102
RTVSPropertyOp5
 70
     1
102
RTVSPropertyOp6
 70
     1
102
RTVSPropertyOp7
 70
     1
102
RTVSPropertyOp8
 70
     1
102
RTVSPropertyOp9
 70
     1
102
RTVSPropertyOp10
 70
     1
102
RTVSPropertyOp11
 70
     1
102
RTVSPropertyOp12
 70
     1
102
RTVSPropertyOp13
 70
     1
102
RTVSPropertyOp14
 70
     1
102
RTVSPropertyOp15
 70
     1
102
RTVSPropertyOp16
 70
     1
102
RTVSPropertyOp17
 70
     1
102
RTVSPropertyOp18
 70
     1
102
RTVSPropertyOp19
 70
     1
102
RTVSPropertyOp20
 70
     1
102
RTVSPropertyOp21
 70
     1
102
RTVSPropertyOp22
 70
     1
102
RTVSPropertyOp23
 70
     1
102
RTVSPropertyOp24
 70
     1
102
RTVSPropertyOp25
 70
     1
102
RTVSPropertyOp26
 70
     1
102
RTVSPropertyOp27
 70
     1
  0
XRECORD
  5
10CE
102
{ACAD_REACTORS
330
10CD
102
}
330
10CD
100
AcDbXrecord
280
     1
102
RTVSPropertyOp0
 70
     1
102
RTVSPropertyOp1
 70
     1
102
RTVSPropertyOp2
 70
     1
102
RTVSPropertyOp3
 70
     1
102
RTVSPropertyOp4
 70
     1
102
RTVSPropertyOp5
 70
     1
102
RTVSPropertyOp6
 70
     1
102
RTVSPropertyOp7
 70
     1
102
RTVSPropertyOp8
 70
     1
102
RTVSPropertyOp9
 70
     1
102
RTVSPropertyOp10
 70
     1
102
RTVSPropertyOp11
 70
     1
102
RTVSPropertyOp12
 70
     1
102
RTVSPropertyOp13
 70
     1
102
RTVSPropertyOp14
 70
     1
102
RTVSPropertyOp15
 70
     1
102
RTVSPropertyOp16
 70
     1
102
RTVSPropertyOp17
 70
     1
102
RTVSPropertyOp18
 70
     1
102
RTVSPropertyOp19
 70
     1
102
RTVSPropertyOp20
 70
     1
102
RTVSPropertyOp21
 70
     1
102
RTVSPropertyOp22
 70
     1
102
RTVSPropertyOp23
 70
     1
102
RTVSPropertyOp24
 70
     1
102
RTVSPropertyOp25
 70
     1
102
RTVSPropertyOp26
 70
     1
102
RTVSPropertyOp27
 70
     1
  0
XRECORD
  5
10DC
102
{ACAD_REACTORS
330
10DB
102
}
330
10DB
100
AcDbXrecord
280
     1
102
RTVSPropertyOp0
 70
     1
102
RTVSPropertyOp1
 70
     1
102
RTVSPropertyOp2
 70
     1
102
RTVSPropertyOp3
 70
     1
102
RTVSPropertyOp4
 70
     1
102
RTVSPropertyOp5
 70
     1
102
RTVSPropertyOp6
 70
     1
102
RTVSPropertyOp7
 70
     1
102
RTVSPropertyOp8
 70
     1
102
RTVSPropertyOp9
 70
     1
102
RTVSPropertyOp10
 70
     1
102
RTVSPropertyOp11
 70
     1
102
RTVSPropertyOp12
 70
     1
102
RTVSPropertyOp13
 70
     1
102
RTVSPropertyOp14
 70
     1
102
RTVSPropertyOp15
 70
     1
102
RTVSPropertyOp16
 70
     1
102
RTVSPropertyOp17
 70
     1
102
RTVSPropertyOp18
 70
     1
102
RTVSPropertyOp19
 70
     1
102
RTVSPropertyOp20
 70
     1
102
RTVSPropertyOp21
 70
     1
102
RTVSPropertyOp22
 70
     1
102
RTVSPropertyOp23
 70
     1
102
RTVSPropertyOp24
 70
     1
102
RTVSPropertyOp25
 70
     1
102
RTVSPropertyOp26
 70
     1
102
RTVSPropertyOp27
 70
     1
  0
XRECORD
  5
10E4
102
{ACAD_REACTORS
330
10E3
102
}
330
10E3
100
AcDbXrecord
280
     1
102
RTVSPropertyOp0
 70
     1
102
RTVSPropertyOp1
 70
     1
102
RTVSPropertyOp2
 70
     1
102
RTVSPropertyOp3
 70
     1
102
RTVSPropertyOp4
 70
     1
102
RTVSPropertyOp5
 70
     1
102
RTVSPropertyOp6
 70
     1
102
RTVSPropertyOp7
 70
     1
102
RTVSPropertyOp8
 70
     1
102
RTVSPropertyOp9
 70
     1
102
RTVSPropertyOp10
 70
     1
102
RTVSPropertyOp11
 70
     1
102
RTVSPropertyOp12
 70
     1
102
RTVSPropertyOp13
 70
     1
102
RTVSPropertyOp14
 70
     1
102
RTVSPropertyOp15
 70
     1
102
RTVSPropertyOp16
 70
     1
102
RTVSPropertyOp17
 70
     1
102
RTVSPropertyOp18
 70
     1
102
RTVSPropertyOp19
 70
     1
102
RTVSPropertyOp20
 70
     1
102
RTVSPropertyOp21
 70
     1
102
RTVSPropertyOp22
 70
     1
102
RTVSPropertyOp23
 70
     1
102
RTVSPropertyOp24
 70
     1
102
RTVSPropertyOp25
 70
     1
102
RTVSPropertyOp26
 70
     1
102
RTVSPropertyOp27
 70
     1
  0
XRECORD
  5
10D6
102
{ACAD_REACTORS
330
10D5
102
}
330
10D5
100
AcDbXrecord
280
     1
102
RTVSPropertyOp0
 70
     1
102
RTVSPropertyOp1
 70
     1
102
RTVSPropertyOp2
 70
     1
102
RTVSPropertyOp3
 70
     1
102
RTVSPropertyOp4
 70
     1
102
RTVSPropertyOp5
 70
     1
102
RTVSPropertyOp6
 70
     1
102
RTVSPropertyOp7
 70
     1
102
RTVSPropertyOp8
 70
     1
102
RTVSPropertyOp9
 70
     1
102
RTVSPropertyOp10
 70
     1
102
RTVSPropertyOp11
 70
     1
102
RTVSPropertyOp12
 70
     1
102
RTVSPropertyOp13
 70
     1
102
RTVSPropertyOp14
 70
     1
102
RTVSPropertyOp15
 70
     1
102
RTVSPropertyOp16
 70
     1
102
RTVSPropertyOp17
 70
     1
102
RTVSPropertyOp18
 70
     1
102
RTVSPropertyOp19
 70
     1
102
RTVSPropertyOp20
 70
     1
102
RTVSPropertyOp21
 70
     1
102
RTVSPropertyOp22
 70
     1
102
RTVSPropertyOp23
 70
     1
102
RTVSPropertyOp24
 70
     1
102
RTVSPropertyOp25
 70
     1
102
RTVSPropertyOp26
 70
     1
102
RTVSPropertyOp27
 70
     1
  0
XRECORD
  5
10DA
102
{ACAD_REACTORS
330
10D9
102
}
330
10D9
100
AcDbXrecord
280
     1
102
RTVSPropertyOp0
 70
     1
102
RTVSPropertyOp1
 70
     1
102
RTVSPropertyOp2
 70
     1
102
RTVSPropertyOp3
 70
     1
102
RTVSPropertyOp4
 70
     1
102
RTVSPropertyOp5
 70
     1
102
RTVSPropertyOp6
 70
     1
102
RTVSPropertyOp7
 70
     1
102
RTVSPropertyOp8
 70
     1
102
RTVSPropertyOp9
 70
     1
102
RTVSPropertyOp10
 70
     1
102
RTVSPropertyOp11
 70
     1
102
RTVSPropertyOp12
 70
     1
102
RTVSPropertyOp13
 70
     1
102
RTVSPropertyOp14
 70
     1
102
RTVSPropertyOp15
 70
     1
102
RTVSPropertyOp16
 70
     1
102
RTVSPropertyOp17
 70
     1
102
RTVSPropertyOp18
 70
     1
102
RTVSPropertyOp19
 70
     1
102
RTVSPropertyOp20
 70
     1
102
RTVSPropertyOp21
 70
     1
102
RTVSPropertyOp22
 70
     1
102
RTVSPropertyOp23
 70
     1
102
RTVSPropertyOp24
 70
     1
102
RTVSPropertyOp25
 70
     1
102
RTVSPropertyOp26
 70
     1
102
RTVSPropertyOp27
 70
     1
  0
XRECORD
  5
10EA
102
{ACAD_REACTORS
330
10E9
102
}
330
10E9
100
AcDbXrecord
280
     1
102
RTVSPropertyOp0
 70
     0
102
RTVSPropertyOp1
 70
     0
102
RTVSPropertyOp2
 70
     0
102
RTVSPropertyOp3
 70
     0
102
RTVSPropertyOp4
 70
     0
102
RTVSPropertyOp5
 70
     0
102
RTVSPropertyOp6
 70
     0
102
RTVSPropertyOp7
 70
     0
102
RTVSPropertyOp8
 70
     0
102
RTVSPropertyOp9
 70
     0
102
RTVSPropertyOp10
 70
     0
102
RTVSPropertyOp11
 70
     0
102
RTVSPropertyOp12
 70
     0
102
RTVSPropertyOp13
 70
     0
102
RTVSPropertyOp14
 70
     2
102
RTVSPropertyOp15
 70
     0
102
RTVSPropertyOp16
 70
     0
102
RTVSPropertyOp17
 70
     0
102
RTVSPropertyOp18
 70
     0
102
RTVSPropertyOp19
 70
     0
102
RTVSPropertyOp20
 70
     0
102
RTVSPropertyOp21
 70
     0
102
RTVSPropertyOp22
 70
     0
102
RTVSPropertyOp23
 70
     0
102
RTVSPropertyOp24
 70
     0
102
RTVSPropertyOp25
 70
     0
102
RTVSPropertyOp26
 70
     0
102
RTVSPropertyOp27
 70
     0
  0
XRECORD
  5
10E2
102
{ACAD_REACTORS
330
10E1
102
}
330
10E1
100
AcDbXrecord
280
     1
102
RTVSPropertyOp0
 70
     1
102
RTVSPropertyOp1
 70
     1
102
RTVSPropertyOp2
 70
     1
102
RTVSPropertyOp3
 70
     1
102
RTVSPropertyOp4
 70
     1
102
RTVSPropertyOp5
 70
     1
102
RTVSPropertyOp6
 70
     1
102
RTVSPropertyOp7
 70
     1
102
RTVSPropertyOp8
 70
     1
102
RTVSPropertyOp9
 70
     1
102
RTVSPropertyOp10
 70
     1
102
RTVSPropertyOp11
 70
     1
102
RTVSPropertyOp12
 70
     1
102
RTVSPropertyOp13
 70
     1
102
RTVSPropertyOp14
 70
     1
102
RTVSPropertyOp15
 70
     1
102
RTVSPropertyOp16
 70
     1
102
RTVSPropertyOp17
 70
     1
102
RTVSPropertyOp18
 70
     1
102
RTVSPropertyOp19
 70
     1
102
RTVSPropertyOp20
 70
     1
102
RTVSPropertyOp21
 70
     1
102
RTVSPropertyOp22
 70
     1
102
RTVSPropertyOp23
 70
     1
102
RTVSPropertyOp24
 70
     1
102
RTVSPropertyOp25
 70
     1
102
RTVSPropertyOp26
 70
     1
102
RTVSPropertyOp27
 70
     1
  0
XRECORD
  5
10C6
102
{ACAD_REACTORS
330
10C5
102
}
330
10C5
100
AcDbXrecord
280
     1
102
RTVSPropertyOp0
 70
     1
102
RTVSPropertyOp1
 70
     1
102
RTVSPropertyOp2
 70
     1
102
RTVSPropertyOp3
 70
     1
102
RTVSPropertyOp4
 70
     1
102
RTVSPropertyOp5
 70
     1
102
RTVSPropertyOp6
 70
     1
102
RTVSPropertyOp7
 70
     1
102
RTVSPropertyOp8
 70
     1
102
RTVSPropertyOp9
 70
     1
102
RTVSPropertyOp10
 70
     1
102
RTVSPropertyOp11
 70
     1
102
RTVSPropertyOp12
 70
     1
102
RTVSPropertyOp13
 70
     1
102
RTVSPropertyOp14
 70
     1
102
RTVSPropertyOp15
 70
     1
102
RTVSPropertyOp16
 70
     1
102
RTVSPropertyOp17
 70
     1
102
RTVSPropertyOp18
 70
     1
102
RTVSPropertyOp19
 70
     1
102
RTVSPropertyOp20
 70
     1
102
RTVSPropertyOp21
 70
     1
102
RTVSPropertyOp22
 70
     1
102
RTVSPropertyOp23
 70
     1
102
RTVSPropertyOp24
 70
     1
102
RTVSPropertyOp25
 70
     1
102
RTVSPropertyOp26
 70
     1
102
RTVSPropertyOp27
 70
     1
  0
XRECORD
  5
10C8
102
{ACAD_REACTORS
330
10C7
102
}
330
10C7
100
AcDbXrecord
280
     1
102
RTVSPropertyOp0
 70
     1
102
RTVSPropertyOp1
 70
     1
102
RTVSPropertyOp2
 70
     1
102
RTVSPropertyOp3
 70
     1
102
RTVSPropertyOp4
 70
     1
102
RTVSPropertyOp5
 70
     1
102
RTVSPropertyOp6
 70
     1
102
RTVSPropertyOp7
 70
     1
102
RTVSPropertyOp8
 70
     1
102
RTVSPropertyOp9
 70
     1
102
RTVSPropertyOp10
 70
     1
102
RTVSPropertyOp11
 70
     1
102
RTVSPropertyOp12
 70
     1
102
RTVSPropertyOp13
 70
     1
102
RTVSPropertyOp14
 70
     1
102
RTVSPropertyOp15
 70
     1
102
RTVSPropertyOp16
 70
     1
102
RTVSPropertyOp17
 70
     1
102
RTVSPropertyOp18
 70
     1
102
RTVSPropertyOp19
 70
     1
102
RTVSPropertyOp20
 70
     1
102
RTVSPropertyOp21
 70
     1
102
RTVSPropertyOp22
 70
     1
102
RTVSPropertyOp23
 70
     1
102
RTVSPropertyOp24
 70
     1
102
RTVSPropertyOp25
 70
     1
102
RTVSPropertyOp26
 70
     1
102
RTVSPropertyOp27
 70
     1
  0
XRECORD
  5
10CA
102
{ACAD_REACTORS
330
10C9
102
}
330
10C9
100
AcDbXrecord
280
     1
102
RTVSPropertyOp0
 70
     1
102
RTVSPropertyOp1
 70
     1
102
RTVSPropertyOp2
 70
     1
102
RTVSPropertyOp3
 70
     1
102
RTVSPropertyOp4
 70
     1
102
RTVSPropertyOp5
 70
     1
102
RTVSPropertyOp6
 70
     1
102
RTVSPropertyOp7
 70
     1
102
RTVSPropertyOp8
 70
     1
102
RTVSPropertyOp9
 70
     1
102
RTVSPropertyOp10
 70
     1
102
RTVSPropertyOp11
 70
     1
102
RTVSPropertyOp12
 70
     1
102
RTVSPropertyOp13
 70
     1
102
RTVSPropertyOp14
 70
     1
102
RTVSPropertyOp15
 70
     1
102
RTVSPropertyOp16
 70
     1
102
RTVSPropertyOp17
 70
     1
102
RTVSPropertyOp18
 70
     1
102
RTVSPropertyOp19
 70
     1
102
RTVSPropertyOp20
 70
     1
102
RTVSPropertyOp21
 70
     1
102
RTVSPropertyOp22
 70
     1
102
RTVSPropertyOp23
 70
     1
102
RTVSPropertyOp24
 70
     1
102
RTVSPropertyOp25
 70
     1
102
RTVSPropertyOp26
 70
     1
102
RTVSPropertyOp27
 70
     1
  0
XRECORD
  5
10CC
102
{ACAD_REACTORS
330
10CB
102
}
330
10CB
100
AcDbXrecord
280
     1
102
RTVSPropertyOp0
 70
     1
102
RTVSPropertyOp1
 70
     1
102
RTVSPropertyOp2
 70
     1
102
RTVSPropertyOp3
 70
     1
102
RTVSPropertyOp4
 70
     1
102
RTVSPropertyOp5
 70
     1
102
RTVSPropertyOp6
 70
     1
102
RTVSPropertyOp7
 70
     1
102
RTVSPropertyOp8
 70
     1
102
RTVSPropertyOp9
 70
     1
102
RTVSPropertyOp10
 70
     1
102
RTVSPropertyOp11
 70
     1
102
RTVSPropertyOp12
 70
     1
102
RTVSPropertyOp13
 70
     1
102
RTVSPropertyOp14
 70
     1
102
RTVSPropertyOp15
 70
     1
102
RTVSPropertyOp16
 70
     1
102
RTVSPropertyOp17
 70
     1
102
RTVSPropertyOp18
 70
     1
102
RTVSPropertyOp19
 70
     1
102
RTVSPropertyOp20
 70
     1
102
RTVSPropertyOp21
 70
     1
102
RTVSPropertyOp22
 70
     1
102
RTVSPropertyOp23
 70
     1
102
RTVSPropertyOp24
 70
     1
102
RTVSPropertyOp25
 70
     1
102
RTVSPropertyOp26
 70
     1
102
RTVSPropertyOp27
 70
     1
  0
XRECORD
  5
10E6
102
{ACAD_REACTORS
330
10E5
102
}
330
10E5
100
AcDbXrecord
280
     1
102
RTVSPropertyOp0
 70
     0
102
RTVSPropertyOp1
 70
     0
102
RTVSPropertyOp2
 70
     0
102
RTVSPropertyOp3
 70
     0
102
RTVSPropertyOp4
 70
     0
102
RTVSPropertyOp5
 70
     0
102
RTVSPropertyOp6
 70
     0
102
RTVSPropertyOp7
 70
     0
102
RTVSPropertyOp8
 70
     0
102
RTVSPropertyOp9
 70
     0
102
RTVSPropertyOp10
 70
     0
102
RTVSPropertyOp11
 70
     0
102
RTVSPropertyOp12
 70
     0
102
RTVSPropertyOp13
 70
     0
102
RTVSPropertyOp14
 70
     2
102
RTVSPropertyOp15
 70
     0
102
RTVSPropertyOp16
 70
     0
102
RTVSPropertyOp17
 70
     0
102
RTVSPropertyOp18
 70
     0
102
RTVSPropertyOp19
 70
     0
102
RTVSPropertyOp20
 70
     0
102
RTVSPropertyOp21
 70
     0
102
RTVSPropertyOp22
 70
     0
102
RTVSPropertyOp23
 70
     0
102
RTVSPropertyOp24
 70
     0
102
RTVSPropertyOp25
 70
     0
102
RTVSPropertyOp26
 70
     0
102
RTVSPropertyOp27
 70
     0
  0
XRECORD
  5
10E0
102
{ACAD_REACTORS
330
10DF
102
}
330
10DF
100
AcDbXrecord
280
     1
102
RTVSPropertyOp0
 70
     1
102
RTVSPropertyOp1
 70
     1
102
RTVSPropertyOp2
 70
     1
102
RTVSPropertyOp3
 70
     1
102
RTVSPropertyOp4
 70
     1
102
RTVSPropertyOp5
 70
     1
102
RTVSPropertyOp6
 70
     1
102
RTVSPropertyOp7
 70
     1
102
RTVSPropertyOp8
 70
     1
102
RTVSPropertyOp9
 70
     1
102
RTVSPropertyOp10
 70
     1
102
RTVSPropertyOp11
 70
     1
102
RTVSPropertyOp12
 70
     1
102
RTVSPropertyOp13
 70
     1
102
RTVSPropertyOp14
 70
     1
102
RTVSPropertyOp15
 70
     1
102
RTVSPropertyOp16
 70
     1
102
RTVSPropertyOp17
 70
     1
102
RTVSPropertyOp18
 70
     1
102
RTVSPropertyOp19
 70
     1
102
RTVSPropertyOp20
 70
     1
102
RTVSPropertyOp21
 70
     1
102
RTVSPropertyOp22
 70
     1
102
RTVSPropertyOp23
 70
     1
102
RTVSPropertyOp24
 70
     1
102
RTVSPropertyOp25
 70
     1
102
RTVSPropertyOp26
 70
     1
102
RTVSPropertyOp27
 70
     1
  0
XRECORD
  5
10E8
102
{ACAD_REACTORS
330
10E7
102
}
330
10E7
100
AcDbXrecord
280
     1
102
RTVSPropertyOp0
 70
     0
102
RTVSPropertyOp1
 70
     0
102
RTVSPropertyOp2
 70
     0
102
RTVSPropertyOp3
 70
     0
102
RTVSPropertyOp4
 70
     0
102
RTVSPropertyOp5
 70
     0
102
RTVSPropertyOp6
 70
     0
102
RTVSPropertyOp7
 70
     0
102
RTVSPropertyOp8
 70
     0
102
RTVSPropertyOp9
 70
     0
102
RTVSPropertyOp10
 70
     0
102
RTVSPropertyOp11
 70
     0
102
RTVSPropertyOp12
 70
     0
102
RTVSPropertyOp13
 70
     0
102
RTVSPropertyOp14
 70
     2
102
RTVSPropertyOp15
 70
     0
102
RTVSPropertyOp16
 70
     0
102
RTVSPropertyOp17
 70
     0
102
RTVSPropertyOp18
 70
     0
102
RTVSPropertyOp19
 70
     0
102
RTVSPropertyOp20
 70
     0
102
RTVSPropertyOp21
 70
     0
102
RTVSPropertyOp22
 70
     0
102
RTVSPropertyOp23
 70
     0
102
RTVSPropertyOp24
 70
     0
102
RTVSPropertyOp25
 70
     0
102
RTVSPropertyOp26
 70
     0
102
RTVSPropertyOp27
 70
     0
  0
XRECORD
  5
10D8
102
{ACAD_REACTORS
330
10D7
102
}
330
10D7
100
AcDbXrecord
280
     1
102
RTVSPropertyOp0
 70
     1
102
RTVSPropertyOp1
 70
     1
102
RTVSPropertyOp2
 70
     1
102
RTVSPropertyOp3
 70
     1
102
RTVSPropertyOp4
 70
     1
102
RTVSPropertyOp5
 70
     1
102
RTVSPropertyOp6
 70
     1
102
RTVSPropertyOp7
 70
     1
102
RTVSPropertyOp8
 70
     1
102
RTVSPropertyOp9
 70
     1
102
RTVSPropertyOp10
 70
     1
102
RTVSPropertyOp11
 70
     1
102
RTVSPropertyOp12
 70
     1
102
RTVSPropertyOp13
 70
     1
102
RTVSPropertyOp14
 70
     1
102
RTVSPropertyOp15
 70
     1
102
RTVSPropertyOp16
 70
     1
102
RTVSPropertyOp17
 70
     1
102
RTVSPropertyOp18
 70
     1
102
RTVSPropertyOp19
 70
     1
102
RTVSPropertyOp20
 70
     1
102
RTVSPropertyOp21
 70
     1
102
RTVSPropertyOp22
 70
     1
102
RTVSPropertyOp23
 70
     1
102
RTVSPropertyOp24
 70
     1
102
RTVSPropertyOp25
 70
     1
102
RTVSPropertyOp26
 70
     1
102
RTVSPropertyOp27
 70
     1
  0
XRECORD
  5
10DE
102
{ACAD_REACTORS
330
10DD
102
}
330
10DD
100
AcDbXrecord
280
     1
102
RTVSPropertyOp0
 70
     1
102
RTVSPropertyOp1
 70
     1
102
RTVSPropertyOp2
 70
     1
102
RTVSPropertyOp3
 70
     1
102
RTVSPropertyOp4
 70
     1
102
RTVSPropertyOp5
 70
     1
102
RTVSPropertyOp6
 70
     1
102
RTVSPropertyOp7
 70
     1
102
RTVSPropertyOp8
 70
     1
102
RTVSPropertyOp9
 70
     1
102
RTVSPropertyOp10
 70
     1
102
RTVSPropertyOp11
 70
     1
102
RTVSPropertyOp12
 70
     1
102
RTVSPropertyOp13
 70
     1
102
RTVSPropertyOp14
 70
     1
102
RTVSPropertyOp15
 70
     1
102
RTVSPropertyOp16
 70
     1
102
RTVSPropertyOp17
 70
     1
102
RTVSPropertyOp18
 70
     1
102
RTVSPropertyOp19
 70
     1
102
RTVSPropertyOp20
 70
     1
102
RTVSPropertyOp21
 70
     1
102
RTVSPropertyOp22
 70
     1
102
RTVSPropertyOp23
 70
     1
102
RTVSPropertyOp24
 70
     1
102
RTVSPropertyOp25
 70
     1
102
RTVSPropertyOp26
 70
     1
102
RTVSPropertyOp27
 70
     1
  0
ENDSEC
  0
EOF
