  0
SECTION
  2
HEADER
  9
$ACADVER
  1
AC1015
  9
$ACADMAINTVER
 70
    20
  9
$DWGCODEPAGE
  3
ANSI_1252
  9
$INSBASE
 10
0.0
 20
0.0
 30
0.0
  9
$EXTMIN
 10
1854.280521380384
 20
1323.462708629742
 30
0.0
  9
$EXTMAX
 10
1858.295597582301
 20
1324.262794381906
 30
0.0
  9
$LIMMIN
 10
0.0
 20
0.0
  9
$LIMMAX
 10
420.0
 20
297.0
  9
$ORTHOMODE
 70
     1
  9
$REGENMODE
 70
     1
  9
$FILLMODE
 70
     1
  9
$QTEXTMODE
 70
     0
  9
$MIRRTEXT
 70
     1
  9
$LTSCALE
 40
1.0
  9
$ATTMODE
 70
     1
  9
$TEXTSIZE
 40
2.5
  9
$TRACEWID
 40
1.0
  9
$TEXTSTYLE
  7
SANINDUSA
  9
$CLAYER
  8
0
  9
$CELTYPE
  6
ByLayer
  9
$CECOLOR
 62
   256
  9
$CELTSCALE
 40
1.0
  9
$DISPSILH
 70
     0
  9
$DIMSCALE
 40
1.0
  9
$DIMASZ
 40
2.0
  9
$DIMEXO
 40
1.0
  9
$DIMDLI
 40
1.0
  9
$DIMRND
 40
0.0
  9
$DIMDLE
 40
0.0
  9
$DIMEXE
 40
1.0
  9
$DIMTP
 40
0.0
  9
$DIMTM
 40
0.0
  9
$DIMTXT
 40
2.0
  9
$DIMCEN
 40
0.0
  9
$DIMTSZ
 40
0.0
  9
$DIMTOL
 70
     0
  9
$DIMLIM
 70
     0
  9
$DIMTIH
 70
     0
  9
$DIMTOH
 70
     0
  9
$DIMSE1
 70
     0
  9
$DIMSE2
 70
     0
  9
$DIMTAD
 70
     1
  9
$DIMZIN
 70
     8
  9
$DIMBLK
  1

  9
$DIMASO
 70
     1
  9
$DIMSHO
 70
     1
  9
$DIMPOST
  1

  9
$DIMAPOST
  1

  9
$DIMALT
 70
     0
  9
$DIMALTD
 70
     3
  9
$DIMALTF
 40
0.03937007874016
  9
$DIMLFAC
 40
1.0
  9
$DIMTOFL
 70
     1
  9
$DIMTVP
 40
0.0
  9
$DIMTIX
 70
     0
  9
$DIMSOXD
 70
     0
  9
$DIMSAH
 70
     0
  9
$DIMBLK1
  1

  9
$DIMBLK2
  1

  9
$DIMSTYLE
  2
SANINDUSA
  9
$DIMCLRD
 70
   256
  9
$DIMCLRE
 70
   256
  9
$DIMCLRT
 70
   256
  9
$DIMTFAC
 40
1.0
  9
$DIMGAP
 40
1.0
  9
$DIMJUST
 70
     0
  9
$DIMSD1
 70
     0
  9
$DIMSD2
 70
     0
  9
$DIMTOLJ
 70
     0
  9
$DIMTZIN
 70
     8
  9
$DIMALTZ
 70
     0
  9
$DIMALTTZ
 70
     0
  9
$DIMUPT
 70
     0
  9
$DIMDEC
 70
     1
  9
$DIMTDEC
 70
     1
  9
$DIMALTU
 70
     2
  9
$DIMALTTD
 70
     3
  9
$DIMTXSTY
  7
SANINDUSA
  9
$DIMAUNIT
 70
     0
  9
$DIMADEC
 70
     1
  9
$DIMALTRND
 40
0.0
  9
$DIMAZIN
 70
     0
  9
$DIMDSEP
 70
    44
  9
$DIMATFIT
 70
     3
  9
$DIMFRAC
 70
     0
  9
$DIMLDRBLK
  1

  9
$DIMLUNIT
 70
     2
  9
$DIMLWD
 70
    -1
  9
$DIMLWE
 70
    -1
  9
$DIMTMOVE
 70
     0
  9
$LUNITS
 70
     2
  9
$LUPREC
 70
     4
  9
$SKETCHINC
 40
1.0
  9
$FILLETRAD
 40
0.0
  9
$AUNITS
 70
     0
  9
$AUPREC
 70
     0
  9
$MENU
  1
.
  9
$ELEVATION
 40
0.0
  9
$PELEVATION
 40
0.0
  9
$THICKNESS
 40
0.0
  9
$LIMCHECK
 70
     0
  9
$CHAMFERA
 40
10.0
  9
$CHAMFERB
 40
10.0
  9
$CHAMFERC
 40
20.0
  9
$CHAMFERD
 40
0.0
  9
$SKPOLY
 70
     0
  9
$TDCREATE
 40
2453530.585322801
  9
$TDUCREATE
 40
2453530.543656134
  9
$TDUPDATE
 40
2456148.431339699
  9
$TDUUPDATE
 40
2456148.389673033
  9
$TDINDWG
 40
0.0067921644
  9
$TDUSRTIMER
 40
0.0067919907
  9
$USRTIMER
 70
     1
  9
$ANGBASE
 50
0.0
  9
$ANGDIR
 70
     0
  9
$PDMODE
 70
     0
  9
$PDSIZE
 40
0.0
  9
$PLINEWID
 40
0.0
  9
$SPLFRAME
 70
     0
  9
$SPLINETYPE
 70
     6
  9
$SPLINESEGS
 70
     8
  9
$HANDSEED
  5
1E4D
  9
$SURFTAB1
 70
     6
  9
$SURFTAB2
 70
     6
  9
$SURFTYPE
 70
     6
  9
$SURFU
 70
     6
  9
$SURFV
 70
     6
  9
$UCSBASE
  2

  9
$UCSNAME
  2

  9
$UCSORG
 10
0.0
 20
0.0
 30
0.0
  9
$UCSXDIR
 10
1.0
 20
0.0
 30
0.0
  9
$UCSYDIR
 10
0.0
 20
1.0
 30
0.0
  9
$UCSORTHOREF
  2

  9
$UCSORTHOVIEW
 70
     0
  9
$UCSORGTOP
 10
0.0
 20
0.0
 30
0.0
  9
$UCSORGBOTTOM
 10
0.0
 20
0.0
 30
0.0
  9
$UCSORGLEFT
 10
0.0
 20
0.0
 30
0.0
  9
$UCSORGRIGHT
 10
0.0
 20
0.0
 30
0.0
  9
$UCSORGFRONT
 10
0.0
 20
0.0
 30
0.0
  9
$UCSORGBACK
 10
0.0
 20
0.0
 30
0.0
  9
$PUCSBASE
  2

  9
$PUCSNAME
  2

  9
$PUCSORG
 10
0.0
 20
0.0
 30
0.0
  9
$PUCSXDIR
 10
1.0
 20
0.0
 30
0.0
  9
$PUCSYDIR
 10
0.0
 20
1.0
 30
0.0
  9
$PUCSORTHOREF
  2

  9
$PUCSORTHOVIEW
 70
     0
  9
$PUCSORGTOP
 10
0.0
 20
0.0
 30
0.0
  9
$PUCSORGBOTTOM
 10
0.0
 20
0.0
 30
0.0
  9
$PUCSORGLEFT
 10
0.0
 20
0.0
 30
0.0
  9
$PUCSORGRIGHT
 10
0.0
 20
0.0
 30
0.0
  9
$PUCSORGFRONT
 10
0.0
 20
0.0
 30
0.0
  9
$PUCSORGBACK
 10
0.0
 20
0.0
 30
0.0
  9
$USERI1
 70
     0
  9
$USERI2
 70
     0
  9
$USERI3
 70
     0
  9
$USERI4
 70
     0
  9
$USERI5
 70
     0
  9
$USERR1
 40
0.0
  9
$USERR2
 40
0.0
  9
$USERR3
 40
0.0
  9
$USERR4
 40
0.0
  9
$USERR5
 40
0.0
  9
$WORLDVIEW
 70
     1
  9
$SHADEDGE
 70
     3
  9
$SHADEDIF
 70
    70
  9
$TILEMODE
 70
     1
  9
$MAXACTVP
 70
    64
  9
$PINSBASE
 10
0.0
 20
0.0
 30
0.0
  9
$PLIMCHECK
 70
     0
  9
$PEXTMIN
 10
1.000000000000000E+20
 20
1.000000000000000E+20
 30
1.000000000000000E+20
  9
$PEXTMAX
 10
-1.000000000000000E+20
 20
-1.000000000000000E+20
 30
-1.000000000000000E+20
  9
$PLIMMIN
 10
0.0
 20
0.0
  9
$PLIMMAX
 10
420.0
 20
297.0
  9
$UNITMODE
 70
     0
  9
$VISRETAIN
 70
     1
  9
$PLINEGEN
 70
     0
  9
$PSLTSCALE
 70
     1
  9
$TREEDEPTH
 70
  3020
  9
$CMLSTYLE
  2
Standard
  9
$CMLJUST
 70
     0
  9
$CMLSCALE
 40
20.0
  9
$PROXYGRAPHICS
 70
     1
  9
$MEASUREMENT
 70
     1
  9
$CELWEIGHT
370
    -1
  9
$ENDCAPS
280
     0
  9
$JOINSTYLE
280
     0
  9
$LWDISPLAY
290
     0
  9
$INSUNITS
 70
     4
  9
$HYPERLINKBASE
  1

  9
$STYLESHEET
  1
monochrome.ctb
  9
$XEDIT
290
     1
  9
$CEPSNTYPE
380
     0
  9
$PSTYLEMODE
290
     1
  9
$FINGERPRINTGUID
  2
{1D6E7C87-5CF5-4EB2-AF2D-CF9C2A0CEC23}
  9
$VERSIONGUID
  2
{D8A4053D-0651-41AE-BB8E-FCE4466D6CB3}
  9
$EXTNAMES
290
     1
  9
$PSVPSCALE
 40
0.0
  9
$OLESTARTUP
290
     0
  0
ENDSEC
  0
SECTION
  2
CLASSES
  0
CLASS
  1
ACDBDICTIONARYWDFLT
  2
AcDbDictionaryWithDefault
  3
ObjectDBX Classes
 90
        0
280
     0
281
     0
  0
CLASS
  1
ACDBPLACEHOLDER
  2
AcDbPlaceHolder
  3
ObjectDBX Classes
 90
        0
280
     0
281
     0
  0
CLASS
  1
LAYOUT
  2
AcDbLayout
  3
ObjectDBX Classes
 90
        0
280
     0
281
     0
  0
CLASS
  1
DICTIONARYVAR
  2
AcDbDictionaryVar
  3
ObjectDBX Classes
 90
        0
280
     0
281
     0
  0
CLASS
  1
DIMASSOC
  2
AcDbDimAssoc
  3
"AcDbDimAssoc|Product Desc:     AcDim ARX App For Dimension|Company:          Autodesk, Inc.|WEB Address:      www.autodesk.com"
 90
    32768
280
     0
281
     0
  0
CLASS
  1
TABLESTYLE
  2
AcDbTableStyle
  3
ObjectDBX Classes
 90
     4095
280
     0
281
     0
  0
CLASS
  1
SORTENTSTABLE
  2
AcDbSortentsTable
  3
ObjectDBX Classes
 90
    32768
280
     0
281
     0
  0
CLASS
  1
MATERIAL
  2
AcDbMaterial
  3
ObjectDBX Classes
 90
     1153
280
     0
281
     0
  0
CLASS
  1
VISUALSTYLE
  2
AcDbVisualStyle
  3
ObjectDBX Classes
 90
     4095
280
     0
281
     0
  0
CLASS
  1
SCALE
  2
AcDbScale
  3
ObjectDBX Classes
 90
     1153
280
     0
281
     0
  0
CLASS
  1
MLEADERSTYLE
  2
AcDbMLeaderStyle
  3
ACDB_MLEADERSTYLE_CLASS
 90
     4095
280
     0
281
     0
  0
CLASS
  1
CELLSTYLEMAP
  2
AcDbCellStyleMap
  3
ObjectDBX Classes
 90
     1152
280
     0
281
     0
  0
ENDSEC
  0
SECTION
  2
TABLES
  0
TABLE
  2
VPORT
  5
8
330
0
100
AcDbSymbolTable
 70
     1
  0
VPORT
  5
1D90
330
8
100
AcDbSymbolTableRecord
100
AcDbViewportTableRecord
  2
*Active
 70
     0
 10
0.0
 20
0.0
 11
1.0
 21
1.0
 12
1856.288059481342
 22
1323.862751505824
 13
0.0
 23
0.0
 14
10.0
 24
10.0
 15
10.0
 25
10.0
 16
0.0
 26
0.0
 36
1.0
 17
0.0
 27
0.0
 37
0.0
 40
2.449355736439547
 41
1.645464025026068
 42
50.0
 43
0.0
 44
0.0
 50
0.0
 51
0.0
 71
     0
 72
   100
 73
     1
 74
     2
 75
     0
 76
     0
 77
     0
 78
     0
281
     0
 65
     1
110
0.0
120
0.0
130
0.0
111
1.0
121
0.0
131
0.0
112
0.0
122
1.0
132
0.0
 79
     0
146
0.0
  0
ENDTAB
  0
TABLE
  2
LTYPE
  5
5
330
0
100
AcDbSymbolTable
 70
     3
  0
LTYPE
  5
14
330
5
100
AcDbSymbolTableRecord
100
AcDbLinetypeTableRecord
  2
ByBlock
 70
     0
  3

 72
    65
 73
     0
 40
0.0
  0
LTYPE
  5
15
330
5
100
AcDbSymbolTableRecord
100
AcDbLinetypeTableRecord
  2
ByLayer
 70
     0
  3

 72
    65
 73
     0
 40
0.0
  0
LTYPE
  5
16
330
5
100
AcDbSymbolTableRecord
100
AcDbLinetypeTableRecord
  2
Continuous
 70
     0
  3
Solid line
 72
    65
 73
     0
 40
0.0
  0
LTYPE
  5
2D
330
5
100
AcDbSymbolTableRecord
100
AcDbLinetypeTableRecord
  2
DASHDOT
 70
     0
  3
Dash dot __ . __ . __ . __ . __ . __ . __ . __
 72
    65
 73
     4
 40
25.4
 49
12.7
 74
     0
 49
-6.349999999999999
 74
     0
 49
0.0
 74
     0
 49
-6.349999999999999
 74
     0
  0
LTYPE
  5
2E
330
5
100
AcDbSymbolTableRecord
100
AcDbLinetypeTableRecord
  2
HIDDEN
 70
     0
  3
Hidden __ __ __ __ __ __ __ __ __ __ __ __ __ _
 72
    65
 73
     2
 40
9.524999999999998
 49
6.349999999999999
 74
     0
 49
-3.174999999999999
 74
     0
  0
ENDTAB
  0
TABLE
  2
LAYER
  5
2
330
0
100
AcDbSymbolTable
 70
    16
  0
LAYER
  5
10
102
{ACAD_XDICTIONARY
360
1DDF
102
}
330
2
100
AcDbSymbolTableRecord
100
AcDbLayerTableRecord
  2
0
 70
     0
 62
     7
  6
Continuous
370
    -3
390
F
  0
LAYER
  5
2F
102
{ACAD_XDICTIONARY
360
1DE1
102
}
330
2
100
AcDbSymbolTableRecord
100
AcDbLayerTableRecord
  2
1
 70
     0
 62
     1
  6
Continuous
370
    -3
390
F
  0
LAYER
  5
30
102
{ACAD_XDICTIONARY
360
1DE3
102
}
330
2
100
AcDbSymbolTableRecord
100
AcDbLayerTableRecord
  2
2
 70
     0
 62
     2
  6
Continuous
370
    -3
390
F
  0
LAYER
  5
31
102
{ACAD_XDICTIONARY
360
1DE5
102
}
330
2
100
AcDbSymbolTableRecord
100
AcDbLayerTableRecord
  2
3
 70
     0
 62
     3
  6
Continuous
370
    -3
390
F
  0
LAYER
  5
32
102
{ACAD_XDICTIONARY
360
1DE7
102
}
330
2
100
AcDbSymbolTableRecord
100
AcDbLayerTableRecord
  2
4
 70
     0
 62
     4
  6
Continuous
370
    -3
390
F
  0
LAYER
  5
33
102
{ACAD_XDICTIONARY
360
1DE9
102
}
330
2
100
AcDbSymbolTableRecord
100
AcDbLayerTableRecord
  2
5
 70
     0
 62
     5
  6
Continuous
370
    -3
390
F
  0
LAYER
  5
34
102
{ACAD_XDICTIONARY
360
1DEB
102
}
330
2
100
AcDbSymbolTableRecord
100
AcDbLayerTableRecord
  2
6
 70
     0
 62
     6
  6
Continuous
370
    -3
390
F
  0
LAYER
  5
35
102
{ACAD_XDICTIONARY
360
1DED
102
}
330
2
100
AcDbSymbolTableRecord
100
AcDbLayerTableRecord
  2
7
 70
     0
 62
     7
  6
Continuous
370
    -3
390
F
  0
LAYER
  5
36
102
{ACAD_XDICTIONARY
360
1DEF
102
}
330
2
100
AcDbSymbolTableRecord
100
AcDbLayerTableRecord
  2
cen
 70
     0
 62
     7
  6
DASHDOT
370
    -3
390
F
  0
LAYER
  5
37
102
{ACAD_XDICTIONARY
360
1DF1
102
}
330
2
100
AcDbSymbolTableRecord
100
AcDbLayerTableRecord
  2
hid
 70
     0
 62
     7
  6
HIDDEN
370
    -3
390
F
  0
LAYER
  5
5D6
102
{ACAD_XDICTIONARY
360
1DF3
102
}
330
2
100
AcDbSymbolTableRecord
100
AcDbLayerTableRecord
  2
hatch
 70
     0
 62
     9
  6
Continuous
370
    -3
390
F
  0
LAYER
  5
8AF
102
{ACAD_XDICTIONARY
360
1DF5
102
}
330
2
100
AcDbSymbolTableRecord
100
AcDbLayerTableRecord
  2
9
 70
     0
 62
     9
  6
Continuous
370
    -3
390
F
  0
LAYER
  5
8F8
102
{ACAD_XDICTIONARY
360
1DF7
102
}
330
2
100
AcDbSymbolTableRecord
100
AcDbLayerTableRecord
  2
leg fin
 70
     0
 62
     9
  6
Continuous
370
    -3
390
F
  0
LAYER
  5
91D
102
{ACAD_XDICTIONARY
360
1DF9
102
}
330
2
100
AcDbSymbolTableRecord
100
AcDbLayerTableRecord
  2
cotas
 70
     0
 62
     1
  6
Continuous
370
    -3
390
F
  0
LAYER
  5
92F
330
2
100
AcDbSymbolTableRecord
100
AcDbLayerTableRecord
  2
Defpoints
 70
     0
 62
     7
  6
Continuous
290
     0
370
    -3
390
F
  0
LAYER
  5
BA5
102
{ACAD_XDICTIONARY
360
1DFB
102
}
330
2
100
AcDbSymbolTableRecord
100
AcDbLayerTableRecord
  2
SANINDUSA
 70
     0
 62
     3
  6
Continuous
370
    -3
390
F
  0
ENDTAB
  0
TABLE
  2
STYLE
  5
3
330
0
100
AcDbSymbolTable
 70
     3
  0
STYLE
  5
11
330
3
100
AcDbSymbolTableRecord
100
AcDbTextStyleTableRecord
  2
Standard
 70
     0
 40
0.0
 41
1.0
 50
0.0
 71
     0
 42
2.5
  3
Avgardn.ttf
  4

1001
ACAD
1000
AvantGarde Bk BT
1071
       34
  0
STYLE
  5
2C
330
3
100
AcDbSymbolTableRecord
100
AcDbTextStyleTableRecord
  2

 70
     1
 40
0.0
 41
1.0
 50
0.0
 71
     0
 42
2.5
  3
ltypeshp.shx
  4

  0
STYLE
  5
91F
330
3
100
AcDbSymbolTableRecord
100
AcDbTextStyleTableRecord
  2
SANINDUSA
 70
     0
 40
0.0
 41
1.0
 50
0.0
 71
     0
 42
2.5
  3
verdana.TTF
  4

1001
ACAD
1000
Verdana
1071
       34
  0
ENDTAB
  0
TABLE
  2
VIEW
  5
6
330
0
100
AcDbSymbolTable
 70
     0
  0
ENDTAB
  0
TABLE
  2
UCS
  5
7
330
0
100
AcDbSymbolTable
 70
     0
  0
ENDTAB
  0
TABLE
  2
APPID
  5
9
330
0
100
AcDbSymbolTable
 70
     8
  0
APPID
  5
12
330
9
100
AcDbSymbolTableRecord
100
AcDbRegAppTableRecord
  2
ACAD
 70
     0
  0
APPID
  5
3A
330
9
100
AcDbSymbolTableRecord
100
AcDbRegAppTableRecord
  2
DCO15
 70
     0
  0
APPID
  5
D78
330
9
100
AcDbSymbolTableRecord
100
AcDbRegAppTableRecord
  2
ACAD_DSTYLE_DIMEXT_LENGTH
 70
     0
  0
APPID
  5
D79
330
9
100
AcDbSymbolTableRecord
100
AcDbRegAppTableRecord
  2
ACAD_DSTYLE_DIMEXT_ENABLED
 70
     0
  0
APPID
  5
D7A
330
9
100
AcDbSymbolTableRecord
100
AcDbRegAppTableRecord
  2
ACAD_DSTYLE_DIMJOGGED_JOGANGLE_SYMBOL
 70
     0
  0
APPID
  5
D7B
330
9
100
AcDbSymbolTableRecord
100
AcDbRegAppTableRecord
  2
ACAD_DSTYLE_DIMARC_LENGTH_SYMBOL
 70
     0
  0
APPID
  5
1D81
330
9
100
AcDbSymbolTableRecord
100
AcDbRegAppTableRecord
  2
ACAD_EXEMPT_FROM_CAD_STANDARDS
 70
     0
  0
APPID
  5
1E4C
330
9
100
AcDbSymbolTableRecord
100
AcDbRegAppTableRecord
  2
ACAD_MLEADERVER
 70
     0
  0
ENDTAB
  0
TABLE
  2
DIMSTYLE
  5
A
330
0
100
AcDbSymbolTable
 70
     2
100
AcDbDimStyleTable
 71
     1
340
921
  0
DIMSTYLE
105
45
330
A
100
AcDbSymbolTableRecord
100
AcDbDimStyleTableRecord
  2
STANDARD
 70
     0
289
     0
340
11
  0
DIMSTYLE
105
921
330
A
100
AcDbSymbolTableRecord
100
AcDbDimStyleTableRecord
  2
SANINDUSA
 70
     0
 41
2.0
 42
1.0
 43
1.0
 44
1.0
 73
     0
 74
     0
 77
     1
 78
     8
140
2.0
141
0.0
143
0.03937007874016
147
1.0
171
     3
172
     1
176
   256
177
   256
178
   256
179
     1
271
     1
272
     1
274
     3
278
    44
283
     0
284
     8
340
91F
371
    -1
372
    -1
  0
ENDTAB
  0
TABLE
  2
BLOCK_RECORD
  5
1
330
0
100
AcDbSymbolTable
 70
    85
  0
BLOCK_RECORD
  5
1F
330
1
100
AcDbSymbolTableRecord
100
AcDbBlockTableRecord
  2
*Model_Space
340
22
  0
BLOCK_RECORD
  5
1B
330
1
100
AcDbSymbolTableRecord
100
AcDbBlockTableRecord
  2
*Paper_Space
340
1E
  0
BLOCK_RECORD
  5
23
330
1
100
AcDbSymbolTableRecord
100
AcDbBlockTableRecord
  2
*Paper_Space0
340
26
  0
BLOCK_RECORD
  5
919
330
1
100
AcDbSymbolTableRecord
100
AcDbBlockTableRecord
  2
_DotSmall
340
0
  0
BLOCK_RECORD
  5
922
330
1
100
AcDbSymbolTableRecord
100
AcDbBlockTableRecord
  2
base para cotas
340
0
310
2800000020000000200000000100080000000000000400000000000000000000000000000000000000000000000080000080000000808000800000008000800080800000C0C0C000C0DCC000F0CAA6000020400000206000002080000020A0000020C0000020E00000400000004020000040400000406000004080000040A0
310
000040C0000040E00000600000006020000060400000606000006080000060A0000060C0000060E00000800000008020000080400000806000008080000080A0000080C0000080E00000A0000000A0200000A0400000A0600000A0800000A0A00000A0C00000A0E00000C0000000C0200000C0400000C0600000C0800000C0
310
A00000C0C00000C0E00000E0000000E0200000E0400000E0600000E0800000E0A00000E0C00000E0E00040000000400020004000400040006000400080004000A0004000C0004000E00040200000402020004020400040206000402080004020A0004020C0004020E000404000004040200040404000404060004040800040
310
40A0004040C0004040E00040600000406020004060400040606000406080004060A0004060C0004060E00040800000408020004080400040806000408080004080A0004080C0004080E00040A0000040A0200040A0400040A0600040A0800040A0A00040A0C00040A0E00040C0000040C0200040C0400040C0600040C08000
310
40C0A00040C0C00040C0E00040E0000040E0200040E0400040E0600040E0800040E0A00040E0C00040E0E00080000000800020008000400080006000800080008000A0008000C0008000E00080200000802020008020400080206000802080008020A0008020C0008020E00080400000804020008040400080406000804080
310
008040A0008040C0008040E00080600000806020008060400080606000806080008060A0008060C0008060E00080800000808020008080400080806000808080008080A0008080C0008080E00080A0000080A0200080A0400080A0600080A0800080A0A00080A0C00080A0E00080C0000080C0200080C0400080C0600080C0
310
800080C0A00080C0C00080C0E00080E0000080E0200080E0400080E0600080E0800080E0A00080E0C00080E0E000C0000000C0002000C0004000C0006000C0008000C000A000C000C000C000E000C0200000C0202000C0204000C0206000C0208000C020A000C020C000C020E000C0400000C0402000C0404000C0406000C0
310
408000C040A000C040C000C040E000C0600000C0602000C0604000C0606000C0608000C060A000C060C000C060E000C0800000C0802000C0804000C0806000C0808000C080A000C080C000C080E000C0A00000C0A02000C0A04000C0A06000C0A08000C0A0A000C0A0C000C0A0E000C0C00000C0C02000C0C04000C0C06000
310
C0C08000C0C0A000F0FBFF00A4A0A000808080000000FF0000FF000000FFFF00FF000000FF00FF00FFFF0000FFFFFF00A4A4A4A4A4A4A4A4A4A4A4A4A4A4A4A4A4A4A4A4A4A4A4A4A4A4A4A4A4A4A4A4A4A4A4A4A4A4A4A4A4A4A4A4A4A4A4A4A4A4A4A4A4A4A4A4A4A4A4A4A4A4A4A4A4A4A4A4A4A4A4A4A4A4A4A4A4A4A4
310
A4A4A4A4A4A4A4A4A4A4A4A4A4A4A4A4A4A4A4A4A4A4A4A4A4A4A4A4A4A4A4A4A4A4A4A4A4A4A4A4A4A4A4A4A4A4A4A4A4A4A4A4A4A4A4A4A4A4A4A4A4A4A4A4A4A4A4A4A4A4A4A4A4A4A4A4A4A4A4A4A4A4A4A4A4A4A4A4A4A4A4A4A4A4A4A4A4A4A4A4A4A4A4A4A4A4A4A4A4A4A4A4A4A4A4A4A4A4A4A4A4A4A4A4A4A4A4
310
A4A4A4A4A4A4A4A4A4A4A4A4A4A4A4A4A4A4A4A4A4A4A4A4A4A4A4A4A4A4A4A4A4A4A4A4A4A4A4A4A4A4A4A4A4A4A4A4A4A4A4A4A4A4A4A4A4A4A4A4A4A4A4A4A4A4A4A4A4A4A4A4A4A4A4A4A4A4A4A4A4A4A4A4A4A4A4A4A4A4A4A4A4A4A4A4A4A4A4A4A4A4A4A4A4A4A4A4A4A4A4A4A4A4A4A4A4A4A4A4A4A4A4A4A4A4A4
310
A4A4A4A4A4A4A4A4A4A4A4A4A4A4A4A4A4A4A4A4A4A4A4A4A4A4A4A4A4A4A4A4A4A4A4A4A4A4A4A4A4A4A4A4A4A4A4A4A4A4A4A4A4A4A4A4A4A4A4A4A4A4A4A4A4A4A4A4A4A4A4A4A4A4A4A4A4A4A4A4A4A4A4A4A4A4A4A4A4A4A4A4A4A4A4A4A4A4A4A4A4A4A4A4A4A4A4A4A4A4A4A4A4A4A4A4F9F9F9F9F9F9F9F9F9F9F9
310
F9F9F9F9F9F9F9F9F9F9F9F9F9F9F9F9F9F9F9A4A4F9F9F9F9F9F9F9F9F9F9F9F9F9F9F9F9F9F9F9F9F9F9F9F9F9F9F9F9F9F9A4A4F9F9F9F9F9F9F9F9F9F9F9F9F9F9F9F9F9F9F9F9F9F9F9F9F9F9F9F9F9F9A4A4F9A4A4A4A4A4A4A4A4A4A4A4A4A4A4A4A4A4A4A4A4A4A4A4A4A4A4A4A4F9A4A4A4A4A4A4A4A4A4A4A4A4
310
A4A4A4A4A4A4A4A4A4A4A4A4A4A4A4A4A4A4A4A4A4A4A4A4A4A4A4A4A4A4A4A4A4A4A4A4A4A4A4A4A4A4A4A4A4A4A4A4A4A4A4A4A4A4A4A4A4A4A4A4A4A4A4A4A4A4A4A4A4A4A4A4A4A4A4A4A4A4A4A4A4A4A4A4A4A4A4A4A4A4A4A4A4A4A4A4A4A4A4A4A4A4A4A4A4A4A4A4A4A4A4A4A4A4A4A4A4A4A4A4A4A4A4A4A4A4A4
310
A4A4A4A4A4A4A4A4A4A4A4A4A4A4A4A4A4A4A4A4A4A4A4A4A4A4A4A4A4A4A4A4A4A4A4A4A4A4A4A4A4A4A4A4A4A4A4A4A4A4A4A4A4A4A4A4A4A4A4A4A4A4A4A4A4A4A4A4A4A4A4A4A4A4A4A4A4A4A4A4A4A4A4A4A4A4A4A4A4A4A4A4A4A4A4A4A4A4A4A4A4A4A4A4A4A4A4A4A4A4A4A4A4A4A4A4A4A4A4A4A4A4A4A4A4A4A4
310
A4A4A4A4A4A4A4A4A4A4A4A4A4A4A4A4A4A4A4A4A4A4A4A4A4A4A4A4A4A4A4A4A4A4A4A4A4A4A4A4A4A4A4A4A4A4A4A4A4A4A4A4A4A4A4A4A4A4A4A4A4A4A4A4A4A4A4A4A4A4A4A4A4A4A4A4A4A4A4A4A4A4A4A4A4A4A4A4A4A4A4A4A4A4A4A4A4A4A4A4A4A4A4A4A4A4A4A4A4A4A4A4A4A4A4A4A4A4A4A4A4A4A4A4A4A4A4
310
A4A4A4A4A4A4A4A4A4A4A4A4A4A4A4A4A4A4A4A4A4A4A4A4A4A4A4A4A4A4A4A4A4A4A4A4A4A4A4A4A4A4A4A4A4A4A4A4A4A4A4A4A4A4A4A4
1001
ACAD
1000
DesignCenter Data
1002
{
1070
     1
1070
     4
1002
}
  0
BLOCK_RECORD
  5
AA8
330
1
100
AcDbSymbolTableRecord
100
AcDbBlockTableRecord
  2
_CLOSED
340
0
  0
ENDTAB
  0
ENDSEC
  0
SECTION
  2
BLOCKS
  0
BLOCK
  5
20
330
1F
100
AcDbEntity
  8
0
100
AcDbBlockBegin
  2
*Model_Space
 70
     0
 10
0.0
 20
0.0
 30
0.0
  3
*Model_Space
  1

  0
ENDBLK
  5
21
330
1F
100
AcDbEntity
  8
0
100
AcDbBlockEnd
  0
BLOCK
  5
1C
330
1B
100
AcDbEntity
 67
     1
  8
0
100
AcDbBlockBegin
  2
*Paper_Space
 70
     0
 10
0.0
 20
0.0
 30
0.0
  3
*Paper_Space
  1

  0
ENDBLK
  5
1D
330
1B
100
AcDbEntity
 67
     1
  8
0
100
AcDbBlockEnd
  0
BLOCK
  5
24
330
23
100
AcDbEntity
 67
     1
  8
0
100
AcDbBlockBegin
  2
*Paper_Space0
 70
     0
 10
0.0
 20
0.0
 30
0.0
  3
*Paper_Space0
  1

  0
ENDBLK
  5
25
330
23
100
AcDbEntity
 67
     1
  8
0
100
AcDbBlockEnd
  0
BLOCK
  5
91B
330
919
100
AcDbEntity
  8
0
100
AcDbBlockBegin
  2
_DotSmall
 70
     0
 10
0.0
 20
0.0
 30
0.0
  3
_DotSmall
  1

  0
LWPOLYLINE
  5
91A
330
919
100
AcDbEntity
  8
0
  6
ByBlock
 62
     0
100
AcDbPolyline
 90
        2
 70
     1
 43
0.5
 10
-0.0625
 20
0.0
 42
1.0
 10
0.0625
 20
0.0
 42
1.0
  0
ENDBLK
  5
91C
330
919
100
AcDbEntity
  8
0
100
AcDbBlockEnd
  0
BLOCK
  5
92A
330
922
100
AcDbEntity
  8
0
100
AcDbBlockBegin
  2
base para cotas
 70
     0
 10
0.0
 20
0.0
 30
0.0
  3
base para cotas
  1

  0
LINE
  5
B36
330
922
100
AcDbEntity
  8
cotas
100
AcDbLine
 10
0.0
 20
-30.0
 30
0.0
 11
327.1260136525398
 21
-30.0
 31
0.0
  0
LINE
  5
B37
330
922
100
AcDbEntity
  8
cotas
100
AcDbLine
 10
0.0
 20
-25.0
 30
0.0
 11
327.1260136525398
 21
-25.0
 31
0.0
  0
LINE
  5
B38
330
922
100
AcDbEntity
  8
cotas
100
AcDbLine
 10
0.0
 20
-20.0
 30
0.0
 11
327.1260136525398
 21
-20.0
 31
0.0
  0
LINE
  5
B39
330
922
100
AcDbEntity
  8
cotas
100
AcDbLine
 10
0.0
 20
-15.0
 30
0.0
 11
327.1260136525398
 21
-15.0
 31
0.0
  0
LINE
  5
B3A
330
922
100
AcDbEntity
  8
cotas
100
AcDbLine
 10
0.0
 20
-10.0
 30
0.0
 11
327.1260136525398
 21
-10.0
 31
0.0
  0
LINE
  5
B3B
330
922
100
AcDbEntity
  8
cotas
100
AcDbLine
 10
0.0
 20
0.0
 30
0.0
 11
0.0
 21
-30.0
 31
0.0
  0
LINE
  5
B3C
330
922
100
AcDbEntity
  8
cotas
100
AcDbLine
 10
327.1260136525398
 20
-30.0
 30
0.0
 11
327.1260136525398
 21
0.0
 31
0.0
  0
ENDBLK
  5
92B
330
922
100
AcDbEntity
  8
0
100
AcDbBlockEnd
  0
BLOCK
  5
AAD
330
AA8
100
AcDbEntity
  8
0
100
AcDbBlockBegin
  2
_CLOSED
 70
     0
 10
0.0
 20
0.0
 30
0.0
  3
_CLOSED
  1

  0
LINE
  5
AA9
330
AA8
100
AcDbEntity
  8
0
100
AcDbLine
 10
-1.0
 20
0.166667
 30
0.0
 11
0.0
 21
0.0
 31
0.0
  0
LINE
  5
AAA
330
AA8
100
AcDbEntity
  8
0
100
AcDbLine
 10
0.0
 20
0.0
 30
0.0
 11
-1.0
 21
-0.166667
 31
0.0
  0
LINE
  5
AAB
330
AA8
100
AcDbEntity
  8
0
100
AcDbLine
 10
-1.0
 20
0.166667
 30
0.0
 11
-1.0
 21
-0.166667
 31
0.0
  0
LINE
  5
AAC
330
AA8
100
AcDbEntity
  8
0
100
AcDbLine
 10
0.0
 20
0.0
 30
0.0
 11
-1.0
 21
0.0
 31
0.0
  0
ENDBLK
  5
AAE
330
AA8
100
AcDbEntity
  8
0
100
AcDbBlockEnd
  0
ENDSEC
  0
SECTION
  2
ENTITIES
  0
LINE
  5
1209
330
1F
100
AcDbEntity
  8
SANINDUSA
100
AcDbLine
 10
1856.156726906009
 20
1323.826961614344
 30
0.0
 11
1855.370726906009
 21
1323.826961614344
 31
0.0
  0
LINE
  5
120C
330
1F
100
AcDbEntity
  8
SANINDUSA
100
AcDbLine
 10
1855.370726906009
 20
1323.826961614344
 30
0.0
 11
1855.364726906009
 21
1323.826961614344
 31
0.0
  0
ARC
  5
120D
330
1F
100
AcDbEntity
  8
SANINDUSA
100
AcDbCircle
 10
1855.364726906009
 20
1323.827961614344
 30
0.0
 40
0.001
100
AcDbArc
 50
180.0
 51
270.0
  0
ARC
  5
120F
330
1F
100
AcDbEntity
  8
SANINDUSA
100
AcDbCircle
 10
1856.164803906407
 20
1323.827961614344
 30
0.0
 40
0.001
100
AcDbArc
 50
270.0
 51
0.9999999969218754
  0
LINE
  5
1210
330
1F
100
AcDbEntity
  8
SANINDUSA
100
AcDbLine
 10
1856.164803906407
 20
1323.826961614344
 30
0.0
 11
1856.156726906009
 21
1323.826961614344
 31
0.0
  0
LINE
  5
1212
330
1F
100
AcDbEntity
  8
SANINDUSA
100
AcDbLine
 10
1856.165803754102
 20
1323.82797906675
 30
0.0
 11
1856.163812658169
 21
1323.942048876376
 31
0.0
  0
LINE
  5
1216
330
1F
100
AcDbEntity
  8
SANINDUSA
100
AcDbLine
 10
1855.363726906009
 20
1323.827961614344
 30
0.0
 11
1855.363726906009
 21
1323.941961614343
 31
0.0
  0
LINE
  5
1219
330
1F
100
AcDbEntity
  8
SANINDUSA
100
AcDbLine
 10
1855.370726906009
 20
1323.946961614343
 30
0.0
 11
1856.156726906009
 21
1323.946961614343
 31
0.0
  0
LINE
  5
121B
330
1F
100
AcDbEntity
  8
SANINDUSA
100
AcDbLine
 10
1856.156726906009
 20
1323.946961614343
 30
0.0
 11
1856.158813419693
 21
1323.946961614343
 31
0.0
  0
ARC
  5
121C
330
1F
100
AcDbEntity
  8
SANINDUSA
100
AcDbCircle
 10
1856.158813419693
 20
1323.941961614343
 30
0.0
 40
0.0050000000000001
100
AcDbArc
 50
0.9999999969218754
 51
90.0
  0
ARC
  5
121D
330
1F
100
AcDbEntity
  8
SANINDUSA
100
AcDbCircle
 10
1855.368726906009
 20
1323.941961614343
 30
0.0
 40
0.005
100
AcDbArc
 50
90.0
 51
180.0
  0
LINE
  5
121E
330
1F
100
AcDbEntity
  8
SANINDUSA
100
AcDbLine
 10
1855.368726906009
 20
1323.946961614343
 30
0.0
 11
1855.370726906009
 21
1323.946961614343
 31
0.0
  0
ARC
  5
1221
330
1F
100
AcDbEntity
  8
SANINDUSA
100
AcDbCircle
 10
1854.680607132544
 20
1322.35553317204
 30
0.0
 40
1.221145411848361
100
AcDbArc
 50
74.5085053003237
 51
105.4914946996763
  0
ARC
  5
1225
330
1F
100
AcDbEntity
  8
SANINDUSA
100
AcDbCircle
 10
1854.680607132544
 20
1322.98954121738
 30
0.0
 40
1.207790121207878
100
AcDbArc
 50
74.19267561017623
 51
105.8073243898238
  0
LWPOLYLINE
  5
122A
330
1F
100
AcDbEntity
  8
SANINDUSA
100
AcDbPolyline
 90
        9
 70
   128
 43
0.0
 10
1854.347824770273
 20
1323.523528820919
 10
1854.346070431195
 20
1323.523311057392
 10
1854.344295789259
 20
1323.52348978392
 10
1854.342591097389
 20
1323.524055911013
 10
1854.34104305106
 20
1323.524980647158
 10
1854.339730379228
 20
1323.526216963071
 10
1854.338719840414
 20
1323.527701983461
 10
1854.338062827566
 20
1323.529360184682
 10
1854.337792754372
 20
1323.531107235633
  0
LWPOLYLINE
  5
122F
330
1F
100
AcDbEntity
  8
SANINDUSA
100
AcDbPolyline
 90
        9
 70
   128
 43
0.0
 10
1855.023421510717
 20
1323.531107235633
 10
1855.023151437523
 20
1323.529360184682
 10
1855.022494424675
 20
1323.527701983461
 10
1855.02148388586
 20
1323.526216963071
 10
1855.020171214028
 20
1323.524980647158
 10
1855.018623167699
 20
1323.524055911013
 10
1855.016918475829
 20
1323.52348978392
 10
1855.015143833893
 20
1323.523311057392
 10
1855.013389494816
 20
1323.523528820919
  0
LWPOLYLINE
  5
1232
330
1F
100
AcDbEntity
  8
SANINDUSA
100
AcDbPolyline
 90
        9
 70
   128
 43
0.0
 10
1854.337792754372
 20
1324.150168016663
 10
1854.337919611712
 20
1324.151418558123
 10
1854.338240320441
 20
1324.152637826162
 10
1854.338746860305
 20
1324.153795329441
 10
1854.339426563802
 20
1324.154862121229
 10
1854.340262432974
 20
1324.1558115233
 10
1854.341233564484
 20
1324.156619793097
 10
1854.342315672368
 20
1324.157266717487
 10
1854.343481695376
 20
1324.157736118246
  0
LWPOLYLINE
  5
1233
330
1F
100
AcDbEntity
  8
SANINDUSA
100
AcDbPolyline
 90
        9
 70
   128
 43
0.0
 10
1855.017732569712
 20
1324.157736118246
 10
1855.01889859272
 20
1324.157266717487
 10
1855.019980700604
 20
1324.156619793097
 10
1855.020951832114
 20
1324.1558115233
 10
1855.021787701286
 20
1324.154862121229
 10
1855.022467404783
 20
1324.153795329441
 10
1855.022973944647
 20
1324.152637826162
 10
1855.023294653376
 20
1324.151418558123
 10
1855.023421510717
 20
1324.150168016663
  0
LINE
  5
1238
330
1F
100
AcDbEntity
  8
SANINDUSA
100
AcDbLine
 10
1854.280521380384
 20
1323.469708629746
 30
0.0
 11
1854.280521380384
 21
1324.255708629746
 31
0.0
  0
ARC
  5
123D
330
1F
100
AcDbEntity
  8
SANINDUSA
100
AcDbCircle
 10
1854.287521151957
 20
1323.469708401319
 30
0.0
 40
0.0069997715771216
100
AcDbArc
 50
179.9981302466576
 51
270.0
  0
ARC
  5
123F
330
1F
100
AcDbEntity
  8
SANINDUSA
100
AcDbCircle
 10
1854.287607132544
 20
1324.255708629746
 30
0.0
 40
0.0070857521602036
100
AcDbArc
 50
90.0
 51
180.0
  0
LINE
  5
124B
330
1F
100
AcDbEntity
  8
SANINDUSA
100
AcDbLine
 10
1855.073693341573
 20
1323.462708629746
 30
0.0
 11
1854.287520923516
 21
1323.462708629746
 31
0.0
  0
LINE
  5
124C
330
1F
100
AcDbEntity
  8
SANINDUSA
100
AcDbLine
 10
1854.287607132544
 20
1324.262794381906
 30
0.0
 11
1855.073607132544
 21
1324.262794381906
 31
0.0
  0
LINE
  5
124E
330
1F
100
AcDbEntity
  8
SANINDUSA
100
AcDbLine
 10
1854.337792754372
 20
1324.150168016663
 30
0.0
 11
1854.337792754372
 21
1323.531107235633
 31
0.0
  0
ARC
  5
124F
330
1F
100
AcDbEntity
  8
SANINDUSA
100
AcDbCircle
 10
1854.680607132544
 20
1322.352458629746
 30
0.0
 40
1.217435621827523
100
AcDbArc
 50
74.13647026826081
 51
105.8635297317392
  0
ARC
  5
1250
330
1F
100
AcDbEntity
  8
SANINDUSA
100
AcDbCircle
 10
1854.680607132544
 20
1322.992458629746
 30
0.0
 40
1.213064378172474
100
AcDbArc
 50
73.86435996845214
 51
106.1356400315478
  0
LINE
  5
1251
330
1F
100
AcDbEntity
  8
SANINDUSA
100
AcDbLine
 10
1855.023421510717
 20
1323.531107235633
 30
0.0
 11
1855.023421510717
 21
1324.150168016663
 31
0.0
  0
ARC
  5
1252
330
1F
100
AcDbEntity
  8
SANINDUSA
100
AcDbCircle
 10
1855.073693113131
 20
1323.469708401319
 30
0.0
 40
0.0069997715771181
100
AcDbArc
 50
270.0
 51
0.0018697533423781
  0
ARC
  5
1254
330
1F
100
AcDbEntity
  8
SANINDUSA
100
AcDbCircle
 10
1855.073607132544
 20
1324.255708629746
 30
0.0
 40
0.0070857521602034
100
AcDbArc
 50
0.0
 51
90.0
  0
LINE
  5
1256
330
1F
100
AcDbEntity
  8
SANINDUSA
100
AcDbLine
 10
1855.080692884704
 20
1324.255708629746
 30
0.0
 11
1855.080692884704
 21
1323.469708629746
 31
0.0
  0
LINE
  5
126F
330
1F
100
AcDbEntity
  8
SANINDUSA
100
AcDbLine
 10
1854.344425803864
 20
1323.539855348243
 30
0.0
 11
1854.345913411154
 21
1324.144045926499
 31
0.0
  0
LINE
  5
1278
330
1F
100
AcDbEntity
  8
SANINDUSA
100
AcDbLine
 10
1855.015300853934
 20
1324.144045926499
 30
0.0
 11
1855.016788461225
 21
1323.539855348243
 31
0.0
  0
LWPOLYLINE
  5
1279
330
1F
100
AcDbEntity
  8
SANINDUSA
100
AcDbPolyline
 90
        9
 70
   128
 43
0.0
 10
1854.354444899932
 20
1323.532314508948
 10
1854.352702685873
 20
1323.532114086048
 10
1854.350942517289
 20
1323.532305656852
 10
1854.349252919801
 20
1323.532879586529
 10
1854.347718869742
 20
1323.533807009958
 10
1854.346417520364
 20
1323.535041283461
 10
1854.345414321515
 20
1323.536520330696
 10
1854.344759727906
 20
1323.53816976471
 10
1854.34448666156
 20
1323.539906629147
  0
LWPOLYLINE
  5
127B
330
1F
100
AcDbEntity
  8
SANINDUSA
100
AcDbPolyline
 90
        9
 70
   128
 43
0.0
 10
1855.016727603528
 20
1323.539906629147
 10
1855.016454537182
 20
1323.53816976471
 10
1855.015799943573
 20
1323.536520330696
 10
1855.014796744724
 20
1323.535041283461
 10
1855.013495395347
 20
1323.533807009958
 10
1855.011961345287
 20
1323.532879586529
 10
1855.0102717478
 20
1323.532305656852
 10
1855.008511579216
 20
1323.532114086048
 10
1855.006769365157
 20
1323.532314508948
  0
LWPOLYLINE
  5
1283
330
1F
100
AcDbEntity
  8
SANINDUSA
100
AcDbPolyline
 90
        9
 70
   128
 43
0.0
 10
1854.345913411154
 20
1324.144045926499
 10
1854.346044014261
 20
1324.145297084208
 10
1854.346369355438
 20
1324.146516794773
 10
1854.346881257418
 20
1324.147674401456
 10
1854.347566853832
 20
1324.148740808465
 10
1854.348408912602
 20
1324.149689212259
 10
1854.349386269053
 20
1324.150495775245
 10
1854.350474357882
 20
1324.151140224916
 10
1854.35164583059
 20
1324.151606363392
  0
LWPOLYLINE
  5
1284
330
1F
100
AcDbEntity
  8
SANINDUSA
100
AcDbPolyline
 90
        9
 70
   128
 43
0.0
 10
1855.009568434499
 20
1324.151606363392
 10
1855.010739907206
 20
1324.151140224916
 10
1855.011827996036
 20
1324.150495775245
 10
1855.012805352487
 20
1324.149689212259
 10
1855.013647411256
 20
1324.148740808465
 10
1855.01433300767
 20
1324.147674401456
 10
1855.01484490965
 20
1324.146516794773
 10
1855.015170250827
 20
1324.145297084208
 10
1855.015300853934
 20
1324.144045926499
  0
ARC
  5
1285
330
1F
100
AcDbEntity
  8
SANINDUSA
100
AcDbCircle
 10
1854.860479568561
 20
1323.743140732992
 30
0.0
 40
0.0168316263235099
100
AcDbArc
 50
204.672345488474
 51
317.7490679623105
  0
ARC
  5
1286
330
1F
100
AcDbEntity
  8
SANINDUSA
100
AcDbCircle
 10
1854.868812735857
 20
1323.735690557718
 30
0.0
 40
0.0056547062886756
100
AcDbArc
 50
316.8536092657063
 51
25.56443023052619
  0
ARC
  5
1287
330
1F
100
AcDbEntity
  8
SANINDUSA
100
AcDbCircle
 10
1854.858618786644
 20
1323.731104708463
 30
0.0
 40
0.0168316263235087
100
AcDbArc
 50
24.67234548847394
 51
137.7490679623106
  0
ARC
  5
1288
330
1F
100
AcDbEntity
  8
SANINDUSA
100
AcDbCircle
 10
1854.850285619348
 20
1323.738554883737
 30
0.0
 40
0.0056547062887042
100
AcDbArc
 50
136.8536092657062
 51
205.5644302305262
  0
ARC
  5
1289
330
1F
100
AcDbEntity
  8
SANINDUSA
100
AcDbCircle
 10
1854.7907452007
 20
1323.744684377104
 30
0.0
 40
0.0056546864634521
100
AcDbArc
 50
139.363751626545
 51
208.0747602674293
  0
ARC
  5
128A
330
1F
100
AcDbEntity
  8
SANINDUSA
100
AcDbCircle
 10
1854.800728624023
 20
1323.749712227806
 30
0.0
 40
0.0168316685442773
100
AcDbArc
 50
207.1822305440904
 51
320.2587105507981
  0
ARC
  5
128B
330
1F
100
AcDbEntity
  8
SANINDUSA
100
AcDbCircle
 10
1854.809380038794
 20
1323.742634009651
 30
0.0
 40
0.005654686463446
100
AcDbArc
 50
319.363751626545
 51
28.07476026742933
  0
ARC
  5
128C
330
1F
100
AcDbEntity
  8
SANINDUSA
100
AcDbCircle
 10
1854.799396615472
 20
1323.737606158949
 30
0.0
 40
0.0168316685442793
100
AcDbArc
 50
27.18223054409043
 51
140.2587105507982
  0
ARC
  5
128D
330
1F
100
AcDbEntity
  8
SANINDUSA
100
AcDbCircle
 10
1854.730993451532
 20
1323.748200744791
 30
0.0
 40
0.0056546720345076
100
AcDbArc
 50
141.8739217284747
 51
210.5850718762025
  0
ARC
  5
128E
330
1F
100
AcDbEntity
  8
SANINDUSA
100
AcDbCircle
 10
1854.740747184251
 20
1323.753660939393
 30
0.0
 40
0.0168316979121293
100
AcDbArc
 50
209.6920763904133
 51
322.7683830453127
  0
ARC
  5
128F
330
1F
100
AcDbEntity
  8
SANINDUSA
100
AcDbCircle
 10
1854.749700246695
 20
1323.746968273566
 30
0.0
 40
0.0056546720344873
100
AcDbArc
 50
321.8739217284747
 51
30.58507187620248
  0
ARC
  5
1290
330
1F
100
AcDbEntity
  8
SANINDUSA
100
AcDbCircle
 10
1854.739946513977
 20
1323.741508078964
 30
0.0
 40
0.0168316979121305
100
AcDbArc
 50
29.69207639041327
 51
142.7683830453126
  0
ARC
  5
1291
330
1F
100
AcDbEntity
  8
SANINDUSA
100
AcDbCircle
 10
1854.671145024483
 20
1323.749097240067
 30
0.0
 40
0.005654663112518
100
AcDbArc
 50
144.3841182504948
 51
213.0953626844565
  0
ARC
  5
1292
330
1F
100
AcDbEntity
  8
SANINDUSA
100
AcDbCircle
 10
1854.680650344007
 20
1323.754979290422
 30
0.0
 40
0.0168317142017051
100
AcDbArc
 50
212.2018841993031
 51
325.2780879415955
  0
ARC
  5
1293
330
1F
100
AcDbEntity
  8
SANINDUSA
100
AcDbCircle
 10
1854.68988787375
 20
1323.748685032299
 30
0.0
 40
0.0056546631125367
100
AcDbArc
 50
324.3841182610855
 51
33.09536268445651
  0
ARC
  5
1294
330
1F
100
AcDbEntity
  8
SANINDUSA
100
AcDbCircle
 10
1854.680382554226
 20
1323.742802981944
 30
0.0
 40
0.0168317142017061
100
AcDbArc
 50
32.20188419930311
 51
145.2780879415955
  0
ARC
  5
1295
330
1F
100
AcDbEntity
  8
SANINDUSA
100
AcDbCircle
 10
1854.611314757631
 20
1323.747372143269
 30
0.0
 40
0.0056546597659227
100
AcDbArc
 50
146.8943397235683
 51
215.6056304494813
  0
ARC
  5
1296
330
1F
100
AcDbEntity
  8
SANINDUSA
100
AcDbCircle
 10
1854.620553419536
 20
1323.753664750944
 30
0.0
 40
0.0168317172879938
100
AcDbArc
 50
214.7116554404528
 51
327.7878275310552
  0
ARC
  5
1297
330
1F
100
AcDbEntity
  8
SANINDUSA
100
AcDbCircle
 10
1854.630057688618
 20
1323.747780991166
 30
0.0
 40
0.0056546597658863
100
AcDbArc
 50
326.8943397235684
 51
35.60563044948127
  0
ARC
  5
1298
330
1F
100
AcDbEntity
  8
SANINDUSA
100
AcDbCircle
 10
1854.620819026713
 20
1323.741488383491
 30
0.0
 40
0.0168317172879913
100
AcDbArc
 50
34.71165544045276
 51
147.7878275310552
  0
ARC
  5
1299
330
1F
100
AcDbEntity
  8
SANINDUSA
100
AcDbCircle
 10
1854.551617454135
 20
1323.743028765086
 30
0.0
 40
0.0056546620203456
100
AcDbArc
 50
149.4045844138036
 51
218.1158731133835
  0
ARC
  5
129A
330
1F
100
AcDbEntity
  8
SANINDUSA
100
AcDbCircle
 10
1854.560571727266
 20
1323.749719843251
 30
0.0
 40
0.0168317071473046
100
AcDbArc
 50
217.2213918687939
 51
330.2976037878577
  0
ARC
  5
129B
330
1F
100
AcDbEntity
  8
SANINDUSA
100
AcDbCircle
 10
1854.570324494206
 20
1323.744257884302
 30
0.0
 40
0.0056546620203695
100
AcDbArc
 50
329.4045844138036
 51
38.11587311338351
  0
ARC
  5
129C
330
1F
100
AcDbEntity
  8
SANINDUSA
100
AcDbCircle
 10
1854.561370221075
 20
1323.737566806137
 30
0.0
 40
0.0168317071473098
100
AcDbArc
 50
37.2213918687939
 51
150.2976037878577
  0
ARC
  5
129D
330
1F
100
AcDbEntity
  8
SANINDUSA
100
AcDbCircle
 10
1854.492167661948
 20
1323.736075440207
 30
0.0
 40
0.0056546698585204
100
AcDbArc
 50
151.9148504459857
 51
220.6260888084421
  0
ARC
  5
129E
330
1F
100
AcDbEntity
  8
SANINDUSA
100
AcDbCircle
 10
1854.50082036251
 20
1323.743152137036
 30
0.0
 40
0.0168316838574606
100
AcDbArc
 50
219.7310955130185
 51
332.8074184437395
  0
ARC
  5
129F
330
1F
100
AcDbEntity
  8
SANINDUSA
100
AcDbCircle
 10
1854.510802907391
 20
1323.738122471336
 30
0.0
 40
0.0056546698585428
100
AcDbArc
 50
331.9148504459858
 51
40.62608880844204
  0
ARC
  5
12A0
330
1F
100
AcDbEntity
  8
SANINDUSA
100
AcDbCircle
 10
1854.502150206829
 20
1323.731045774507
 30
0.0
 40
0.0168316838574599
100
AcDbArc
 50
39.73109551301848
 51
152.8074184437395
  0
ARC
  5
12A1
330
1F
100
AcDbEntity
  8
SANINDUSA
100
AcDbCircle
 10
1854.850285619348
 20
1323.803548547798
 30
0.0
 40
0.0056547062886989
100
AcDbArc
 50
136.8536092657062
 51
205.5644302305262
  0
ARC
  5
12A2
330
1F
100
AcDbEntity
  8
SANINDUSA
100
AcDbCircle
 10
1854.860479568561
 20
1323.808134397053
 30
0.0
 40
0.0168316263235083
100
AcDbArc
 50
204.672345488474
 51
317.7490679623105
  0
ARC
  5
12A3
330
1F
100
AcDbEntity
  8
SANINDUSA
100
AcDbCircle
 10
1854.868812735857
 20
1323.800684221778
 30
0.0
 40
0.0056547062887098
100
AcDbArc
 50
316.8536092657063
 51
25.56443023052619
  0
ARC
  5
12A4
330
1F
100
AcDbEntity
  8
SANINDUSA
100
AcDbCircle
 10
1854.858618786644
 20
1323.796098372524
 30
0.0
 40
0.0168316263235119
100
AcDbArc
 50
24.67234548847394
 51
137.7490679623106
  0
ARC
  5
12A5
330
1F
100
AcDbEntity
  8
SANINDUSA
100
AcDbCircle
 10
1854.7907452007
 20
1323.809678041164
 30
0.0
 40
0.0056546864634695
100
AcDbArc
 50
139.363751626545
 51
208.0747602674293
  0
ARC
  5
12A6
330
1F
100
AcDbEntity
  8
SANINDUSA
100
AcDbCircle
 10
1854.800728624023
 20
1323.814705891867
 30
0.0
 40
0.0168316685442799
100
AcDbArc
 50
207.1822305440904
 51
320.2587105507981
  0
ARC
  5
12A7
330
1F
100
AcDbEntity
  8
SANINDUSA
100
AcDbCircle
 10
1854.809380038794
 20
1323.807627673712
 30
0.0
 40
0.005654686463463
100
AcDbArc
 50
319.363751626545
 51
28.07476026742933
  0
ARC
  5
12A8
330
1F
100
AcDbEntity
  8
SANINDUSA
100
AcDbCircle
 10
1854.799396615472
 20
1323.802599823009
 30
0.0
 40
0.0168316685442778
100
AcDbArc
 50
27.18223054409043
 51
140.2587105507982
  0
ARC
  5
12A9
330
1F
100
AcDbEntity
  8
SANINDUSA
100
AcDbCircle
 10
1854.730993451532
 20
1323.813194408851
 30
0.0
 40
0.0056546720344912
100
AcDbArc
 50
141.8739217284747
 51
210.5850718762025
  0
ARC
  5
12AA
330
1F
100
AcDbEntity
  8
SANINDUSA
100
AcDbCircle
 10
1854.740747184251
 20
1323.818654603454
 30
0.0
 40
0.0168316979121322
100
AcDbArc
 50
209.6920763904133
 51
322.7683830453127
  0
ARC
  5
12AB
330
1F
100
AcDbEntity
  8
SANINDUSA
100
AcDbCircle
 10
1854.749700246695
 20
1323.811961937627
 30
0.0
 40
0.0056546720344812
100
AcDbArc
 50
321.8739217284747
 51
30.58507187620248
  0
ARC
  5
12AC
330
1F
100
AcDbEntity
  8
SANINDUSA
100
AcDbCircle
 10
1854.739946513977
 20
1323.806501743025
 30
0.0
 40
0.0168316979121311
100
AcDbArc
 50
29.69207639041327
 51
142.7683830453126
  0
ARC
  5
12AD
330
1F
100
AcDbEntity
  8
SANINDUSA
100
AcDbCircle
 10
1854.671145024483
 20
1323.814090904128
 30
0.0
 40
0.005654663112546
100
AcDbArc
 50
144.3841182610854
 51
213.0953626844565
  0
ARC
  5
12AE
330
1F
100
AcDbEntity
  8
SANINDUSA
100
AcDbCircle
 10
1854.680650344007
 20
1323.819972954483
 30
0.0
 40
0.0168317142017037
100
AcDbArc
 50
212.2018841993031
 51
325.2780879415955
  0
ARC
  5
12AF
330
1F
100
AcDbEntity
  8
SANINDUSA
100
AcDbCircle
 10
1854.68988787375
 20
1323.813678696359
 30
0.0
 40
0.0056546631125281
100
AcDbArc
 50
324.3841182610855
 51
33.09536268445651
  0
ARC
  5
12B0
330
1F
100
AcDbEntity
  8
SANINDUSA
100
AcDbCircle
 10
1854.680382554226
 20
1323.807796646004
 30
0.0
 40
0.0168317142017035
100
AcDbArc
 50
32.20188419930311
 51
145.2780879415955
  0
ARC
  5
12B1
330
1F
100
AcDbEntity
  8
SANINDUSA
100
AcDbCircle
 10
1854.611314757631
 20
1323.812365807329
 30
0.0
 40
0.0056546597658996
100
AcDbArc
 50
146.8943397235683
 51
215.6056304494813
  0
ARC
  5
12B2
330
1F
100
AcDbEntity
  8
SANINDUSA
100
AcDbCircle
 10
1854.620553419536
 20
1323.818658415005
 30
0.0
 40
0.0168317172879924
100
AcDbArc
 50
214.7116554404528
 51
327.7878275310552
  0
ARC
  5
12B3
330
1F
100
AcDbEntity
  8
SANINDUSA
100
AcDbCircle
 10
1854.630057688618
 20
1323.812774655227
 30
0.0
 40
0.0056546597659232
100
AcDbArc
 50
326.8943397235684
 51
35.60563044948127
  0
ARC
  5
12B4
330
1F
100
AcDbEntity
  8
SANINDUSA
100
AcDbCircle
 10
1854.620819026713
 20
1323.806482047551
 30
0.0
 40
0.0168317172879921
100
AcDbArc
 50
34.71165544045276
 51
147.7878275310552
  0
ARC
  5
12B5
330
1F
100
AcDbEntity
  8
SANINDUSA
100
AcDbCircle
 10
1854.551617454135
 20
1323.808022429147
 30
0.0
 40
0.0056546620203311
100
AcDbArc
 50
149.4045844138036
 51
218.1158731133835
  0
ARC
  5
12B6
330
1F
100
AcDbEntity
  8
SANINDUSA
100
AcDbCircle
 10
1854.560571727266
 20
1323.814713507312
 30
0.0
 40
0.0168317071473085
100
AcDbArc
 50
217.2213918687939
 51
330.2976037878577
  0
ARC
  5
12B7
330
1F
100
AcDbEntity
  8
SANINDUSA
100
AcDbCircle
 10
1854.570324494206
 20
1323.809251548363
 30
0.0
 40
0.0056546620203728
100
AcDbArc
 50
329.4045844138036
 51
38.11587311338351
  0
ARC
  5
12B8
330
1F
100
AcDbEntity
  8
SANINDUSA
100
AcDbCircle
 10
1854.561370221075
 20
1323.802560470198
 30
0.0
 40
0.0168317071473095
100
AcDbArc
 50
37.2213918687939
 51
150.2976037878577
  0
ARC
  5
12B9
330
1F
100
AcDbEntity
  8
SANINDUSA
100
AcDbCircle
 10
1854.492167661948
 20
1323.801069104267
 30
0.0
 40
0.0056546698585429
100
AcDbArc
 50
151.9148504459857
 51
220.6260888084421
  0
ARC
  5
12BA
330
1F
100
AcDbEntity
  8
SANINDUSA
100
AcDbCircle
 10
1854.50082036251
 20
1323.808145801096
 30
0.0
 40
0.0168316838574609
100
AcDbArc
 50
219.7310955130185
 51
332.8074184437395
  0
ARC
  5
12BB
330
1F
100
AcDbEntity
  8
SANINDUSA
100
AcDbCircle
 10
1854.510802907391
 20
1323.803116135397
 30
0.0
 40
0.0056546698585497
100
AcDbArc
 50
331.9148504459858
 51
40.62608880844204
  0
ARC
  5
12BC
330
1F
100
AcDbEntity
  8
SANINDUSA
100
AcDbCircle
 10
1854.502150206829
 20
1323.796039438568
 30
0.0
 40
0.0168316838574598
100
AcDbArc
 50
39.73109551301848
 51
152.8074184437395
  0
ARC
  5
12BD
330
1F
100
AcDbEntity
  8
SANINDUSA
100
AcDbCircle
 10
1854.850285619348
 20
1323.868542211859
 30
0.0
 40
0.0056547062887071
100
AcDbArc
 50
136.8536092657062
 51
205.5644302305262
  0
ARC
  5
12BE
330
1F
100
AcDbEntity
  8
SANINDUSA
100
AcDbCircle
 10
1854.860479568561
 20
1323.873128061113
 30
0.0
 40
0.0168316263235116
100
AcDbArc
 50
204.672345488474
 51
317.7490679623105
  0
ARC
  5
12BF
330
1F
100
AcDbEntity
  8
SANINDUSA
100
AcDbCircle
 10
1854.868812735857
 20
1323.865677885839
 30
0.0
 40
0.0056547062887277
100
AcDbArc
 50
316.8536092657063
 51
25.56443023052619
  0
ARC
  5
12C0
330
1F
100
AcDbEntity
  8
SANINDUSA
100
AcDbCircle
 10
1854.858618786644
 20
1323.861092036584
 30
0.0
 40
0.0168316263235127
100
AcDbArc
 50
24.67234548847394
 51
137.7490679623106
  0
ARC
  5
12C1
330
1F
100
AcDbEntity
  8
SANINDUSA
100
AcDbCircle
 10
1854.7907452007
 20
1323.874671705225
 30
0.0
 40
0.005654686463446
100
AcDbArc
 50
139.363751626545
 51
208.0747602674293
  0
ARC
  5
12C2
330
1F
100
AcDbEntity
  8
SANINDUSA
100
AcDbCircle
 10
1854.800728624023
 20
1323.879699555927
 30
0.0
 40
0.0168316685442785
100
AcDbArc
 50
207.1822305440904
 51
320.2587105507981
  0
ARC
  5
12C3
330
1F
100
AcDbEntity
  8
SANINDUSA
100
AcDbCircle
 10
1854.809380038794
 20
1323.872621337772
 30
0.0
 40
0.0056546864635012
100
AcDbArc
 50
319.363751626545
 51
28.07476026742933
  0
ARC
  5
12C4
330
1F
100
AcDbEntity
  8
SANINDUSA
100
AcDbCircle
 10
1854.799396615472
 20
1323.86759348707
 30
0.0
 40
0.0168316685442795
100
AcDbArc
 50
27.18223054409043
 51
140.2587105507982
  0
ARC
  5
12C5
330
1F
100
AcDbEntity
  8
SANINDUSA
100
AcDbCircle
 10
1854.730993451532
 20
1323.878188072912
 30
0.0
 40
0.0056546720345018
100
AcDbArc
 50
141.8739217284747
 51
210.5850718762025
  0
ARC
  5
12C6
330
1F
100
AcDbEntity
  8
SANINDUSA
100
AcDbCircle
 10
1854.740747184251
 20
1323.883648267514
 30
0.0
 40
0.016831697912129
100
AcDbArc
 50
209.6920763904133
 51
322.7683830453127
  0
ARC
  5
12C7
330
1F
100
AcDbEntity
  8
SANINDUSA
100
AcDbCircle
 10
1854.749700246695
 20
1323.876955601688
 30
0.0
 40
0.0056546720345036
100
AcDbArc
 50
321.8739217284747
 51
30.58507187620248
  0
ARC
  5
12C8
330
1F
100
AcDbEntity
  8
SANINDUSA
100
AcDbCircle
 10
1854.739946513977
 20
1323.871495407085
 30
0.0
 40
0.0168316979121309
100
AcDbArc
 50
29.69207639041327
 51
142.7683830453126
  0
ARC
  5
12C9
330
1F
100
AcDbEntity
  8
SANINDUSA
100
AcDbCircle
 10
1854.671145024483
 20
1323.879084568189
 30
0.0
 40
0.0056546631125183
100
AcDbArc
 50
144.3841182504948
 51
213.0953626844565
  0
ARC
  5
12CA
330
1F
100
AcDbEntity
  8
SANINDUSA
100
AcDbCircle
 10
1854.680650344007
 20
1323.884966618543
 30
0.0
 40
0.0168317142017047
100
AcDbArc
 50
212.2018841993031
 51
325.2780879415955
  0
ARC
  5
12CB
330
1F
100
AcDbEntity
  8
SANINDUSA
100
AcDbCircle
 10
1854.68988787375
 20
1323.87867236042
 30
0.0
 40
0.0056546631125178
100
AcDbArc
 50
324.3841182504949
 51
33.09536268445651
  0
ARC
  5
12CC
330
1F
100
AcDbEntity
  8
SANINDUSA
100
AcDbCircle
 10
1854.680382554226
 20
1323.872790310065
 30
0.0
 40
0.0168317142017065
100
AcDbArc
 50
32.20188419930311
 51
145.2780879415955
  0
ARC
  5
12CD
330
1F
100
AcDbEntity
  8
SANINDUSA
100
AcDbCircle
 10
1854.611314757631
 20
1323.87735947139
 30
0.0
 40
0.0056546597658902
100
AcDbArc
 50
146.8943397235683
 51
215.6056304494813
  0
ARC
  5
12CE
330
1F
100
AcDbEntity
  8
SANINDUSA
100
AcDbCircle
 10
1854.620553419536
 20
1323.883652079065
 30
0.0
 40
0.0168317172879943
100
AcDbArc
 50
214.7116554404528
 51
327.7878275310552
  0
ARC
  5
12CF
330
1F
100
AcDbEntity
  8
SANINDUSA
100
AcDbCircle
 10
1854.630057688618
 20
1323.877768319287
 30
0.0
 40
0.0056546597659075
100
AcDbArc
 50
326.8943397235684
 51
35.60563044948127
  0
ARC
  5
12D0
330
1F
100
AcDbEntity
  8
SANINDUSA
100
AcDbCircle
 10
1854.620819026713
 20
1323.871475711612
 30
0.0
 40
0.0168317172879942
100
AcDbArc
 50
34.71165544045276
 51
147.7878275310552
  0
ARC
  5
12D1
330
1F
100
AcDbEntity
  8
SANINDUSA
100
AcDbCircle
 10
1854.551617454135
 20
1323.873016093208
 30
0.0
 40
0.0056546620203234
100
AcDbArc
 50
149.4045844138036
 51
218.1158731133835
  0
ARC
  5
12D2
330
1F
100
AcDbEntity
  8
SANINDUSA
100
AcDbCircle
 10
1854.560571727266
 20
1323.879707171372
 30
0.0
 40
0.0168317071473094
100
AcDbArc
 50
217.2213918687939
 51
330.2976037878577
  0
ARC
  5
12D3
330
1F
100
AcDbEntity
  8
SANINDUSA
100
AcDbCircle
 10
1854.570324494206
 20
1323.874245212423
 30
0.0
 40
0.0056546620203747
100
AcDbArc
 50
329.4045844138036
 51
38.11587311338351
  0
ARC
  5
12D4
330
1F
100
AcDbEntity
  8
SANINDUSA
100
AcDbCircle
 10
1854.561370221075
 20
1323.867554134259
 30
0.0
 40
0.016831707147309
100
AcDbArc
 50
37.2213918687939
 51
150.2976037878577
  0
ARC
  5
12D5
330
1F
100
AcDbEntity
  8
SANINDUSA
100
AcDbCircle
 10
1854.492167661948
 20
1323.866062768328
 30
0.0
 40
0.0056546698585432
100
AcDbArc
 50
151.9148504459857
 51
220.6260888084421
  0
ARC
  5
12D6
330
1F
100
AcDbEntity
  8
SANINDUSA
100
AcDbCircle
 10
1854.50082036251
 20
1323.873139465157
 30
0.0
 40
0.0168316838574595
100
AcDbArc
 50
219.7310955130185
 51
332.8074184437395
  0
ARC
  5
12D7
330
1F
100
AcDbEntity
  8
SANINDUSA
100
AcDbCircle
 10
1854.510802907391
 20
1323.868109799458
 30
0.0
 40
0.0056546698585467
100
AcDbArc
 50
331.9148504459858
 51
40.62608880844204
  0
ARC
  5
12D8
330
1F
100
AcDbEntity
  8
SANINDUSA
100
AcDbCircle
 10
1854.502150206829
 20
1323.861033102628
 30
0.0
 40
0.0168316838574556
100
AcDbArc
 50
39.73109551301848
 51
152.8074184437395
  0
ARC
  5
12D9
330
1F
100
AcDbEntity
  8
SANINDUSA
100
AcDbCircle
 10
1854.850285619348
 20
1323.933535875919
 30
0.0
 40
0.005654706288686
100
AcDbArc
 50
136.8536092657062
 51
205.5644302305262
  0
ARC
  5
12DA
330
1F
100
AcDbEntity
  8
SANINDUSA
100
AcDbCircle
 10
1854.860479568561
 20
1323.938121725174
 30
0.0
 40
0.0168316263235114
100
AcDbArc
 50
204.672345488474
 51
317.7490679623105
  0
ARC
  5
12DB
330
1F
100
AcDbEntity
  8
SANINDUSA
100
AcDbCircle
 10
1854.868812735857
 20
1323.930671549899
 30
0.0
 40
0.0056547062887196
100
AcDbArc
 50
316.8536092657063
 51
25.56443023052619
  0
ARC
  5
12DC
330
1F
100
AcDbEntity
  8
SANINDUSA
100
AcDbCircle
 10
1854.858618786644
 20
1323.926085700645
 30
0.0
 40
0.016831626323512
100
AcDbArc
 50
24.67234548847394
 51
137.7490679623106
  0
ARC
  5
12DD
330
1F
100
AcDbEntity
  8
SANINDUSA
100
AcDbCircle
 10
1854.7907452007
 20
1323.939665369286
 30
0.0
 40
0.0056546864634409
100
AcDbArc
 50
139.363751626545
 51
208.0747602674293
  0
ARC
  5
12DE
330
1F
100
AcDbEntity
  8
SANINDUSA
100
AcDbCircle
 10
1854.800728624023
 20
1323.944693219988
 30
0.0
 40
0.0168316685442768
100
AcDbArc
 50
207.1822305440904
 51
320.2587105507981
  0
ARC
  5
12DF
330
1F
100
AcDbEntity
  8
SANINDUSA
100
AcDbCircle
 10
1854.809380038794
 20
1323.937615001833
 30
0.0
 40
0.0056546864634794
100
AcDbArc
 50
319.363751626545
 51
28.07476026742933
  0
ARC
  5
12E0
330
1F
100
AcDbEntity
  8
SANINDUSA
100
AcDbCircle
 10
1854.799396615472
 20
1323.932587151131
 30
0.0
 40
0.0168316685442759
100
AcDbArc
 50
27.18223054409043
 51
140.2587105507982
  0
ARC
  5
12E1
330
1F
100
AcDbEntity
  8
SANINDUSA
100
AcDbCircle
 10
1854.730993451532
 20
1323.943181736972
 30
0.0
 40
0.0056546720345075
100
AcDbArc
 50
141.8739217284747
 51
210.5850718762025
  0
ARC
  5
12E2
330
1F
100
AcDbEntity
  8
SANINDUSA
100
AcDbCircle
 10
1854.740747184251
 20
1323.948641931575
 30
0.0
 40
0.0168316979121293
100
AcDbArc
 50
209.6920763904133
 51
322.7683830453127
  0
ARC
  5
12E3
330
1F
100
AcDbEntity
  8
SANINDUSA
100
AcDbCircle
 10
1854.749700246695
 20
1323.941949265748
 30
0.0
 40
0.0056546720344683
100
AcDbArc
 50
321.8739217284747
 51
30.58507187620248
  0
ARC
  5
12E4
330
1F
100
AcDbEntity
  8
SANINDUSA
100
AcDbCircle
 10
1854.739946513977
 20
1323.936489071146
 30
0.0
 40
0.0168316979121279
100
AcDbArc
 50
29.69207639041327
 51
142.7683830453126
  0
ARC
  5
12E5
330
1F
100
AcDbEntity
  8
SANINDUSA
100
AcDbCircle
 10
1854.671145024483
 20
1323.944078232249
 30
0.0
 40
0.0056546631124975
100
AcDbArc
 50
144.3841182504948
 51
213.0953626844565
  0
ARC
  5
12E6
330
1F
100
AcDbEntity
  8
SANINDUSA
100
AcDbCircle
 10
1854.680650344007
 20
1323.949960282604
 30
0.0
 40
0.0168317142017041
100
AcDbArc
 50
212.2018841993031
 51
325.2780879415955
  0
ARC
  5
12E7
330
1F
100
AcDbEntity
  8
SANINDUSA
100
AcDbCircle
 10
1854.68988787375
 20
1323.94366602448
 30
0.0
 40
0.0056546631125124
100
AcDbArc
 50
324.3841182504949
 51
33.09536268445651
  0
ARC
  5
12E8
330
1F
100
AcDbEntity
  8
SANINDUSA
100
AcDbCircle
 10
1854.680382554226
 20
1323.937783974125
 30
0.0
 40
0.0168317142017041
100
AcDbArc
 50
32.20188419930311
 51
145.2780879415955
  0
ARC
  5
12E9
330
1F
100
AcDbEntity
  8
SANINDUSA
100
AcDbCircle
 10
1854.611314757631
 20
1323.942353135451
 30
0.0
 40
0.0056546597658841
100
AcDbArc
 50
146.8943397235683
 51
215.6056304494813
  0
ARC
  5
12EA
330
1F
100
AcDbEntity
  8
SANINDUSA
100
AcDbCircle
 10
1854.620553419536
 20
1323.948645743126
 30
0.0
 40
0.016831717287993
100
AcDbArc
 50
214.7116554404528
 51
327.7878275310552
  0
ARC
  5
12EB
330
1F
100
AcDbEntity
  8
SANINDUSA
100
AcDbCircle
 10
1854.630057688618
 20
1323.942761983348
 30
0.0
 40
0.0056546597658599
100
AcDbArc
 50
326.8943397235684
 51
35.60563044948127
  0
ARC
  5
12EC
330
1F
100
AcDbEntity
  8
SANINDUSA
100
AcDbCircle
 10
1854.620819026713
 20
1323.936469375672
 30
0.0
 40
0.0168317172879904
100
AcDbArc
 50
34.71165544045276
 51
147.7878275310552
  0
ARC
  5
12ED
330
1F
100
AcDbEntity
  8
SANINDUSA
100
AcDbCircle
 10
1854.551617454135
 20
1323.938009757268
 30
0.0
 40
0.0056546620202992
100
AcDbArc
 50
149.4045844138036
 51
218.1158731133835
  0
ARC
  5
12EE
330
1F
100
AcDbEntity
  8
SANINDUSA
100
AcDbCircle
 10
1854.560571727266
 20
1323.944700835433
 30
0.0
 40
0.0168317071473102
100
AcDbArc
 50
217.2213918687939
 51
330.2976037878577
  0
ARC
  5
12EF
330
1F
100
AcDbEntity
  8
SANINDUSA
100
AcDbCircle
 10
1854.570324494207
 20
1323.939238876484
 30
0.0
 40
0.005654662020338
100
AcDbArc
 50
329.4045844138036
 51
38.11587311338351
  0
ARC
  5
12F0
330
1F
100
AcDbEntity
  8
SANINDUSA
100
AcDbCircle
 10
1854.561370221075
 20
1323.932547798319
 30
0.0
 40
0.0168317071473128
100
AcDbArc
 50
37.2213918687939
 51
150.2976037878577
  0
ARC
  5
12F1
330
1F
100
AcDbEntity
  8
SANINDUSA
100
AcDbCircle
 10
1854.492167661948
 20
1323.931056432388
 30
0.0
 40
0.005654669858561
100
AcDbArc
 50
151.9148504459857
 51
220.6260888084421
  0
ARC
  5
12F2
330
1F
100
AcDbEntity
  8
SANINDUSA
100
AcDbCircle
 10
1854.50082036251
 20
1323.938133129218
 30
0.0
 40
0.0168316838574584
100
AcDbArc
 50
219.7310955130185
 51
332.8074184437395
  0
ARC
  5
12F3
330
1F
100
AcDbEntity
  8
SANINDUSA
100
AcDbCircle
 10
1854.510802907391
 20
1323.933103463518
 30
0.0
 40
0.0056546698585041
100
AcDbArc
 50
331.9148504459858
 51
40.62608880844204
  0
ARC
  5
12F4
330
1F
100
AcDbEntity
  8
SANINDUSA
100
AcDbCircle
 10
1854.502150206829
 20
1323.926026766689
 30
0.0
 40
0.0168316838574568
100
AcDbArc
 50
39.73109551301848
 51
152.8074184437395
  0
ARC
  5
12F5
330
1F
100
AcDbEntity
  8
SANINDUSA
100
AcDbCircle
 10
1854.850285619348
 20
1323.99852953998
 30
0.0
 40
0.0056547062886894
100
AcDbArc
 50
136.8536092657062
 51
205.5644302305262
  0
ARC
  5
12F6
330
1F
100
AcDbEntity
  8
SANINDUSA
100
AcDbCircle
 10
1854.860479568561
 20
1324.003115389234
 30
0.0
 40
0.0168316263235057
100
AcDbArc
 50
204.672345488474
 51
317.7490679623105
  0
ARC
  5
12F7
330
1F
100
AcDbEntity
  8
SANINDUSA
100
AcDbCircle
 10
1854.868812735857
 20
1323.99566521396
 30
0.0
 40
0.0056547062886994
100
AcDbArc
 50
316.8536092657063
 51
25.56443023052619
  0
ARC
  5
12F8
330
1F
100
AcDbEntity
  8
SANINDUSA
100
AcDbCircle
 10
1854.858618786644
 20
1323.991079364706
 30
0.0
 40
0.01683162632351
100
AcDbArc
 50
24.67234548847394
 51
137.7490679623106
  0
ARC
  5
12F9
330
1F
100
AcDbEntity
  8
SANINDUSA
100
AcDbCircle
 10
1854.7907452007
 20
1324.004659033346
 30
0.0
 40
0.0056546864634654
100
AcDbArc
 50
139.363751626545
 51
208.0747602674293
  0
ARC
  5
12FA
330
1F
100
AcDbEntity
  8
SANINDUSA
100
AcDbCircle
 10
1854.800728624023
 20
1324.009686884048
 30
0.0
 40
0.0168316685442752
100
AcDbArc
 50
207.1822305440904
 51
320.2587105507981
  0
ARC
  5
12FB
330
1F
100
AcDbEntity
  8
SANINDUSA
100
AcDbCircle
 10
1854.809380038794
 20
1324.002608665894
 30
0.0
 40
0.0056546864634633
100
AcDbArc
 50
319.363751626545
 51
28.07476026742933
  0
ARC
  5
12FC
330
1F
100
AcDbEntity
  8
SANINDUSA
100
AcDbCircle
 10
1854.799396615472
 20
1323.997580815191
 30
0.0
 40
0.0168316685442771
100
AcDbArc
 50
27.18223054409043
 51
140.2587105507982
  0
ARC
  5
12FD
330
1F
100
AcDbEntity
  8
SANINDUSA
100
AcDbCircle
 10
1854.730993451532
 20
1324.008175401033
 30
0.0
 40
0.0056546720344718
100
AcDbArc
 50
141.8739217284747
 51
210.5850718762025
  0
ARC
  5
12FE
330
1F
100
AcDbEntity
  8
SANINDUSA
100
AcDbCircle
 10
1854.740747184251
 20
1324.013635595635
 30
0.0
 40
0.0168316979121303
100
AcDbArc
 50
209.6920763904133
 51
322.7683830453127
  0
ARC
  5
12FF
330
1F
100
AcDbEntity
  8
SANINDUSA
100
AcDbCircle
 10
1854.749700246695
 20
1324.006942929809
 30
0.0
 40
0.0056546720344901
100
AcDbArc
 50
321.8739217284747
 51
30.58507187620248
  0
ARC
  5
1300
330
1F
100
AcDbEntity
  8
SANINDUSA
100
AcDbCircle
 10
1854.739946513977
 20
1324.001482735207
 30
0.0
 40
0.0168316979121328
100
AcDbArc
 50
29.69207639041327
 51
142.7683830453126
  0
ARC
  5
1301
330
1F
100
AcDbEntity
  8
SANINDUSA
100
AcDbCircle
 10
1854.671145024483
 20
1324.00907189631
 30
0.0
 40
0.0056546631124758
100
AcDbArc
 50
144.3841182504948
 51
213.0953626844565
  0
ARC
  5
1302
330
1F
100
AcDbEntity
  8
SANINDUSA
100
AcDbCircle
 10
1854.680650344007
 20
1324.014953946665
 30
0.0
 40
0.0168317142017066
100
AcDbArc
 50
212.2018841993031
 51
325.2780879415955
  0
ARC
  5
1303
330
1F
100
AcDbEntity
  8
SANINDUSA
100
AcDbCircle
 10
1854.68988787375
 20
1324.008659688541
 30
0.0
 40
0.005654663112547
100
AcDbArc
 50
324.3841182610855
 51
33.09536268445651
  0
ARC
  5
1304
330
1F
100
AcDbEntity
  8
SANINDUSA
100
AcDbCircle
 10
1854.680382554226
 20
1324.002777638186
 30
0.0
 40
0.0168317142017024
100
AcDbArc
 50
32.20188419930311
 51
145.2780879415955
  0
ARC
  5
1305
330
1F
100
AcDbEntity
  8
SANINDUSA
100
AcDbCircle
 10
1854.611314757631
 20
1324.007346799511
 30
0.0
 40
0.0056546597659263
100
AcDbArc
 50
146.8943397235683
 51
215.6056304494813
  0
ARC
  5
1306
330
1F
100
AcDbEntity
  8
SANINDUSA
100
AcDbCircle
 10
1854.620553419536
 20
1324.013639407187
 30
0.0
 40
0.016831717287989
100
AcDbArc
 50
214.7116554404528
 51
327.7878275310552
  0
ARC
  5
1307
330
1F
100
AcDbEntity
  8
SANINDUSA
100
AcDbCircle
 10
1854.630057688618
 20
1324.007755647409
 30
0.0
 40
0.0056546597658782
100
AcDbArc
 50
326.8943397235684
 51
35.60563044948127
  0
ARC
  5
1308
330
1F
100
AcDbEntity
  8
SANINDUSA
100
AcDbCircle
 10
1854.620819026713
 20
1324.001463039733
 30
0.0
 40
0.0168317172879953
100
AcDbArc
 50
34.71165544045276
 51
147.7878275310552
  0
ARC
  5
1309
330
1F
100
AcDbEntity
  8
SANINDUSA
100
AcDbCircle
 10
1854.551617454135
 20
1324.003003421329
 30
0.0
 40
0.0056546620203427
100
AcDbArc
 50
149.4045844138036
 51
218.1158731133835
  0
ARC
  5
130A
330
1F
100
AcDbEntity
  8
SANINDUSA
100
AcDbCircle
 10
1854.560571727266
 20
1324.009694499493
 30
0.0
 40
0.0168317071473073
100
AcDbArc
 50
217.2213918687939
 51
330.2976037878577
  0
ARC
  5
130B
330
1F
100
AcDbEntity
  8
SANINDUSA
100
AcDbCircle
 10
1854.570324494207
 20
1324.004232540545
 30
0.0
 40
0.005654662020335
100
AcDbArc
 50
329.4045844138036
 51
38.11587311338351
  0
ARC
  5
130C
330
1F
100
AcDbEntity
  8
SANINDUSA
100
AcDbCircle
 10
1854.561370221075
 20
1323.99754146238
 30
0.0
 40
0.0168317071473078
100
AcDbArc
 50
37.2213918687939
 51
150.2976037878577
  0
ARC
  5
130D
330
1F
100
AcDbEntity
  8
SANINDUSA
100
AcDbCircle
 10
1854.492167661948
 20
1323.996050096449
 30
0.0
 40
0.0056546698585801
100
AcDbArc
 50
151.9148504459857
 51
220.6260888084421
  0
ARC
  5
130E
330
1F
100
AcDbEntity
  8
SANINDUSA
100
AcDbCircle
 10
1854.50082036251
 20
1324.003126793278
 30
0.0
 40
0.0168316838574562
100
AcDbArc
 50
219.7310955130185
 51
332.8074184437395
  0
ARC
  5
130F
330
1F
100
AcDbEntity
  8
SANINDUSA
100
AcDbCircle
 10
1854.510802907391
 20
1323.998097127579
 30
0.0
 40
0.0056546698585177
100
AcDbArc
 50
331.9148504459858
 51
40.62608880844204
  0
ARC
  5
1310
330
1F
100
AcDbEntity
  8
SANINDUSA
100
AcDbCircle
 10
1854.502150206829
 20
1323.99102043075
 30
0.0
 40
0.0168316838574553
100
AcDbArc
 50
39.73109551301848
 51
152.8074184437395
  0
LWPOLYLINE
  5
1311
330
1F
100
AcDbEntity
  8
SANINDUSA
100
AcDbPolyline
 90
       69
 70
   128
 43
0.0
 10
1854.680607132544
 20
1324.070028648128
 10
1854.676771438316
 20
1324.070205965689
 10
1854.672968468879
 20
1324.07073640556
 10
1854.669230669826
 20
1324.071615442215
 10
1854.665589930743
 20
1324.072835576024
 10
1854.66207731313
 20
1324.074386397235
 10
1854.658722785403
 20
1324.076254674789
 10
1854.655554967209
 20
1324.078424469199
 10
1854.652600885257
 20
1324.080877268545
 10
1854.649885742732
 20
1324.083592146409
 10
1854.647432704274
 20
1324.086545940409
 10
1854.64526269834
 20
1324.089713449816
 10
1854.643394238657
 20
1324.093067650557
 10
1854.641843266263
 20
1324.096579925774
 10
1854.640623013509
 20
1324.100220309973
 10
1854.63974389116
 20
1324.10395774468
 10
1854.639213399579
 20
1324.107760343419
 10
1854.639036064732
 20
1324.111595663759
 10
1854.639213399579
 20
1324.115430984099
 10
1854.63974389116
 20
1324.119233582838
 10
1854.640623013509
 20
1324.122971017545
 10
1854.641843266263
 20
1324.126611401744
 10
1854.643394238657
 20
1324.130123676961
 10
1854.64526269834
 20
1324.133477877702
 10
1854.647432704274
 20
1324.136645387109
 10
1854.649885742732
 20
1324.139599181109
 10
1854.652600885257
 20
1324.142314058972
 10
1854.655554967209
 20
1324.144766858319
 10
1854.658722785403
 20
1324.14693665273
 10
1854.66207731313
 20
1324.148804930283
 10
1854.665589930743
 20
1324.150355751494
 10
1854.669230669826
 20
1324.151575885303
 10
1854.672968468879
 20
1324.152454921958
 10
1854.676771438316
 20
1324.152985361829
 10
1854.680607132544
 20
1324.15316267939
 10
1854.684442826772
 20
1324.152985361829
 10
1854.68824579621
 20
1324.152454921958
 10
1854.691983595262
 20
1324.151575885303
 10
1854.695624334345
 20
1324.150355751494
 10
1854.699136951958
 20
1324.148804930283
 10
1854.702491479685
 20
1324.14693665273
 10
1854.705659297879
 20
1324.144766858319
 10
1854.70861337983
 20
1324.142314058972
 10
1854.711328522355
 20
1324.139599181109
 10
1854.713781560814
 20
1324.136645387109
 10
1854.715951566748
 20
1324.133477877702
 10
1854.717820026432
 20
1324.130123676961
 10
1854.719370998825
 20
1324.126611401744
 10
1854.720591251579
 20
1324.122971017545
 10
1854.721470373928
 20
1324.119233582838
 10
1854.722000865509
 20
1324.115430984099
 10
1854.722178200356
 20
1324.111595663759
 10
1854.722000865509
 20
1324.107760343419
 10
1854.721470373928
 20
1324.10395774468
 10
1854.720591251579
 20
1324.100220309973
 10
1854.719370998825
 20
1324.096579925774
 10
1854.717820026432
 20
1324.093067650557
 10
1854.715951566748
 20
1324.089713449816
 10
1854.713781560814
 20
1324.086545940409
 10
1854.711328522355
 20
1324.083592146409
 10
1854.70861337983
 20
1324.080877268545
 10
1854.705659297879
 20
1324.078424469199
 10
1854.702491479685
 20
1324.076254674789
 10
1854.699136951958
 20
1324.074386397235
 10
1854.695624334345
 20
1324.072835576024
 10
1854.691983595262
 20
1324.071615442215
 10
1854.68824579621
 20
1324.07073640556
 10
1854.684442826772
 20
1324.070205965689
 10
1854.680607132544
 20
1324.070028648128
  0
CIRCLE
  5
14B8
330
1F
100
AcDbEntity
  8
SANINDUSA
100
AcDbCircle
 10
1854.680607132544
 20
1324.111595663759
 30
0.0
 40
0.0300000000000007
  0
ARC
  5
14F5
330
1F
100
AcDbEntity
  8
SANINDUSA
100
AcDbCircle
 10
1857.779710416533
 20
1323.850746964976
 30
0.0
 40
0.0241211654552038
100
AcDbArc
 50
76.71006355157903
 51
89.96127404853053
  0
ARC
  5
14F7
330
1F
100
AcDbEntity
  8
SANINDUSA
100
AcDbCircle
 10
1857.844704080594
 20
1323.849839423252
 30
0.0
 40
0.0241211654564079
100
AcDbArc
 50
76.71006355157903
 51
89.96127404853053
  0
ARC
  5
14F9
330
1F
100
AcDbEntity
  8
SANINDUSA
100
AcDbCircle
 10
1858.039685072775
 20
1323.847116798085
 30
0.0
 40
0.0241211654570787
100
AcDbArc
 50
76.71006355157903
 51
89.96127404853053
  0
ARC
  5
14FB
330
1F
100
AcDbEntity
  8
SANINDUSA
100
AcDbCircle
 10
1857.909697744654
 20
1323.84893188153
 30
0.0
 40
0.0241211654564749
100
AcDbArc
 50
76.71006355157903
 51
89.96127404853053
  0
ARC
  5
14FD
330
1F
100
AcDbEntity
  8
SANINDUSA
100
AcDbCircle
 10
1857.974691408715
 20
1323.848024339808
 30
0.0
 40
0.0241211654564711
100
AcDbArc
 50
76.71006355157903
 51
89.96127404853053
  0
ARC
  5
14FF
330
1F
100
AcDbEntity
  8
SANINDUSA
100
AcDbCircle
 10
1857.778923136146
 20
1323.852326462727
 30
0.0
 40
0.0225557861685473
100
AcDbArc
 50
87.98137827151665
 51
102.1522924913674
  0
ARC
  5
1501
330
1F
100
AcDbEntity
  8
SANINDUSA
100
AcDbCircle
 10
1857.843916800207
 20
1323.851418921007
 30
0.0
 40
0.0225557861658247
100
AcDbArc
 50
87.98137827151665
 51
102.152292504103
  0
ARC
  5
1503
330
1F
100
AcDbEntity
  8
SANINDUSA
100
AcDbCircle
 10
1858.038897792388
 20
1323.848696295843
 30
0.0
 40
0.0225557861648846
100
AcDbArc
 50
87.98137827151665
 51
102.152292504103
  0
ARC
  5
1505
330
1F
100
AcDbEntity
  8
SANINDUSA
100
AcDbCircle
 10
1857.908910464267
 20
1323.850511379285
 30
0.0
 40
0.0225557861669431
100
AcDbArc
 50
87.98137827151665
 51
102.1522924913674
  0
ARC
  5
1507
330
1F
100
AcDbEntity
  8
SANINDUSA
100
AcDbCircle
 10
1857.973904128328
 20
1323.849603837564
 30
0.0
 40
0.0225557861653668
100
AcDbArc
 50
87.98137827151665
 51
102.152292504103
  0
LINE
  5
1511
330
1F
100
AcDbEntity
  8
SANINDUSA
100
AcDbLine
 10
1858.018202163574
 20
1323.829926338163
 30
0.0
 11
1858.024698855965
 21
1323.854172324249
 31
0.0
  0
LINE
  5
1512
330
1F
100
AcDbEntity
  8
SANINDUSA
100
AcDbLine
 10
1858.011991143352
 20
1323.849247231486
 30
0.0
 11
1858.014028100956
 21
1323.856849260758
 31
0.0
  0
ARC
  5
1514
330
1F
100
AcDbEntity
  8
SANINDUSA
100
AcDbCircle
 10
1858.029528485097
 20
1323.852878229023
 30
0.0
 40
0.005
100
AcDbArc
 50
89.19999999382168
 51
165.0000000030343
  0
LINE
  5
1518
330
1F
100
AcDbEntity
  8
SANINDUSA
100
AcDbLine
 10
1858.112407768221
 20
1323.856346998891
 30
0.0
 11
1858.112407768221
 21
1323.843961614344
 31
0.0
  0
ARC
  5
1519
330
1F
100
AcDbEntity
  8
SANINDUSA
100
AcDbCircle
 10
1858.107407768221
 20
1323.856346998891
 30
0.0
 40
0.005
100
AcDbArc
 50
0.0
 51
57.5000000007151
  0
LINE
  5
151A
330
1F
100
AcDbEntity
  8
SANINDUSA
100
AcDbLine
 10
1858.17240776822
 20
1323.843961614344
 30
0.0
 11
1858.17240776822
 21
1323.855774489602
 31
0.0
  0
LINE
  5
151C
330
1F
100
AcDbEntity
  8
SANINDUSA
100
AcDbLine
 10
1857.929381524526
 20
1323.838255709569
 30
0.0
 11
1857.931613372867
 21
1323.829926338163
 31
0.0
  0
ARC
  5
151D
330
1F
100
AcDbEntity
  8
SANINDUSA
100
AcDbCircle
 10
1857.924551895394
 20
1323.836961614343
 30
0.0
 40
0.0050000000000001
100
AcDbArc
 50
14.99999999696573
 51
90.0
  0
ARC
  5
151E
330
1F
100
AcDbEntity
  8
SANINDUSA
100
AcDbCircle
 10
1857.924551895394
 20
1323.836961614343
 30
0.0
 40
0.0160000000000002
100
AcDbArc
 50
40.86723065689434
 51
90.0
  0
LINE
  5
151F
330
1F
100
AcDbEntity
  8
SANINDUSA
100
AcDbLine
 10
1857.704381524525
 20
1323.838255709569
 30
0.0
 11
1857.706613372867
 21
1323.829926338163
 31
0.0
  0
ARC
  5
1520
330
1F
100
AcDbEntity
  8
SANINDUSA
100
AcDbCircle
 10
1857.699551895394
 20
1323.836961614343
 30
0.0
 40
0.005
100
AcDbArc
 50
14.99999999696573
 51
90.0
  0
ARC
  5
1521
330
1F
100
AcDbEntity
  8
SANINDUSA
100
AcDbCircle
 10
1857.699551895394
 20
1323.836961614343
 30
0.0
 40
0.016
100
AcDbArc
 50
40.86723065689434
 51
90.0
  0
LINE
  5
1522
330
1F
100
AcDbEntity
  8
SANINDUSA
100
AcDbLine
 10
1857.779381524526
 20
1323.838255709569
 30
0.0
 11
1857.781613372867
 21
1323.829926338163
 31
0.0
  0
ARC
  5
1523
330
1F
100
AcDbEntity
  8
SANINDUSA
100
AcDbCircle
 10
1857.774551895394
 20
1323.836961614343
 30
0.0
 40
0.0050000000000001
100
AcDbArc
 50
14.99999999696573
 51
90.0
  0
ARC
  5
1524
330
1F
100
AcDbEntity
  8
SANINDUSA
100
AcDbCircle
 10
1857.774551895394
 20
1323.836961614343
 30
0.0
 40
0.0160000000000002
100
AcDbArc
 50
40.86723065689434
 51
90.0
  0
LINE
  5
1525
330
1F
100
AcDbEntity
  8
SANINDUSA
100
AcDbLine
 10
1857.854381524526
 20
1323.838255709569
 30
0.0
 11
1857.856613372867
 21
1323.829926338163
 31
0.0
  0
ARC
  5
1526
330
1F
100
AcDbEntity
  8
SANINDUSA
100
AcDbCircle
 10
1857.849551895394
 20
1323.836961614343
 30
0.0
 40
0.0050000000000001
100
AcDbArc
 50
14.99999999696573
 51
90.0
  0
ARC
  5
1527
330
1F
100
AcDbEntity
  8
SANINDUSA
100
AcDbCircle
 10
1857.849551895394
 20
1323.836961614343
 30
0.0
 40
0.0160000000000002
100
AcDbArc
 50
40.86723065689434
 51
90.0
  0
LINE
  5
152C
330
1F
100
AcDbEntity
  8
SANINDUSA
100
AcDbLine
 10
1857.943202163574
 20
1323.829926338163
 30
0.0
 11
1857.945434011915
 21
1323.838255709569
 31
0.0
  0
LINE
  5
152E
330
1F
100
AcDbEntity
  8
SANINDUSA
100
AcDbLine
 10
1857.868202163574
 20
1323.829926338163
 30
0.0
 11
1857.870434011915
 21
1323.838255709569
 31
0.0
  0
ARC
  5
152F
330
1F
100
AcDbEntity
  8
SANINDUSA
100
AcDbCircle
 10
1857.875263641047
 20
1323.836961614343
 30
0.0
 40
0.005
100
AcDbArc
 50
90.0
 51
165.0000000030343
  0
ARC
  5
1530
330
1F
100
AcDbEntity
  8
SANINDUSA
100
AcDbCircle
 10
1857.875263641047
 20
1323.836961614343
 30
0.0
 40
0.016
100
AcDbArc
 50
90.0
 51
139.1327693431056
  0
ARC
  5
1531
330
1F
100
AcDbEntity
  8
SANINDUSA
100
AcDbCircle
 10
1857.862407768221
 20
1323.8480848573
 30
0.0
 40
0.001
100
AcDbArc
 50
220.8672306568943
 51
319.1327693431056
  0
LINE
  5
1533
330
1F
100
AcDbEntity
  8
SANINDUSA
100
AcDbLine
 10
1857.793202163574
 20
1323.829926338163
 30
0.0
 11
1857.795434011915
 21
1323.838255709569
 31
0.0
  0
ARC
  5
1534
330
1F
100
AcDbEntity
  8
SANINDUSA
100
AcDbCircle
 10
1857.800263641047
 20
1323.836961614343
 30
0.0
 40
0.005
100
AcDbArc
 50
90.0
 51
165.0000000030343
  0
ARC
  5
1535
330
1F
100
AcDbEntity
  8
SANINDUSA
100
AcDbCircle
 10
1857.800263641047
 20
1323.836961614343
 30
0.0
 40
0.016
100
AcDbArc
 50
90.0
 51
139.1327693431056
  0
ARC
  5
1536
330
1F
100
AcDbEntity
  8
SANINDUSA
100
AcDbCircle
 10
1857.787407768221
 20
1323.8480848573
 30
0.0
 40
0.001
100
AcDbArc
 50
220.8672306568943
 51
319.1327693431056
  0
ARC
  5
1537
330
1F
100
AcDbEntity
  8
SANINDUSA
100
AcDbCircle
 10
1857.725263641047
 20
1323.836961614343
 30
0.0
 40
0.0050000000000001
100
AcDbArc
 50
90.0
 51
165.0000000030343
  0
ARC
  5
1538
330
1F
100
AcDbEntity
  8
SANINDUSA
100
AcDbCircle
 10
1857.725263641047
 20
1323.836961614343
 30
0.0
 40
0.0160000000000002
100
AcDbArc
 50
90.0
 51
139.1327693431056
  0
ARC
  5
1539
330
1F
100
AcDbEntity
  8
SANINDUSA
100
AcDbCircle
 10
1857.712407768221
 20
1323.8480848573
 30
0.0
 40
0.001
100
AcDbArc
 50
220.8672306568943
 51
319.1327693431056
  0
LINE
  5
153B
330
1F
100
AcDbEntity
  8
SANINDUSA
100
AcDbLine
 10
1857.718202163574
 20
1323.829926338163
 30
0.0
 11
1857.720434011915
 21
1323.838255709569
 31
0.0
  0
LINE
  5
153E
330
1F
100
AcDbEntity
  8
SANINDUSA
100
AcDbLine
 10
1857.643202163574
 20
1323.829926338163
 30
0.0
 11
1857.645434011915
 21
1323.838255709569
 31
0.0
  0
LINE
  5
153F
330
1F
100
AcDbEntity
  8
SANINDUSA
100
AcDbLine
 10
1857.634165770191
 20
1323.838702795298
 30
0.0
 11
1857.634808827826
 21
1323.841102719065
 31
0.0
  0
ARC
  5
1540
330
1F
100
AcDbEntity
  8
SANINDUSA
100
AcDbCircle
 10
1857.650263641047
 20
1323.836961614343
 30
0.0
 40
0.005
100
AcDbArc
 50
90.0
 51
165.0000000030343
  0
ARC
  5
1541
330
1F
100
AcDbEntity
  8
SANINDUSA
100
AcDbCircle
 10
1857.650263641047
 20
1323.836961614343
 30
0.0
 40
0.016
100
AcDbArc
 50
90.0
 51
165.0000000030343
  0
LINE
  5
1542
330
1F
100
AcDbEntity
  8
SANINDUSA
100
AcDbLine
 10
1857.875263641047
 20
1323.841961614343
 30
0.0
 11
1857.924551895394
 21
1323.841961614343
 31
0.0
  0
LINE
  5
1543
330
1F
100
AcDbEntity
  8
SANINDUSA
100
AcDbLine
 10
1857.875263641047
 20
1323.852961614344
 30
0.0
 11
1857.924551895394
 21
1323.852961614344
 31
0.0
  0
LINE
  5
1544
330
1F
100
AcDbEntity
  8
SANINDUSA
100
AcDbLine
 10
1857.650263641047
 20
1323.841961614343
 30
0.0
 11
1857.699551895394
 21
1323.841961614343
 31
0.0
  0
LINE
  5
1545
330
1F
100
AcDbEntity
  8
SANINDUSA
100
AcDbLine
 10
1857.650263641047
 20
1323.852961614344
 30
0.0
 11
1857.699551895394
 21
1323.852961614344
 31
0.0
  0
LINE
  5
1546
330
1F
100
AcDbEntity
  8
SANINDUSA
100
AcDbLine
 10
1857.725263641047
 20
1323.841961614343
 30
0.0
 11
1857.774551895394
 21
1323.841961614343
 31
0.0
  0
LINE
  5
1547
330
1F
100
AcDbEntity
  8
SANINDUSA
100
AcDbLine
 10
1857.725263641047
 20
1323.852961614344
 30
0.0
 11
1857.774551895394
 21
1323.852961614344
 31
0.0
  0
LINE
  5
1548
330
1F
100
AcDbEntity
  8
SANINDUSA
100
AcDbLine
 10
1857.800263641047
 20
1323.841961614343
 30
0.0
 11
1857.849551895394
 21
1323.841961614343
 31
0.0
  0
LINE
  5
1549
330
1F
100
AcDbEntity
  8
SANINDUSA
100
AcDbLine
 10
1857.800263641047
 20
1323.852961614344
 30
0.0
 11
1857.849551895394
 21
1323.852961614344
 31
0.0
  0
ARC
  5
1551
330
1F
100
AcDbEntity
  8
SANINDUSA
100
AcDbCircle
 10
1857.58593423974
 20
1323.931961614343
 30
0.0
 40
0.003
100
AcDbArc
 50
10.00000000122301
 51
90.0
  0
ARC
  5
1553
330
1F
100
AcDbEntity
  8
SANINDUSA
100
AcDbCircle
 10
1858.251107228675
 20
1323.931961614343
 30
0.0
 40
0.0030000000000002
100
AcDbArc
 50
90.0
 51
169.999999998777
  0
LINE
  5
1554
330
1F
100
AcDbEntity
  8
SANINDUSA
100
AcDbLine
 10
1858.239961569525
 20
1323.886027751687
 30
0.0
 11
1858.248152805416
 21
1323.932482558876
 31
0.0
  0
LINE
  5
1558
330
1F
100
AcDbEntity
  8
SANINDUSA
100
AcDbLine
 10
1857.588888662999
 20
1323.932482558876
 30
0.0
 11
1857.595672995375
 21
1323.89400669801
 31
0.0
  0
LWPOLYLINE
  5
1559
330
1F
100
AcDbEntity
  8
SANINDUSA
100
AcDbPolyline
 90
        3
 70
   128
 43
0.0
 10
1857.980236353343
 20
1323.871499522705
 10
1857.982745631272
 20
1323.870775274536
 10
1857.985426425849
 20
1323.870495707209
  0
LWPOLYLINE
  5
155A
330
1F
100
AcDbEntity
  8
SANINDUSA
100
AcDbPolyline
 90
        3
 70
   128
 43
0.0
 10
1857.850249025221
 20
1323.873314606149
 10
1857.852758303151
 20
1323.87259035798
 10
1857.855439097727
 20
1323.872310790653
  0
LWPOLYLINE
  5
155B
330
1F
100
AcDbEntity
  8
SANINDUSA
100
AcDbPolyline
 90
        3
 70
   128
 43
0.0
 10
1858.02893428983
 20
1323.869888183347
 10
1858.031538594764
 20
1323.870079134258
 10
1858.034149554105
 20
1323.870746641026
  0
LWPOLYLINE
  5
155C
330
1F
100
AcDbEntity
  8
SANINDUSA
100
AcDbPolyline
 90
        3
 70
   128
 43
0.0
 10
1857.833953297648
 20
1323.872610808513
 10
1857.836557602582
 20
1323.872801759424
 10
1857.839168561923
 20
1323.873469266193
  0
LINE
  5
155E
330
1F
100
AcDbEntity
  8
SANINDUSA
100
AcDbLine
 10
1858.189144915548
 20
1323.826961614344
 30
0.0
 11
1858.016058807056
 21
1323.826961614344
 31
0.0
  0
LINE
  5
155F
330
1F
100
AcDbEntity
  8
SANINDUSA
100
AcDbLine
 10
1858.010477076173
 20
1323.826961614344
 30
0.0
 11
1857.939338460269
 21
1323.826961614344
 31
0.0
  0
ARC
  5
1560
330
1F
100
AcDbEntity
  8
SANINDUSA
100
AcDbCircle
 10
1857.939338460269
 20
1323.830961614343
 30
0.0
 40
0.0040000000000001
100
AcDbArc
 50
270.0
 51
345.0000000030343
  0
LINE
  5
1561
330
1F
100
AcDbEntity
  8
SANINDUSA
100
AcDbLine
 10
1858.206923474856
 20
1323.854532890469
 30
0.0
 11
1858.20969972982
 21
1323.838787966166
 31
0.0
  0
LWPOLYLINE
  5
1562
330
1F
100
AcDbEntity
  8
SANINDUSA
100
AcDbPolyline
 90
        3
 70
   128
 43
0.0
 10
1857.898946961708
 20
1323.871703266791
 10
1857.901551266643
 20
1323.871894217702
 10
1857.904162225984
 20
1323.87256172447
  0
ARC
  5
1563
330
1F
100
AcDbEntity
  8
SANINDUSA
100
AcDbCircle
 10
1857.710477076172
 20
1323.830961614343
 30
0.0
 40
0.0040000000000001
100
AcDbArc
 50
194.9999999969657
 51
270.0
  0
LINE
  5
1564
330
1F
100
AcDbEntity
  8
SANINDUSA
100
AcDbLine
 10
1857.935477076173
 20
1323.826961614344
 30
0.0
 11
1857.864338460269
 21
1323.826961614344
 31
0.0
  0
ARC
  5
1565
330
1F
100
AcDbEntity
  8
SANINDUSA
100
AcDbCircle
 10
1857.864338460269
 20
1323.830961614343
 30
0.0
 40
0.0040000000000001
100
AcDbArc
 50
270.0
 51
345.0000000030343
  0
ARC
  5
1566
330
1F
100
AcDbEntity
  8
SANINDUSA
100
AcDbCircle
 10
1857.999551895394
 20
1323.836961614343
 30
0.0
 40
0.005
100
AcDbArc
 50
14.99999999696573
 51
90.0
  0
ARC
  5
1567
330
1F
100
AcDbEntity
  8
SANINDUSA
100
AcDbCircle
 10
1857.999551895394
 20
1323.836961614343
 30
0.0
 40
0.016
100
AcDbArc
 50
47.55351379946155
 51
90.0
  0
ARC
  5
1568
330
1F
100
AcDbEntity
  8
SANINDUSA
100
AcDbCircle
 10
1858.011025217526
 20
1323.849506050531
 30
0.0
 40
0.001
100
AcDbArc
 50
227.5535137994615
 51
345.0000000030343
  0
LINE
  5
156D
330
1F
100
AcDbEntity
  8
SANINDUSA
100
AcDbLine
 10
1858.196312097636
 20
1323.851366525861
 30
0.0
 11
1858.200032509511
 21
1323.830267021633
 31
0.0
  0
LINE
  5
156E
330
1F
100
AcDbEntity
  8
SANINDUSA
100
AcDbLine
 10
1857.864338460269
 20
1323.826961614344
 30
0.0
 11
1857.860477076172
 21
1323.826961614344
 31
0.0
  0
ARC
  5
156F
330
1F
100
AcDbEntity
  8
SANINDUSA
100
AcDbCircle
 10
1857.860477076172
 20
1323.830961614343
 30
0.0
 40
0.0040000000000003
100
AcDbArc
 50
194.9999999969657
 51
270.0
  0
ARC
  5
1570
330
1F
100
AcDbEntity
  8
SANINDUSA
100
AcDbCircle
 10
1857.789338460269
 20
1323.830961614343
 30
0.0
 40
0.0040000000000001
100
AcDbArc
 50
270.0
 51
345.0000000030343
  0
LINE
  5
1571
330
1F
100
AcDbEntity
  8
SANINDUSA
100
AcDbLine
 10
1857.789338460269
 20
1323.826961614344
 30
0.0
 11
1857.785477076172
 21
1323.826961614344
 31
0.0
  0
ARC
  5
1572
330
1F
100
AcDbEntity
  8
SANINDUSA
100
AcDbCircle
 10
1857.785477076172
 20
1323.830961614343
 30
0.0
 40
0.0040000000000001
100
AcDbArc
 50
194.9999999969657
 51
270.0
  0
ARC
  5
1573
330
1F
100
AcDbEntity
  8
SANINDUSA
100
AcDbCircle
 10
1857.714338460269
 20
1323.830961614343
 30
0.0
 40
0.0040000000000001
100
AcDbArc
 50
270.0
 51
345.0000000030343
  0
LINE
  5
1574
330
1F
100
AcDbEntity
  8
SANINDUSA
100
AcDbLine
 10
1857.714338460269
 20
1323.826961614344
 30
0.0
 11
1857.710477076172
 21
1323.826961614344
 31
0.0
  0
ARC
  5
1575
330
1F
100
AcDbEntity
  8
SANINDUSA
100
AcDbCircle
 10
1857.639338460269
 20
1323.830961614343
 30
0.0
 40
0.0040000000000001
100
AcDbArc
 50
270.0
 51
345.0000000030343
  0
LINE
  5
1576
330
1F
100
AcDbEntity
  8
SANINDUSA
100
AcDbLine
 10
1857.639338460269
 20
1323.826961614344
 30
0.0
 11
1857.494520734207
 21
1323.826961614344
 31
0.0
  0
ARC
  5
1577
330
1F
100
AcDbEntity
  8
SANINDUSA
100
AcDbCircle
 10
1857.494520734207
 20
1323.827961614344
 30
0.0
 40
0.0010000000000002
100
AcDbArc
 50
180.0
 51
270.0
  0
ARC
  5
1578
330
1F
100
AcDbEntity
  8
SANINDUSA
100
AcDbCircle
 10
1857.498520734207
 20
1323.941961614343
 30
0.0
 40
0.005
100
AcDbArc
 50
90.0
 51
180.0
  0
LINE
  5
1579
330
1F
100
AcDbEntity
  8
SANINDUSA
100
AcDbLine
 10
1857.58593423974
 20
1323.946961614343
 30
0.0
 11
1857.498520734207
 21
1323.946961614343
 31
0.0
  0
ARC
  5
157A
330
1F
100
AcDbEntity
  8
SANINDUSA
100
AcDbCircle
 10
1857.58593423974
 20
1323.931961614343
 30
0.0
 40
0.015
100
AcDbArc
 50
10.00000000122301
 51
90.0
  0
LINE
  5
157B
330
1F
100
AcDbEntity
  8
SANINDUSA
100
AcDbLine
 10
1857.600706356035
 20
1323.934566337009
 30
0.0
 11
1857.607490688411
 21
1323.896090476142
 31
0.0
  0
ARC
  5
157C
330
1F
100
AcDbEntity
  8
SANINDUSA
100
AcDbCircle
 10
1857.632110882237
 20
1323.900431680584
 30
0.0
 40
0.0250000000000001
100
AcDbArc
 50
190.000000001223
 51
269.1999999938217
  0
LWPOLYLINE
  5
157D
330
1F
100
AcDbEntity
  8
SANINDUSA
100
AcDbPolyline
 90
        3
 70
   128
 43
0.0
 10
1857.768959633587
 20
1323.873518350235
 10
1857.771563938521
 20
1323.873709301146
 10
1857.774174897863
 20
1323.874376807914
  0
LWPOLYLINE
  5
157E
330
1F
100
AcDbEntity
  8
SANINDUSA
100
AcDbPolyline
 90
        3
 70
   128
 43
0.0
 10
1857.785255361161
 20
1323.874222147871
 10
1857.78776463909
 20
1323.873497899702
 10
1857.790445433667
 20
1323.873218332375
  0
LWPOLYLINE
  5
157F
330
1F
100
AcDbEntity
  8
SANINDUSA
100
AcDbPolyline
 90
        3
 70
   128
 43
0.0
 10
1857.915242689282
 20
1323.872407064427
 10
1857.917751967211
 20
1323.871682816258
 10
1857.920432761788
 20
1323.871403248931
  0
LWPOLYLINE
  5
1580
330
1F
100
AcDbEntity
  8
SANINDUSA
100
AcDbPolyline
 90
        3
 70
   128
 43
0.0
 10
1857.963940625769
 20
1323.870795725069
 10
1857.966544930703
 20
1323.87098667598
 10
1857.969155890045
 20
1323.871654182748
  0
LWPOLYLINE
  5
1581
330
1F
100
AcDbEntity
  8
SANINDUSA
100
AcDbPolyline
 90
        3
 70
   128
 43
0.0
 10
1858.045230017403
 20
1323.870591980983
 10
1858.047739295332
 20
1323.869867732814
 10
1858.050420089909
 20
1323.869588165487
  0
ARC
  5
1582
330
1F
100
AcDbEntity
  8
SANINDUSA
100
AcDbCircle
 10
1858.111407768221
 20
1323.843961614344
 30
0.0
 40
0.001
100
AcDbArc
 50
270.0
 51
0.0
  0
LINE
  5
1583
330
1F
100
AcDbEntity
  8
SANINDUSA
100
AcDbLine
 10
1858.10340776822
 20
1323.842961614343
 30
0.0
 11
1858.111407768221
 21
1323.842961614343
 31
0.0
  0
ARC
  5
1584
330
1F
100
AcDbEntity
  8
SANINDUSA
100
AcDbCircle
 10
1858.10340776822
 20
1323.843961614344
 30
0.0
 40
0.001
100
AcDbArc
 50
180.0
 51
270.0
  0
LINE
  5
1585
330
1F
100
AcDbEntity
  8
SANINDUSA
100
AcDbLine
 10
1858.102407768221
 20
1323.84699972412
 30
0.0
 11
1858.102407768221
 21
1323.843961614344
 31
0.0
  0
ARC
  5
1586
330
1F
100
AcDbEntity
  8
SANINDUSA
100
AcDbCircle
 10
1858.092407768221
 20
1323.84699972412
 30
0.0
 40
0.01
100
AcDbArc
 50
0.0
 51
89.19999999382168
  0
LINE
  5
1587
330
1F
100
AcDbEntity
  8
SANINDUSA
100
AcDbLine
 10
1858.029598295998
 20
1323.857877741643
 30
0.0
 11
1858.092547390024
 21
1323.85699874936
 31
0.0
  0
ARC
  5
1588
330
1F
100
AcDbEntity
  8
SANINDUSA
100
AcDbCircle
 10
1858.014338460269
 20
1323.830961614343
 30
0.0
 40
0.0040000000000003
100
AcDbArc
 50
270.0
 51
345.0000000030343
  0
LINE
  5
1589
330
1F
100
AcDbEntity
  8
SANINDUSA
100
AcDbLine
 10
1858.014338460269
 20
1323.826961614344
 30
0.0
 11
1858.010477076173
 21
1323.826961614344
 31
0.0
  0
ARC
  5
158A
330
1F
100
AcDbEntity
  8
SANINDUSA
100
AcDbCircle
 10
1858.010477076173
 20
1323.830961614343
 30
0.0
 40
0.0040000000000001
100
AcDbArc
 50
194.9999999969657
 51
270.0
  0
LINE
  5
158B
330
1F
100
AcDbEntity
  8
SANINDUSA
100
AcDbLine
 10
1858.004381524526
 20
1323.838255709569
 30
0.0
 11
1858.006613372867
 21
1323.829926338163
 31
0.0
  0
LINE
  5
158C
330
1F
100
AcDbEntity
  8
SANINDUSA
100
AcDbLine
 10
1857.950263641047
 20
1323.841961614343
 30
0.0
 11
1857.999551895394
 21
1323.841961614343
 31
0.0
  0
LINE
  5
158D
330
1F
100
AcDbEntity
  8
SANINDUSA
100
AcDbLine
 10
1857.950263641047
 20
1323.852961614344
 30
0.0
 11
1857.999551895394
 21
1323.852961614344
 31
0.0
  0
ARC
  5
158E
330
1F
100
AcDbEntity
  8
SANINDUSA
100
AcDbCircle
 10
1857.950263641047
 20
1323.836961614343
 30
0.0
 40
0.005
100
AcDbArc
 50
90.0
 51
165.0000000030343
  0
ARC
  5
158F
330
1F
100
AcDbEntity
  8
SANINDUSA
100
AcDbCircle
 10
1857.950263641047
 20
1323.836961614343
 30
0.0
 40
0.016
100
AcDbArc
 50
90.0
 51
139.1327693431056
  0
ARC
  5
1590
330
1F
100
AcDbEntity
  8
SANINDUSA
100
AcDbCircle
 10
1857.93740776822
 20
1323.8480848573
 30
0.0
 40
0.001
100
AcDbArc
 50
220.8672306568943
 51
319.1327693431056
  0
LINE
  5
1591
330
1F
100
AcDbEntity
  8
SANINDUSA
100
AcDbLine
 10
1857.939338460269
 20
1323.826961614344
 30
0.0
 11
1857.935477076173
 21
1323.826961614344
 31
0.0
  0
ARC
  5
1592
330
1F
100
AcDbEntity
  8
SANINDUSA
100
AcDbCircle
 10
1857.935477076173
 20
1323.830961614343
 30
0.0
 40
0.0040000000000003
100
AcDbArc
 50
194.9999999969657
 51
270.0
  0
LINE
  5
1593
330
1F
100
AcDbEntity
  8
SANINDUSA
100
AcDbLine
 10
1857.505520734207
 20
1323.838961614344
 30
0.0
 11
1857.505520734207
 21
1323.933961614343
 31
0.0
  0
ARC
  5
1594
330
1F
100
AcDbEntity
  8
SANINDUSA
100
AcDbCircle
 10
1857.506520734207
 20
1323.838961614344
 30
0.0
 40
0.001
100
AcDbArc
 50
180.0
 51
270.0
  0
LINE
  5
1595
330
1F
100
AcDbEntity
  8
SANINDUSA
100
AcDbLine
 10
1857.631594281565
 20
1323.863435287196
 30
0.0
 11
1857.633776960006
 21
1323.863404809275
 31
0.0
  0
ARC
  5
1596
330
1F
100
AcDbEntity
  8
SANINDUSA
100
AcDbCircle
 10
1857.632110882237
 20
1323.900431680584
 30
0.0
 40
0.037
100
AcDbArc
 50
190.000000001223
 51
269.1999999938217
  0
LINE
  5
1597
330
1F
100
AcDbEntity
  8
SANINDUSA
100
AcDbLine
 10
1857.633199844365
 20
1323.837961614344
 30
0.0
 11
1857.506520734207
 21
1323.837961614344
 31
0.0
  0
ARC
  5
1598
330
1F
100
AcDbEntity
  8
SANINDUSA
100
AcDbCircle
 10
1857.633199844365
 20
1323.838961614344
 30
0.0
 40
0.001
100
AcDbArc
 50
270.0
 51
345.0000000030343
  0
LINE
  5
1599
330
1F
100
AcDbEntity
  8
SANINDUSA
100
AcDbLine
 10
1857.493520734207
 20
1323.827961614344
 30
0.0
 11
1857.493520734207
 21
1323.941961614343
 31
0.0
  0
LINE
  5
159A
330
1F
100
AcDbEntity
  8
SANINDUSA
100
AcDbLine
 10
1858.050420089909
 20
1323.869588165487
 30
0.0
 11
1858.09411006555
 21
1323.868978098701
 31
0.0
  0
ARC
  5
159B
330
1F
100
AcDbEntity
  8
SANINDUSA
100
AcDbCircle
 10
1858.093970443747
 20
1323.858979073461
 30
0.0
 40
0.01
100
AcDbArc
 50
57.5000000007151
 51
89.19999999382168
  0
LINE
  5
159C
330
1F
100
AcDbEntity
  8
SANINDUSA
100
AcDbLine
 10
1857.985426425849
 20
1323.870495707209
 30
0.0
 11
1858.02893428983
 21
1323.869888183347
 31
0.0
  0
LINE
  5
159D
330
1F
100
AcDbEntity
  8
SANINDUSA
100
AcDbLine
 10
1857.920432761788
 20
1323.871403248931
 30
0.0
 11
1857.963940625769
 21
1323.870795725069
 31
0.0
  0
LINE
  5
159E
330
1F
100
AcDbEntity
  8
SANINDUSA
100
AcDbLine
 10
1857.855439097727
 20
1323.872310790653
 30
0.0
 11
1857.898946961708
 21
1323.871703266791
 31
0.0
  0
LINE
  5
159F
330
1F
100
AcDbEntity
  8
SANINDUSA
100
AcDbLine
 10
1857.790445433667
 20
1323.873218332375
 30
0.0
 11
1857.833953297648
 21
1323.872610808513
 31
0.0
  0
LINE
  5
15A0
330
1F
100
AcDbEntity
  8
SANINDUSA
100
AcDbLine
 10
1857.631761827729
 20
1323.875434117484
 30
0.0
 11
1857.768959633587
 21
1323.873518350235
 31
0.0
  0
LINE
  5
15A1
330
1F
100
AcDbEntity
  8
SANINDUSA
100
AcDbLine
 10
1857.58593423974
 20
1323.934961614343
 30
0.0
 11
1857.506520734207
 21
1323.934961614343
 31
0.0
  0
ARC
  5
15A2
330
1F
100
AcDbEntity
  8
SANINDUSA
100
AcDbCircle
 10
1857.506520734207
 20
1323.933961614343
 30
0.0
 40
0.001
100
AcDbArc
 50
90.0
 51
180.0
  0
ARC
  5
15A3
330
1F
100
AcDbEntity
  8
SANINDUSA
100
AcDbCircle
 10
1858.203523682663
 20
1323.892452734261
 30
0.0
 40
0.037
100
AcDbArc
 50
276.6257861268518
 51
349.999999998777
  0
ARC
  5
15A4
330
1F
100
AcDbEntity
  8
SANINDUSA
100
AcDbCircle
 10
1858.207908282609
 20
1323.854706538647
 30
0.0
 40
0.001
100
AcDbArc
 50
96.62578612685186
 51
190.000000001223
  0
LINE
  5
15A5
330
1F
100
AcDbEntity
  8
SANINDUSA
100
AcDbLine
 10
1858.28340374865
 20
1323.83897906675
 30
0.0
 11
1858.281745517482
 21
1323.93397906675
 31
0.0
  0
ARC
  5
15A6
330
1F
100
AcDbEntity
  8
SANINDUSA
100
AcDbCircle
 10
1858.280745669787
 20
1323.933961614343
 30
0.0
 40
0.001
100
AcDbArc
 50
0.9999999969218754
 51
90.0
  0
ARC
  5
15A7
330
1F
100
AcDbEntity
  8
SANINDUSA
100
AcDbCircle
 10
1858.282403900955
 20
1323.838961614344
 30
0.0
 40
0.001
100
AcDbArc
 50
270.0
 51
0.9999999969218754
  0
ARC
  5
15A8
330
1F
100
AcDbEntity
  8
SANINDUSA
100
AcDbCircle
 10
1858.203971740523
 20
1323.830961614343
 30
0.0
 40
0.0040000000000005
100
AcDbArc
 50
190.000000001223
 51
270.0
  0
ARC
  5
15A9
330
1F
100
AcDbEntity
  8
SANINDUSA
100
AcDbCircle
 10
1858.191388058871
 20
1323.850498284973
 30
0.0
 40
0.005
100
AcDbArc
 50
10.00000000122301
 51
101.7675641307698
  0
ARC
  5
15AA
330
1F
100
AcDbEntity
  8
SANINDUSA
100
AcDbCircle
 10
1858.19240776822
 20
1323.845603369975
 30
0.0
 40
0.0100000000000001
100
AcDbArc
 50
101.7675641307698
 51
180.0
  0
LINE
  5
15AB
330
1F
100
AcDbEntity
  8
SANINDUSA
100
AcDbLine
 10
1858.182407768221
 20
1323.843961614344
 30
0.0
 11
1858.182407768221
 21
1323.845603369975
 31
0.0
  0
ARC
  5
15AC
330
1F
100
AcDbEntity
  8
SANINDUSA
100
AcDbCircle
 10
1858.181407768221
 20
1323.843961614344
 30
0.0
 40
0.0010000000000002
100
AcDbArc
 50
270.0
 51
0.0
  0
LINE
  5
15AD
330
1F
100
AcDbEntity
  8
SANINDUSA
100
AcDbLine
 10
1858.17340776822
 20
1323.842961614343
 30
0.0
 11
1858.181407768221
 21
1323.842961614343
 31
0.0
  0
ARC
  5
15AE
330
1F
100
AcDbEntity
  8
SANINDUSA
100
AcDbCircle
 10
1858.17340776822
 20
1323.843961614344
 30
0.0
 40
0.001
100
AcDbArc
 50
180.0
 51
270.0
  0
ARC
  5
15AF
330
1F
100
AcDbEntity
  8
SANINDUSA
100
AcDbCircle
 10
1858.203523682663
 20
1323.892452734261
 30
0.0
 40
0.0250000000000002
100
AcDbArc
 50
269.1999999938217
 51
349.999999998777
  0
LINE
  5
15B0
330
1F
100
AcDbEntity
  8
SANINDUSA
100
AcDbLine
 10
1858.228143876489
 20
1323.888111529819
 30
0.0
 11
1858.23633511238
 21
1323.934566337009
 31
0.0
  0
ARC
  5
15B1
330
1F
100
AcDbEntity
  8
SANINDUSA
100
AcDbCircle
 10
1858.251107228675
 20
1323.931961614343
 30
0.0
 40
0.015
100
AcDbArc
 50
90.0
 51
169.999999998777
  0
LINE
  5
15B2
330
1F
100
AcDbEntity
  8
SANINDUSA
100
AcDbLine
 10
1858.288607247892
 20
1323.946961614343
 30
0.0
 11
1858.251107228675
 21
1323.946961614343
 31
0.0
  0
ARC
  5
15B3
330
1F
100
AcDbEntity
  8
SANINDUSA
100
AcDbCircle
 10
1858.288607247892
 20
1323.941961614343
 30
0.0
 40
0.0050000000000001
100
AcDbArc
 50
0.9999999969218754
 51
90.0
  0
LINE
  5
15B4
330
1F
100
AcDbEntity
  8
SANINDUSA
100
AcDbLine
 10
1858.294597734605
 20
1323.826961614344
 30
0.0
 11
1858.203971740523
 21
1323.826961614344
 31
0.0
  0
ARC
  5
15B5
330
1F
100
AcDbEntity
  8
SANINDUSA
100
AcDbCircle
 10
1858.294597734605
 20
1323.827961614344
 30
0.0
 40
0.0010000000000002
100
AcDbArc
 50
270.0
 51
0.9999999969218754
  0
LINE
  5
15B6
330
1F
100
AcDbEntity
  8
SANINDUSA
100
AcDbLine
 10
1858.282403900955
 20
1323.837961614344
 30
0.0
 11
1858.210684537573
 21
1323.837961614344
 31
0.0
  0
ARC
  5
15B7
330
1F
100
AcDbEntity
  8
SANINDUSA
100
AcDbCircle
 10
1858.210684537573
 20
1323.838961614344
 30
0.0
 40
0.001
100
AcDbArc
 50
190.000000001223
 51
270.0
  0
LINE
  5
15B8
330
1F
100
AcDbEntity
  8
SANINDUSA
100
AcDbLine
 10
1858.295597582301
 20
1323.82797906675
 30
0.0
 11
1858.293606486368
 21
1323.942048876376
 31
0.0
  0
LINE
  5
15B9
330
1F
100
AcDbEntity
  8
SANINDUSA
100
AcDbLine
 10
1858.189786306851
 20
1323.86764211954
 30
0.0
 11
1858.203174628155
 21
1323.86745517116
 31
0.0
  0
ARC
  5
15BA
330
1F
100
AcDbEntity
  8
SANINDUSA
100
AcDbCircle
 10
1858.189646685048
 20
1323.8576430943
 30
0.0
 40
0.01
100
AcDbArc
 50
89.19999999382168
 51
122.4999999992849
  0
LINE
  5
15BB
330
1F
100
AcDbEntity
  8
SANINDUSA
100
AcDbLine
 10
1858.280745669787
 20
1323.934961614343
 30
0.0
 11
1858.251107228675
 21
1323.934961614343
 31
0.0
  0
LINE
  5
15BC
330
1F
100
AcDbEntity
  8
SANINDUSA
100
AcDbLine
 10
1857.710477076172
 20
1323.826961614344
 30
0.0
 11
1857.639338460269
 21
1323.826961614344
 31
0.0
  0
LINE
  5
15C0
330
1F
100
AcDbEntity
  8
SANINDUSA
100
AcDbLine
 10
1858.09411006555
 20
1323.868978098701
 30
0.0
 11
1858.189786306851
 21
1323.86764211954
 31
0.0
  0
LINE
  5
15C8
330
1F
100
AcDbEntity
  8
SANINDUSA
100
AcDbLine
 10
1857.860477076172
 20
1323.826961614344
 30
0.0
 11
1857.789338460269
 21
1323.826961614344
 31
0.0
  0
LINE
  5
15CB
330
1F
100
AcDbEntity
  8
SANINDUSA
100
AcDbLine
 10
1858.197883162254
 20
1323.946961614343
 30
0.0
 11
1858.251107228675
 21
1323.946961614343
 31
0.0
  0
LINE
  5
15CC
330
1F
100
AcDbEntity
  8
SANINDUSA
100
AcDbLine
 10
1857.785477076172
 20
1323.826961614344
 30
0.0
 11
1857.714338460269
 21
1323.826961614344
 31
0.0
  0
LINE
  5
15D7
330
1F
100
AcDbEntity
  8
SANINDUSA
100
AcDbLine
 10
1858.203971740523
 20
1323.826961614344
 30
0.0
 11
1858.199728101646
 21
1323.826961614344
 31
0.0
  0
LINE
  5
15DB
330
1F
100
AcDbEntity
  8
SANINDUSA
100
AcDbLine
 10
1858.199728101646
 20
1323.826961614344
 30
0.0
 11
1858.19887396164
 21
1323.826961614344
 31
0.0
  0
LINE
  5
15E0
330
1F
100
AcDbEntity
  8
SANINDUSA
100
AcDbLine
 10
1858.19887396164
 20
1323.826961614344
 30
0.0
 11
1858.195855010286
 21
1323.826961614344
 31
0.0
  0
LINE
  5
15E2
330
1F
100
AcDbEntity
  8
SANINDUSA
100
AcDbLine
 10
1858.195855010286
 20
1323.826961614344
 30
0.0
 11
1858.189144915548
 21
1323.826961614344
 31
0.0
  0
LINE
  5
15F0
330
1F
100
AcDbEntity
  8
SANINDUSA
100
AcDbLine
 10
1857.58593423974
 20
1323.946961614343
 30
0.0
 11
1858.197883162254
 21
1323.946961614343
 31
0.0
  0
LINE
  5
15F1
330
1F
100
AcDbEntity
  8
SANINDUSA
100
AcDbLine
 10
1858.013076138542
 20
1323.858107982309
 30
0.0
 11
1857.633776960006
 21
1323.863404809275
 31
0.0
  0
ARC
  5
15F2
330
1F
100
AcDbEntity
  8
SANINDUSA
100
AcDbCircle
 10
1858.01306217513
 20
1323.857108079803
 30
0.0
 40
0.001
100
AcDbArc
 50
345.0000000030343
 51
89.19992944286214
  0
LINE
  5
1655
330
1F
100
AcDbEntity
  8
SANINDUSA
100
AcDbLine
 10
1858.174721270179
 20
1323.859991446831
 30
0.0
 11
1858.184273688965
 21
1323.866077008758
 31
0.0
  0
ARC
  5
1656
330
1F
100
AcDbEntity
  8
SANINDUSA
100
AcDbCircle
 10
1858.177407768221
 20
1323.855774489602
 30
0.0
 40
0.005
100
AcDbArc
 50
122.4999999992849
 51
180.0
  0
LINE
  5
1657
330
1F
100
AcDbEntity
  8
SANINDUSA
100
AcDbLine
 10
1858.110094266262
 20
1323.86056395612
 30
0.0
 11
1858.09934343983
 21
1323.867412987919
 31
0.0
  0
LINE
  5
18AB
330
1F
100
AcDbEntity
  8
SANINDUSA
100
AcDbLine
 10
1857.206846588106
 20
1323.826961614344
 30
0.0
 11
1856.420846588106
 21
1323.826961614344
 31
0.0
  0
LINE
  5
18AE
330
1F
100
AcDbEntity
  8
SANINDUSA
100
AcDbLine
 10
1856.420846588106
 20
1323.826961614344
 30
0.0
 11
1856.412769587708
 21
1323.826961614344
 31
0.0
  0
ARC
  5
18B1
330
1F
100
AcDbEntity
  8
SANINDUSA
100
AcDbCircle
 10
1857.214923588505
 20
1323.827961614344
 30
0.0
 40
0.001
100
AcDbArc
 50
270.0
 51
0.9999999969218754
  0
LINE
  5
18B2
330
1F
100
AcDbEntity
  8
SANINDUSA
100
AcDbLine
 10
1857.214923588505
 20
1323.826961614344
 30
0.0
 11
1857.206846588106
 21
1323.826961614344
 31
0.0
  0
LINE
  5
18B4
330
1F
100
AcDbEntity
  8
SANINDUSA
100
AcDbLine
 10
1857.2159234362
 20
1323.82797906675
 30
0.0
 11
1857.213932340266
 21
1323.942048876376
 31
0.0
  0
LINE
  5
18BB
330
1F
100
AcDbEntity
  8
SANINDUSA
100
AcDbLine
 10
1856.420846588106
 20
1323.946961614343
 30
0.0
 11
1857.206846588106
 21
1323.946961614343
 31
0.0
  0
LINE
  5
18BD
330
1F
100
AcDbEntity
  8
SANINDUSA
100
AcDbLine
 10
1857.206846588106
 20
1323.946961614343
 30
0.0
 11
1857.208933101791
 21
1323.946961614343
 31
0.0
  0
ARC
  5
18BE
330
1F
100
AcDbEntity
  8
SANINDUSA
100
AcDbCircle
 10
1857.208933101791
 20
1323.941961614343
 30
0.0
 40
0.0050000000000001
100
AcDbArc
 50
0.9999999969218754
 51
90.0
  0
LINE
  5
18C0
330
1F
100
AcDbEntity
  8
SANINDUSA
100
AcDbLine
 10
1856.418846588106
 20
1323.946961614343
 30
0.0
 11
1856.420846588106
 21
1323.946961614343
 31
0.0
  0
ARC
  5
1D7D
330
1F
100
AcDbEntity
  8
SANINDUSA
100
AcDbCircle
 10
1856.412769587708
 20
1323.827961614344
 30
0.0
 40
0.001
100
AcDbArc
 50
179.0000000030781
 51
270.0
  0
LINE
  5
1D7E
330
1F
100
AcDbEntity
  8
SANINDUSA
100
AcDbLine
 10
1856.411769740013
 20
1323.82797906675
 30
0.0
 11
1856.413760835946
 21
1323.942048876376
 31
0.0
  0
ARC
  5
1D7F
330
1F
100
AcDbEntity
  8
SANINDUSA
100
AcDbCircle
 10
1856.418760074422
 20
1323.941961614343
 30
0.0
 40
0.0050000000000001
100
AcDbArc
 50
90.0
 51
179.0000000030781
  0
ENDSEC
  0
SECTION
  2
OBJECTS
  0
DICTIONARY
  5
C
330
0
100
AcDbDictionary
281
     1
  3
ACAD_COLOR
350
BA9
  3
ACAD_GROUP
350
D
  3
ACAD_LAYOUT
350
1A
  3
ACAD_MATERIAL
350
BA8
  3
ACAD_MLEADERSTYLE
350
1DD8
  3
ACAD_MLINESTYLE
350
17
  3
ACAD_PLOTSETTINGS
350
19
  3
ACAD_PLOTSTYLENAME
350
E
  3
ACAD_SCALELIST
350
1DC6
  3
ACAD_TABLESTYLE
350
BAA
  3
ACAD_VISUALSTYLE
350
1DB2
  3
ACDB_RECOMPOSE_DATA
350
1E04
  3
AcDbVariableDictionary
350
3D
  3
ASE_INDEX_DICTIONARY
350
18A5
  3
DWGPROPS
350
1E05
  0
DICTIONARY
  5
1DDF
330
10
100
AcDbDictionary
280
     1
281
     1
  3
ADSK_XREC_LAYER_RECONCILED
360
1DE0
  0
DICTIONARY
  5
1DE1
330
2F
100
AcDbDictionary
280
     1
281
     1
  3
ADSK_XREC_LAYER_RECONCILED
360
1DE2
  0
DICTIONARY
  5
1DE3
330
30
100
AcDbDictionary
280
     1
281
     1
  3
ADSK_XREC_LAYER_RECONCILED
360
1DE4
  0
DICTIONARY
  5
1DE5
330
31
100
AcDbDictionary
280
     1
281
     1
  3
ADSK_XREC_LAYER_RECONCILED
360
1DE6
  0
DICTIONARY
  5
1DE7
330
32
100
AcDbDictionary
280
     1
281
     1
  3
ADSK_XREC_LAYER_RECONCILED
360
1DE8
  0
DICTIONARY
  5
1DE9
330
33
100
AcDbDictionary
280
     1
281
     1
  3
ADSK_XREC_LAYER_RECONCILED
360
1DEA
  0
DICTIONARY
  5
1DEB
330
34
100
AcDbDictionary
280
     1
281
     1
  3
ADSK_XREC_LAYER_RECONCILED
360
1DEC
  0
DICTIONARY
  5
1DED
330
35
100
AcDbDictionary
280
     1
281
     1
  3
ADSK_XREC_LAYER_RECONCILED
360
1DEE
  0
DICTIONARY
  5
1DEF
330
36
100
AcDbDictionary
280
     1
281
     1
  3
ADSK_XREC_LAYER_RECONCILED
360
1DF0
  0
DICTIONARY
  5
1DF1
330
37
100
AcDbDictionary
280
     1
281
     1
  3
ADSK_XREC_LAYER_RECONCILED
360
1DF2
  0
DICTIONARY
  5
1DF3
330
5D6
100
AcDbDictionary
280
     1
281
     1
  3
ADSK_XREC_LAYER_RECONCILED
360
1DF4
  0
DICTIONARY
  5
1DF5
330
8AF
100
AcDbDictionary
280
     1
281
     1
  3
ADSK_XREC_LAYER_RECONCILED
360
1DF6
  0
DICTIONARY
  5
1DF7
330
8F8
100
AcDbDictionary
280
     1
281
     1
  3
ADSK_XREC_LAYER_RECONCILED
360
1DF8
  0
DICTIONARY
  5
1DF9
330
91D
100
AcDbDictionary
280
     1
281
     1
  3
ADSK_XREC_LAYER_RECONCILED
360
1DFA
  0
DICTIONARY
  5
1DFB
330
BA5
100
AcDbDictionary
280
     1
281
     1
  3
ADSK_XREC_LAYER_RECONCILED
360
1DFC
  0
DICTIONARY
  5
BA9
102
{ACAD_REACTORS
330
C
102
}
330
C
100
AcDbDictionary
281
     1
  0
DICTIONARY
  5
D
102
{ACAD_REACTORS
330
C
102
}
330
C
100
AcDbDictionary
281
     1
  0
DICTIONARY
  5
1A
102
{ACAD_REACTORS
330
C
102
}
330
C
100
AcDbDictionary
281
     1
  3
Layout1
350
1E
  3
Layout2
350
26
  3
Model
350
22
  0
DICTIONARY
  5
BA8
102
{ACAD_REACTORS
330
C
102
}
330
C
100
AcDbDictionary
281
     1
  3
ByBlock
350
1DA2
  3
ByLayer
350
1D9A
  3
Global
350
1DAA
  0
DICTIONARY
  5
1DD8
102
{ACAD_REACTORS
330
C
102
}
330
C
100
AcDbDictionary
281
     1
  3
Standard
350
1DD9
  0
DICTIONARY
  5
17
102
{ACAD_REACTORS
330
C
102
}
330
C
100
AcDbDictionary
281
     1
  3
Standard
350
18
  0
DICTIONARY
  5
19
102
{ACAD_REACTORS
330
C
102
}
330
C
100
AcDbDictionary
281
     1
  0
ACDBDICTIONARYWDFLT
  5
E
102
{ACAD_REACTORS
330
C
102
}
330
C
100
AcDbDictionary
281
     1
  3
Normal
350
F
100
AcDbDictionaryWithDefault
340
F
  0
DICTIONARY
  5
1DC6
102
{ACAD_REACTORS
330
C
102
}
330
C
100
AcDbDictionary
281
     1
  3
A0
350
1DC7
  3
A1
350
1DC8
  3
A2
350
1DC9
  3
A3
350
1DCA
  3
A4
350
1DCB
  3
A5
350
1DCC
  3
A6
350
1DCD
  3
A7
350
1DCE
  3
A8
350
1DCF
  3
A9
350
1DD0
  3
B0
350
1DD1
  3
B1
350
1DD2
  3
B2
350
1DD3
  3
B3
350
1DD4
  3
B4
350
1DD5
  3
B5
350
1DD6
  3
B6
350
1DD7
  0
DICTIONARY
  5
BAA
102
{ACAD_REACTORS
330
C
102
}
330
C
100
AcDbDictionary
281
     1
  3
Standard
350
BAB
  0
DICTIONARY
  5
1DB2
102
{ACAD_REACTORS
330
C
102
}
330
C
100
AcDbDictionary
281
     1
  3
2dWireframe
350
1DB8
  3
3D Hidden
350
1DBA
  3
3dWireframe
350
1DB9
  3
Basic
350
1DB7
  3
Brighten
350
1DBE
  3
ColorChange
350
1DC2
  3
Conceptual
350
1DBB
  3
Dim
350
1DBD
  3
EdgeColorOff
350
1DC5
  3
Facepattern
350
1DC1
  3
Flat
350
1DB3
  3
FlatWithEdges
350
1DB4
  3
Gouraud
350
1DB5
  3
GouraudWithEdges
350
1DB6
  3
JitterOff
350
1DC3
  3
Linepattern
350
1DC0
  3
OverhangOff
350
1DC4
  3
Realistic
350
1DBC
  3
Thicken
350
1DBF
  0
XRECORD
  5
1E04
102
{ACAD_REACTORS
330
C
102
}
330
C
100
AcDbXrecord
280
     1
 90
        1
330
BAB
  0
DICTIONARY
  5
3D
102
{ACAD_REACTORS
330
C
102
}
330
C
100
AcDbDictionary
281
     1
  3
CANNOSCALE
350
1DFE
  3
CMLEADERSTYLE
350
1DFD
  3
CTABLESTYLE
350
18A8
  3
DIMASSOC
350
3F
  3
HIDETEXT
350
3E
  3
INDEXCTL
350
1E00
  3
PROJECTNAME
350
1D98
  3
SORTENTS
350
1DFF
  3
XCLIPFRAME
350
1E01
  0
DICTIONARY
  5
18A5
102
{ACAD_REACTORS
330
C
102
}
330
C
100
AcDbDictionary
281
     1
  3
ASEBlockHierarchyIndexRecord
350
18A6
1001
DCO15
1040
1531645637.093
  0
XRECORD
  5
1E05
102
{ACAD_REACTORS
330
C
102
}
330
C
100
AcDbXrecord
280
     1
  1
DWGPROPS COOKIE
  2

  3

  4

  6

  7

  8
Julio
  9

300
=
301
=
302
=
303
=
304
=
305
=
306
=
307
=
308
=
309
=
 40
0.0067919907407407
 41
2453530.585322801
 42
2456148.431339699
  1

 90
        0
  0
XRECORD
  5
1DE0
102
{ACAD_REACTORS
330
1DDF
102
}
330
1DDF
100
AcDbXrecord
280
     1
290
     1
  0
XRECORD
  5
1DE2
102
{ACAD_REACTORS
330
1DE1
102
}
330
1DE1
100
AcDbXrecord
280
     1
290
     1
  0
XRECORD
  5
1DE4
102
{ACAD_REACTORS
330
1DE3
102
}
330
1DE3
100
AcDbXrecord
280
     1
290
     1
  0
XRECORD
  5
1DE6
102
{ACAD_REACTORS
330
1DE5
102
}
330
1DE5
100
AcDbXrecord
280
     1
290
     1
  0
XRECORD
  5
1DE8
102
{ACAD_REACTORS
330
1DE7
102
}
330
1DE7
100
AcDbXrecord
280
     1
290
     1
  0
XRECORD
  5
1DEA
102
{ACAD_REACTORS
330
1DE9
102
}
330
1DE9
100
AcDbXrecord
280
     1
290
     1
  0
XRECORD
  5
1DEC
102
{ACAD_REACTORS
330
1DEB
102
}
330
1DEB
100
AcDbXrecord
280
     1
290
     1
  0
XRECORD
  5
1DEE
102
{ACAD_REACTORS
330
1DED
102
}
330
1DED
100
AcDbXrecord
280
     1
290
     1
  0
XRECORD
  5
1DF0
102
{ACAD_REACTORS
330
1DEF
102
}
330
1DEF
100
AcDbXrecord
280
     1
290
     1
  0
XRECORD
  5
1DF2
102
{ACAD_REACTORS
330
1DF1
102
}
330
1DF1
100
AcDbXrecord
280
     1
290
     1
  0
XRECORD
  5
1DF4
102
{ACAD_REACTORS
330
1DF3
102
}
330
1DF3
100
AcDbXrecord
280
     1
290
     1
  0
XRECORD
  5
1DF6
102
{ACAD_REACTORS
330
1DF5
102
}
330
1DF5
100
AcDbXrecord
280
     1
290
     1
  0
XRECORD
  5
1DF8
102
{ACAD_REACTORS
330
1DF7
102
}
330
1DF7
100
AcDbXrecord
280
     1
290
     1
  0
XRECORD
  5
1DFA
102
{ACAD_REACTORS
330
1DF9
102
}
330
1DF9
100
AcDbXrecord
280
     1
290
     1
  0
XRECORD
  5
1DFC
102
{ACAD_REACTORS
330
1DFB
102
}
330
1DFB
100
AcDbXrecord
280
     1
290
     1
  0
LAYOUT
  5
1E
102
{ACAD_XDICTIONARY
360
1E06
102
}
102
{ACAD_REACTORS
330
1A
102
}
330
1A
100
AcDbPlotSettings
  1

  2
Ploter HP500
  4

  6

 40
0.0
 41
0.0
 42
0.0
 43
0.0
 44
0.0
 45
0.0
 46
0.0
 47
0.0
 48
0.0
 49
0.0
140
0.0
141
0.0
142
1.0
143
1.0
 70
   688
 72
     0
 73
     0
 74
     5
  7
monochrome.ctb
 75
    16
147
1.0
148
0.0
149
0.0
100
AcDbLayout
  1
Layout1
 70
     1
 71
     1
 10
0.0
 20
0.0
 11
420.0
 21
297.0
 12
0.0
 22
0.0
 32
0.0
 14
1.000000000000000E+20
 24
1.000000000000000E+20
 34
1.000000000000000E+20
 15
-1.000000000000000E+20
 25
-1.000000000000000E+20
 35
-1.000000000000000E+20
146
0.0
 13
0.0
 23
0.0
 33
0.0
 16
1.0
 26
0.0
 36
0.0
 17
0.0
 27
1.0
 37
0.0
 76
     0
330
1B
  0
LAYOUT
  5
26
102
{ACAD_XDICTIONARY
360
1E0A
102
}
102
{ACAD_REACTORS
330
1A
102
}
330
1A
100
AcDbPlotSettings
  1

  2
Ploter HP500
  4

  6

 40
0.0
 41
0.0
 42
0.0
 43
0.0
 44
0.0
 45
0.0
 46
0.0
 47
0.0
 48
0.0
 49
0.0
140
0.0
141
0.0
142
1.0
143
1.0
 70
   688
 72
     0
 73
     0
 74
     5
  7
monochrome.ctb
 75
    16
147
1.0
148
0.0
149
0.0
100
AcDbLayout
  1
Layout2
 70
     1
 71
     2
 10
0.0
 20
0.0
 11
12.0
 21
9.0
 12
0.0
 22
0.0
 32
0.0
 14
0.0
 24
0.0
 34
0.0
 15
0.0
 25
0.0
 35
0.0
146
0.0
 13
0.0
 23
0.0
 33
0.0
 16
1.0
 26
0.0
 36
0.0
 17
0.0
 27
1.0
 37
0.0
 76
     0
330
23
  0
LAYOUT
  5
22
102
{ACAD_XDICTIONARY
360
1E08
102
}
102
{ACAD_REACTORS
330
1A
102
}
330
1A
100
AcDbPlotSettings
  1

  2
Ploter HP500
  4
User268
  6

 40
4.995333194732666
 41
16.97565841674804
 42
4.995330810546875
 43
16.97567749023437
 44
209.9733276367187
 45
296.9259948730469
 46
0.0
 47
0.0
 48
0.0
 49
0.0
140
0.0
141
0.0
142
1.0
143
1.0
 70
 11952
 72
     1
 73
     1
 74
     0
  7

 75
     0
147
1.0
148
-427.5957866592534
149
7.362384574453926
100
AcDbLayout
  1
Model
 70
     1
 71
     0
 10
0.0
 20
0.0
 11
12.0
 21
9.0
 12
0.0
 22
0.0
 32
0.0
 14
0.0
 24
0.0
 34
0.0
 15
0.0
 25
0.0
 35
0.0
146
0.0
 13
0.0
 23
0.0
 33
0.0
 16
1.0
 26
0.0
 36
0.0
 17
0.0
 27
1.0
 37
0.0
 76
     0
330
1F
331
1D90
  0
MATERIAL
  5
1DA2
102
{ACAD_XDICTIONARY
360
1DA3
102
}
102
{ACAD_REACTORS
330
BA8
102
}
330
BA8
100
AcDbMaterial
  1
ByBlock
 72
     0
 43
0.0008202099737533
 43
0.0
 43
0.0
 43
0.0
 43
0.0
 43
0.0008202099737533
 43
0.0
 43
0.0
 43
0.0
 43
0.0
 43
1.0
 43
0.0
 43
0.0
 43
0.0
 43
0.0
 43
1.0
 77
     0
 47
0.0008202099737533
 47
0.0
 47
0.0
 47
0.0
 47
0.0
 47
0.0008202099737533
 47
0.0
 47
0.0
 47
0.0
 47
0.0
 47
1.0
 47
0.0
 47
0.0
 47
0.0
 47
0.0
 47
1.0
171
     0
 49
0.0008202099737533
 49
0.0
 49
0.0
 49
0.0
 49
0.0
 49
0.0008202099737533
 49
0.0
 49
0.0
 49
0.0
 49
0.0
 49
1.0
 49
0.0
 49
0.0
 49
0.0
 49
0.0
 49
1.0
175
     0
142
0.0008202099737533
142
0.0
142
0.0
142
0.0
142
0.0
142
0.0008202099737533
142
0.0
142
0.0
142
0.0
142
0.0
142
1.0
142
0.0
142
0.0
142
0.0
142
0.0
142
1.0
179
     0
144
0.0008202099737533
144
0.0
144
0.0
144
0.0
144
0.0
144
0.0008202099737533
144
0.0
144
0.0
144
0.0
144
0.0
144
1.0
144
0.0
144
0.0
144
0.0
144
0.0
144
1.0
147
0.0008202099737533
147
0.0
147
0.0
147
0.0
147
0.0
147
0.0008202099737533
147
0.0
147
0.0
147
0.0
147
0.0
147
1.0
147
0.0
147
0.0
147
0.0
147
0.0
147
1.0
  0
MATERIAL
  5
1D9A
102
{ACAD_XDICTIONARY
360
1D9B
102
}
102
{ACAD_REACTORS
330
BA8
102
}
330
BA8
100
AcDbMaterial
  1
ByLayer
 72
     0
 43
0.0008202099737533
 43
0.0
 43
0.0
 43
0.0
 43
0.0
 43
0.0008202099737533
 43
0.0
 43
0.0
 43
0.0
 43
0.0
 43
1.0
 43
0.0
 43
0.0
 43
0.0
 43
0.0
 43
1.0
 77
     0
 47
0.0008202099737533
 47
0.0
 47
0.0
 47
0.0
 47
0.0
 47
0.0008202099737533
 47
0.0
 47
0.0
 47
0.0
 47
0.0
 47
1.0
 47
0.0
 47
0.0
 47
0.0
 47
0.0
 47
1.0
171
     0
 49
0.0008202099737533
 49
0.0
 49
0.0
 49
0.0
 49
0.0
 49
0.0008202099737533
 49
0.0
 49
0.0
 49
0.0
 49
0.0
 49
1.0
 49
0.0
 49
0.0
 49
0.0
 49
0.0
 49
1.0
175
     0
142
0.0008202099737533
142
0.0
142
0.0
142
0.0
142
0.0
142
0.0008202099737533
142
0.0
142
0.0
142
0.0
142
0.0
142
1.0
142
0.0
142
0.0
142
0.0
142
0.0
142
1.0
179
     0
144
0.0008202099737533
144
0.0
144
0.0
144
0.0
144
0.0
144
0.0008202099737533
144
0.0
144
0.0
144
0.0
144
0.0
144
1.0
144
0.0
144
0.0
144
0.0
144
0.0
144
1.0
147
0.0008202099737533
147
0.0
147
0.0
147
0.0
147
0.0
147
0.0008202099737533
147
0.0
147
0.0
147
0.0
147
0.0
147
1.0
147
0.0
147
0.0
147
0.0
147
0.0
147
1.0
  0
MATERIAL
  5
1DAA
102
{ACAD_XDICTIONARY
360
1DAB
102
}
102
{ACAD_REACTORS
330
BA8
102
}
330
BA8
100
AcDbMaterial
  1
Global
 72
     0
 43
0.0008202099737533
 43
0.0
 43
0.0
 43
0.0
 43
0.0
 43
0.0008202099737533
 43
0.0
 43
0.0
 43
0.0
 43
0.0
 43
1.0
 43
0.0
 43
0.0
 43
0.0
 43
0.0
 43
1.0
 77
     0
 47
0.0008202099737533
 47
0.0
 47
0.0
 47
0.0
 47
0.0
 47
0.0008202099737533
 47
0.0
 47
0.0
 47
0.0
 47
0.0
 47
1.0
 47
0.0
 47
0.0
 47
0.0
 47
0.0
 47
1.0
171
     0
 49
0.0008202099737533
 49
0.0
 49
0.0
 49
0.0
 49
0.0
 49
0.0008202099737533
 49
0.0
 49
0.0
 49
0.0
 49
0.0
 49
1.0
 49
0.0
 49
0.0
 49
0.0
 49
0.0
 49
1.0
175
     0
142
0.0008202099737533
142
0.0
142
0.0
142
0.0
142
0.0
142
0.0008202099737533
142
0.0
142
0.0
142
0.0
142
0.0
142
1.0
142
0.0
142
0.0
142
0.0
142
0.0
142
1.0
179
     0
144
0.0008202099737533
144
0.0
144
0.0
144
0.0
144
0.0
144
0.0008202099737533
144
0.0
144
0.0
144
0.0
144
0.0
144
1.0
144
0.0
144
0.0
144
0.0
144
0.0
144
1.0
147
0.0008202099737533
147
0.0
147
0.0
147
0.0
147
0.0
147
0.0008202099737533
147
0.0
147
0.0
147
0.0
147
0.0
147
1.0
147
0.0
147
0.0
147
0.0
147
0.0
147
1.0
  0
MLEADERSTYLE
  5
1DD9
102
{ACAD_REACTORS
330
1DD8
102
}
330
1DD8
100
AcDbMLeaderStyle
170
     2
171
     1
172
     0
 90
        2
 40
0.0
 41
0.0
173
     1
 91
-1056964608
340
14
 92
       -2
290
     1
 42
2.0
291
     1
 43
0.36
  3
Standard
 44
4.0
300

342
11
174
     1
178
     6
175
     1
176
     0
 93
-1056964608
 45
4.0
292
     0
297
     0
 46
4.0
 94
-1056964608
 47
1.0
 49
1.0
140
1.0
293
     1
141
0.0
294
     1
177
     0
142
1.0
295
     0
296
     0
143
0.125
1001
ACAD_MLEADERVER
1070
     2
  0
MLINESTYLE
  5
18
102
{ACAD_REACTORS
330
17
102
}
330
17
100
AcDbMlineStyle
  2
STANDARD
 70
     0
  3

 62
   256
 51
90.0
 52
90.0
 71
     2
 49
0.5
 62
   256
  6
BYLAYER
 49
-0.5
 62
   256
  6
BYLAYER
  0
ACDBPLACEHOLDER
  5
F
102
{ACAD_REACTORS
330
E
102
}
330
E
  0
SCALE
  5
1DC7
102
{ACAD_REACTORS
330
1DC6
102
}
330
1DC6
100
AcDbScale
 70
     0
300
1:1
140
1.0
141
1.0
290
     1
  0
SCALE
  5
1DC8
102
{ACAD_REACTORS
330
1DC6
102
}
330
1DC6
100
AcDbScale
 70
     0
300
1:2
140
1.0
141
2.0
290
     0
  0
SCALE
  5
1DC9
102
{ACAD_REACTORS
330
1DC6
102
}
330
1DC6
100
AcDbScale
 70
     0
300
1:4
140
1.0
141
4.0
290
     0
  0
SCALE
  5
1DCA
102
{ACAD_REACTORS
330
1DC6
102
}
330
1DC6
100
AcDbScale
 70
     0
300
1:5
140
1.0
141
5.0
290
     0
  0
SCALE
  5
1DCB
102
{ACAD_REACTORS
330
1DC6
102
}
330
1DC6
100
AcDbScale
 70
     0
300
1:8
140
1.0
141
8.0
290
     0
  0
SCALE
  5
1DCC
102
{ACAD_REACTORS
330
1DC6
102
}
330
1DC6
100
AcDbScale
 70
     0
300
1:10
140
1.0
141
10.0
290
     0
  0
SCALE
  5
1DCD
102
{ACAD_REACTORS
330
1DC6
102
}
330
1DC6
100
AcDbScale
 70
     0
300
1:16
140
1.0
141
16.0
290
     0
  0
SCALE
  5
1DCE
102
{ACAD_REACTORS
330
1DC6
102
}
330
1DC6
100
AcDbScale
 70
     0
300
1:20
140
1.0
141
20.0
290
     0
  0
SCALE
  5
1DCF
102
{ACAD_REACTORS
330
1DC6
102
}
330
1DC6
100
AcDbScale
 70
     0
300
1:30
140
1.0
141
30.0
290
     0
  0
SCALE
  5
1DD0
102
{ACAD_REACTORS
330
1DC6
102
}
330
1DC6
100
AcDbScale
 70
     0
300
1:40
140
1.0
141
40.0
290
     0
  0
SCALE
  5
1DD1
102
{ACAD_REACTORS
330
1DC6
102
}
330
1DC6
100
AcDbScale
 70
     0
300
1:50
140
1.0
141
50.0
290
     0
  0
SCALE
  5
1DD2
102
{ACAD_REACTORS
330
1DC6
102
}
330
1DC6
100
AcDbScale
 70
     0
300
1:100
140
1.0
141
100.0
290
     0
  0
SCALE
  5
1DD3
102
{ACAD_REACTORS
330
1DC6
102
}
330
1DC6
100
AcDbScale
 70
     0
300
2:1
140
2.0
141
1.0
290
     0
  0
SCALE
  5
1DD4
102
{ACAD_REACTORS
330
1DC6
102
}
330
1DC6
100
AcDbScale
 70
     0
300
4:1
140
4.0
141
1.0
290
     0
  0
SCALE
  5
1DD5
102
{ACAD_REACTORS
330
1DC6
102
}
330
1DC6
100
AcDbScale
 70
     0
300
8:1
140
8.0
141
1.0
290
     0
  0
SCALE
  5
1DD6
102
{ACAD_REACTORS
330
1DC6
102
}
330
1DC6
100
AcDbScale
 70
     0
300
10:1
140
10.0
141
1.0
290
     0
  0
SCALE
  5
1DD7
102
{ACAD_REACTORS
330
1DC6
102
}
330
1DC6
100
AcDbScale
 70
     0
300
100:1
140
100.0
141
1.0
290
     0
  0
TABLESTYLE
  5
BAB
102
{ACAD_XDICTIONARY
360
1E02
102
}
102
{ACAD_REACTORS
330
BAA
102
}
330
BAA
100
AcDbTableStyle
  3
Standard
 70
     0
 71
     0
 40
1.5
 41
1.5
280
     0
281
     0
  7
Standard
140
4.5
170
     2
 62
     0
 63
     7
283
     0
274
    -2
284
     1
 64
     0
275
    -2
285
     1
 65
     0
276
    -2
286
     1
 66
     0
277
    -2
287
     1
 67
     0
278
    -2
288
     1
 68
     0
279
    -2
289
     1
 69
     0
  7
Standard
140
6.0
170
     5
 62
     0
 63
     7
283
     0
274
    -2
284
     1
 64
     0
275
    -2
285
     1
 65
     0
276
    -2
286
     1
 66
     0
277
    -2
287
     1
 67
     0
278
    -2
288
     1
 68
     0
279
    -2
289
     1
 69
     0
  7
Standard
140
4.5
170
     5
 62
     0
 63
     7
283
     0
274
    -2
284
     1
 64
     0
275
    -2
285
     1
 65
     0
276
    -2
286
     1
 66
     0
277
    -2
287
     1
 67
     0
278
    -2
288
     1
 68
     0
279
    -2
289
     1
 69
     0
  0
VISUALSTYLE
  5
1DB8
102
{ACAD_XDICTIONARY
360
1E30
102
}
102
{ACAD_REACTORS
330
1DB2
102
}
330
1DB2
100
AcDbVisualStyle
  2
2dWireframe
 70
     4
 71
     0
 72
     2
 73
     0
 90
        0
 40
-0.6
 41
-30.0
 62
     5
 63
     7
 74
     1
 91
        4
 64
     7
 65
   257
 75
     1
175
     1
 42
1.0
 92
        0
 66
   257
 43
1.0
 76
     1
 77
     6
 78
     2
 67
     7
 79
     5
170
     0
171
     0
290
     0
174
     0
 93
        1
 44
0.0
173
     0
291
     0
 45
0.0
1001
ACAD
1000
AcDbSavedByObjectVersion
1070
     0
  0
VISUALSTYLE
  5
1DBA
102
{ACAD_XDICTIONARY
360
1E34
102
}
102
{ACAD_REACTORS
330
1DB2
102
}
330
1DB2
100
AcDbVisualStyle
  2
3D Hidden
 70
     6
 71
     1
 72
     2
 73
     2
 90
        0
 40
-0.6
 41
-30.0
 62
     5
 63
     7
 74
     2
 91
        2
 64
     7
 65
   257
 75
     2
175
     1
 42
179.0
 92
        0
 66
   257
 43
1.0
 76
     1
 77
     6
 78
     2
 67
     7
 79
     3
170
     0
171
     0
290
     0
174
     0
 93
        1
 44
0.0
173
     0
291
     0
 45
0.0
1001
ACAD
1000
AcDbSavedByObjectVersion
1070
     0
  0
VISUALSTYLE
  5
1DB9
102
{ACAD_XDICTIONARY
360
1E32
102
}
102
{ACAD_REACTORS
330
1DB2
102
}
330
1DB2
100
AcDbVisualStyle
  2
3dWireframe
 70
     5
 71
     0
 72
     2
 73
     0
 90
        0
 40
-0.6
 41
-30.0
 62
     5
 63
     7
 74
     1
 91
        4
 64
     7
 65
   257
 75
     1
175
     1
 42
1.0
 92
        0
 66
   257
 43
1.0
 76
     1
 77
     6
 78
     2
 67
     7
 79
     5
170
     0
171
     0
290
     0
174
     0
 93
        1
 44
0.0
173
     0
291
     0
 45
0.0
1001
ACAD
1000
AcDbSavedByObjectVersion
1070
     0
  0
VISUALSTYLE
  5
1DB7
102
{ACAD_XDICTIONARY
360
1E2E
102
}
102
{ACAD_REACTORS
330
1DB2
102
}
330
1DB2
100
AcDbVisualStyle
  2
Basic
 70
     7
 71
     1
 72
     0
 73
     1
 90
        0
 40
-0.6
 41
-30.0
 62
     5
 63
     7
 74
     0
 91
        4
 64
     7
 65
   257
 75
     1
175
     1
 42
1.0
 92
        8
 66
     7
 43
1.0
 76
     1
 77
     6
 78
     2
 67
     7
 79
     5
170
     0
171
     0
290
     0
174
     0
 93
        1
 44
0.0
173
     0
291
     1
 45
0.0
1001
ACAD
1000
AcDbSavedByObjectVersion
1070
     0
  0
VISUALSTYLE
  5
1DBE
102
{ACAD_XDICTIONARY
360
1E3C
102
}
102
{ACAD_REACTORS
330
1DB2
102
}
330
1DB2
100
AcDbVisualStyle
  2
Brighten
 70
    12
 71
     2
 72
     2
 73
     0
 90
        0
 40
-0.6
 41
-30.0
 62
     5
 63
     7
 74
     1
 91
        4
 64
     7
 65
   257
 75
     1
175
     1
 42
1.0
 92
        8
 66
     7
 43
1.0
 76
     1
 77
     6
 78
     2
 67
     7
 79
     5
170
     0
171
     0
290
     0
174
     0
 93
        1
 44
50.0
173
     0
291
     1
 45
0.0
1001
ACAD
1000
AcDbSavedByObjectVersion
1070
     0
  0
VISUALSTYLE
  5
1DC2
102
{ACAD_XDICTIONARY
360
1E44
102
}
102
{ACAD_REACTORS
330
1DB2
102
}
330
1DB2
100
AcDbVisualStyle
  2
ColorChange
 70
    16
 71
     2
 72
     2
 73
     3
 90
        0
 40
-0.6
 41
-30.0
 62
     5
 63
     8
 74
     1
 91
        4
 64
     7
 65
   257
 75
     1
175
     1
 42
1.0
 92
        8
 66
     8
 43
1.0
 76
     1
 77
     6
 78
     2
 67
     7
 79
     5
170
     0
171
     0
290
     0
174
     0
 93
        1
 44
0.0
173
     0
291
     1
 45
0.0
1001
ACAD
1000
AcDbSavedByObjectVersion
1070
     0
  0
VISUALSTYLE
  5
1DBB
102
{ACAD_XDICTIONARY
360
1E36
102
}
102
{ACAD_REACTORS
330
1DB2
102
}
330
1DB2
100
AcDbVisualStyle
  2
Conceptual
 70
     9
 71
     3
 72
     2
 73
     0
 90
        0
 40
-0.6
 41
-30.0
 62
     5
 63
     7
 74
     2
 91
        2
 64
     7
 65
   257
 75
     1
175
     1
 42
179.0
 92
        8
 66
     7
 43
1.0
 76
     1
 77
     6
 78
     2
 67
     7
 79
     3
170
     0
171
     0
290
     0
174
     0
 93
        1
 44
0.0
173
     0
291
     0
 45
0.0
1001
ACAD
1000
AcDbSavedByObjectVersion
1070
     0
  0
VISUALSTYLE
  5
1DBD
102
{ACAD_XDICTIONARY
360
1E3A
102
}
102
{ACAD_REACTORS
330
1DB2
102
}
330
1DB2
100
AcDbVisualStyle
  2
Dim
 70
    11
 71
     2
 72
     2
 73
     0
 90
        0
 40
-0.6
 41
-30.0
 62
     5
 63
     7
 74
     1
 91
        4
 64
     7
 65
   257
 75
     1
175
     1
 42
1.0
 92
        8
 66
     7
 43
1.0
 76
     1
 77
     6
 78
     2
 67
     7
 79
     5
170
     0
171
     0
290
     0
174
     0
 93
        1
 44
-50.0
173
     0
291
     1
 45
0.0
1001
ACAD
1000
AcDbSavedByObjectVersion
1070
     0
  0
VISUALSTYLE
  5
1DC5
102
{ACAD_XDICTIONARY
360
1E4A
102
}
102
{ACAD_REACTORS
330
1DB2
102
}
330
1DB2
100
AcDbVisualStyle
  2
EdgeColorOff
 70
    22
 71
     2
 72
     2
 73
     0
 90
        0
 40
-0.6
 41
-30.0
 62
     5
 63
     7
 74
     1
 91
        4
 64
     7
 65
   257
 75
     1
175
     1
 42
1.0
 92
        8
 66
     7
 43
1.0
 76
     1
 77
     6
 78
     2
 67
     7
 79
     5
170
     0
171
     0
290
     0
174
     0
 93
        1
 44
0.0
173
     0
291
     1
 45
0.0
1001
ACAD
1000
AcDbSavedByObjectVersion
1070
     0
  0
VISUALSTYLE
  5
1DC1
102
{ACAD_XDICTIONARY
360
1E42
102
}
102
{ACAD_REACTORS
330
1DB2
102
}
330
1DB2
100
AcDbVisualStyle
  2
Facepattern
 70
    15
 71
     2
 72
     2
 73
     0
 90
        0
 40
-0.6
 41
-30.0
 62
     5
 63
     7
 74
     1
 91
        4
 64
     7
 65
   257
 75
     1
175
     1
 42
1.0
 92
        8
 66
     7
 43
1.0
 76
     1
 77
     6
 78
     2
 67
     7
 79
     5
170
     0
171
     0
290
     0
174
     0
 93
        1
 44
0.0
173
     0
291
     1
 45
0.0
1001
ACAD
1000
AcDbSavedByObjectVersion
1070
     0
  0
VISUALSTYLE
  5
1DB3
102
{ACAD_XDICTIONARY
360
1E26
102
}
102
{ACAD_REACTORS
330
1DB2
102
}
330
1DB2
100
AcDbVisualStyle
  2
Flat
 70
     0
 71
     2
 72
     1
 73
     1
 90
        2
 40
-0.6
 41
30.0
 62
     5
 63
     7
 74
     0
 91
        4
 64
     7
 65
   257
 75
     1
175
     1
 42
1.0
 92
        8
 66
     7
 43
1.0
 76
     1
 77
     6
 78
     2
 67
     7
 79
     5
170
     0
171
     0
290
     0
174
     0
 93
       13
 44
0.0
173
     0
291
     1
 45
0.0
1001
ACAD
1000
AcDbSavedByObjectVersion
1070
     0
  0
VISUALSTYLE
  5
1DB4
102
{ACAD_XDICTIONARY
360
1E28
102
}
102
{ACAD_REACTORS
330
1DB2
102
}
330
1DB2
100
AcDbVisualStyle
  2
FlatWithEdges
 70
     1
 71
     2
 72
     1
 73
     1
 90
        2
 40
-0.6
 41
30.0
 62
     5
 63
     7
 74
     1
 91
        4
 64
     7
 65
   257
 75
     1
175
     1
 42
1.0
 92
        0
 66
   257
 43
1.0
 76
     1
 77
     6
 78
     2
 67
     7
 79
     5
170
     0
171
     0
290
     0
174
     0
 93
       13
 44
0.0
173
     0
291
     1
 45
0.0
1001
ACAD
1000
AcDbSavedByObjectVersion
1070
     0
  0
VISUALSTYLE
  5
1DB5
102
{ACAD_XDICTIONARY
360
1E2A
102
}
102
{ACAD_REACTORS
330
1DB2
102
}
330
1DB2
100
AcDbVisualStyle
  2
Gouraud
 70
     2
 71
     2
 72
     2
 73
     1
 90
        2
 40
-0.6
 41
30.0
 62
     5
 63
     7
 74
     0
 91
        4
 64
     7
 65
   257
 75
     1
175
     1
 42
1.0
 92
        0
 66
     7
 43
1.0
 76
     1
 77
     6
 78
     2
 67
     7
 79
     5
170
     0
171
     0
290
     0
174
     0
 93
       13
 44
0.0
173
     0
291
     1
 45
0.0
1001
ACAD
1000
AcDbSavedByObjectVersion
1070
     0
  0
VISUALSTYLE
  5
1DB6
102
{ACAD_XDICTIONARY
360
1E2C
102
}
102
{ACAD_REACTORS
330
1DB2
102
}
330
1DB2
100
AcDbVisualStyle
  2
GouraudWithEdges
 70
     3
 71
     2
 72
     2
 73
     1
 90
        2
 40
-0.6
 41
30.0
 62
     5
 63
     7
 74
     1
 91
        4
 64
     7
 65
   257
 75
     1
175
     1
 42
1.0
 92
        0
 66
   257
 43
1.0
 76
     1
 77
     6
 78
     2
 67
     7
 79
     5
170
     0
171
     0
290
     0
174
     0
 93
       13
 44
0.0
173
     0
291
     1
 45
0.0
1001
ACAD
1000
AcDbSavedByObjectVersion
1070
     0
  0
VISUALSTYLE
  5
1DC3
102
{ACAD_XDICTIONARY
360
1E46
102
}
102
{ACAD_REACTORS
330
1DB2
102
}
330
1DB2
100
AcDbVisualStyle
  2
JitterOff
 70
    20
 71
     2
 72
     2
 73
     0
 90
        0
 40
-0.6
 41
-30.0
 62
     5
 63
     7
 74
     1
 91
        4
 64
     7
 65
   257
 75
     1
175
     1
 42
1.0
 92
       10
 66
     7
 43
1.0
 76
     1
 77
     6
 78
     2
 67
     7
 79
     5
170
     0
171
     0
290
     0
174
     0
 93
        1
 44
0.0
173
     0
291
     1
 45
0.0
1001
ACAD
1000
AcDbSavedByObjectVersion
1070
     0
  0
VISUALSTYLE
  5
1DC0
102
{ACAD_XDICTIONARY
360
1E40
102
}
102
{ACAD_REACTORS
330
1DB2
102
}
330
1DB2
100
AcDbVisualStyle
  2
Linepattern
 70
    14
 71
     2
 72
     2
 73
     0
 90
        0
 40
-0.6
 41
-30.0
 62
     5
 63
     7
 74
     1
 91
        4
 64
     7
 65
   257
 75
     7
175
     7
 42
1.0
 92
        8
 66
     7
 43
1.0
 76
     1
 77
     6
 78
     2
 67
     7
 79
     5
170
     0
171
     0
290
     0
174
     0
 93
        1
 44
0.0
173
     0
291
     1
 45
0.0
1001
ACAD
1000
AcDbSavedByObjectVersion
1070
     0
  0
VISUALSTYLE
  5
1DC4
102
{ACAD_XDICTIONARY
360
1E48
102
}
102
{ACAD_REACTORS
330
1DB2
102
}
330
1DB2
100
AcDbVisualStyle
  2
OverhangOff
 70
    21
 71
     2
 72
     2
 73
     0
 90
        0
 40
-0.6
 41
-30.0
 62
     5
 63
     7
 74
     1
 91
        4
 64
     7
 65
   257
 75
     1
175
     1
 42
1.0
 92
        9
 66
     7
 43
1.0
 76
     1
 77
     6
 78
     2
 67
     7
 79
     5
170
     0
171
     0
290
     0
174
     0
 93
        1
 44
0.0
173
     0
291
     1
 45
0.0
1001
ACAD
1000
AcDbSavedByObjectVersion
1070
     0
  0
VISUALSTYLE
  5
1DBC
102
{ACAD_XDICTIONARY
360
1E38
102
}
102
{ACAD_REACTORS
330
1DB2
102
}
330
1DB2
100
AcDbVisualStyle
  2
Realistic
 70
     8
 71
     2
 72
     2
 73
     0
 90
        0
 40
-0.6
 41
-30.0
 62
     5
 63
     7
 74
     1
 91
        0
 64
     7
 65
   257
 75
     1
175
     1
 42
1.0
 92
        8
 66
     8
 43
1.0
 76
     1
 77
     6
 78
     2
 67
     7
 79
     5
170
     0
171
     0
290
     0
174
     0
 93
       13
 44
0.0
173
     0
291
     0
 45
0.0
1001
ACAD
1000
AcDbSavedByObjectVersion
1070
     0
  0
VISUALSTYLE
  5
1DBF
102
{ACAD_XDICTIONARY
360
1E3E
102
}
102
{ACAD_REACTORS
330
1DB2
102
}
330
1DB2
100
AcDbVisualStyle
  2
Thicken
 70
    13
 71
     2
 72
     2
 73
     0
 90
        0
 40
-0.6
 41
-30.0
 62
     5
 63
     7
 74
     1
 91
        4
 64
     7
 65
   257
 75
     1
175
     1
 42
1.0
 92
       12
 66
     7
 43
1.0
 76
     1
 77
     6
 78
     2
 67
     7
 79
     5
170
     0
171
     0
290
     0
174
     0
 93
        1
 44
0.0
173
     0
291
     1
 45
0.0
1001
ACAD
1000
AcDbSavedByObjectVersion
1070
     0
  0
DICTIONARYVAR
  5
1DFE
102
{ACAD_REACTORS
330
3D
102
}
330
3D
100
DictionaryVariables
280
     0
  1
1:1
  0
DICTIONARYVAR
  5
1DFD
102
{ACAD_REACTORS
330
3D
102
}
330
3D
100
DictionaryVariables
280
     0
  1
STANDARD
  0
DICTIONARYVAR
  5
18A8
102
{ACAD_REACTORS
330
3D
102
}
330
3D
100
DictionaryVariables
280
     0
  1
STANDARD
  0
DICTIONARYVAR
  5
3F
102
{ACAD_REACTORS
330
3D
102
}
330
3D
100
DictionaryVariables
280
     0
  1
2
  0
DICTIONARYVAR
  5
3E
102
{ACAD_REACTORS
330
3D
102
}
330
3D
100
DictionaryVariables
280
     0
  1
1
  0
DICTIONARYVAR
  5
1E00
102
{ACAD_REACTORS
330
3D
102
}
330
3D
100
DictionaryVariables
280
     0
  1
0
  0
DICTIONARYVAR
  5
1D98
102
{ACAD_REACTORS
330
3D
102
}
330
3D
100
DictionaryVariables
280
     0
  1

  0
DICTIONARYVAR
  5
1DFF
102
{ACAD_REACTORS
330
3D
102
}
330
3D
100
DictionaryVariables
280
     0
  1
127
  0
DICTIONARYVAR
  5
1E01
102
{ACAD_REACTORS
330
3D
102
}
330
3D
100
DictionaryVariables
280
     0
  1
2
  0
XRECORD
  5
18A6
102
{ACAD_REACTORS
330
18A5
102
}
330
18A5
100
AcDbXrecord
280
     1
  0
DICTIONARY
  5
1E06
330
1E
100
AcDbDictionary
280
     1
281
     1
  3
ACAD_XREC_ROUNDTRIP
360
1E07
  0
DICTIONARY
  5
1E0A
330
26
100
AcDbDictionary
280
     1
281
     1
  3
ACAD_XREC_ROUNDTRIP
360
1E0B
  0
DICTIONARY
  5
1E08
330
22
100
AcDbDictionary
280
     1
281
     1
  3
ACAD_XREC_ROUNDTRIP
360
1E09
  0
DICTIONARY
  5
1DA3
330
1DA2
100
AcDbDictionary
280
     1
281
     1
  3
ACAD_XREC_ROUNDTRIP
360
1E24
  3
BUMPTILE
360
1DA5
  3
DIFFUSETILE
360
1DA4
  3
OPACITYTILE
360
1DA8
  3
REFLECTIONTILE
360
1DA7
  3
REFRACTIONTILE
360
1DA9
  3
SPECULARTILE
360
1DA6
  0
DICTIONARY
  5
1D9B
330
1D9A
100
AcDbDictionary
280
     1
281
     1
  3
ACAD_XREC_ROUNDTRIP
360
1E23
  3
BUMPTILE
360
1D9D
  3
DIFFUSETILE
360
1D9C
  3
OPACITYTILE
360
1DA0
  3
REFLECTIONTILE
360
1D9F
  3
REFRACTIONTILE
360
1DA1
  3
SPECULARTILE
360
1D9E
  0
DICTIONARY
  5
1DAB
330
1DAA
100
AcDbDictionary
280
     1
281
     1
  3
ACAD_XREC_ROUNDTRIP
360
1E25
  3
BUMPTILE
360
1DAD
  3
DIFFUSETILE
360
1DAC
  3
OPACITYTILE
360
1DB0
  3
REFLECTIONTILE
360
1DAF
  3
REFRACTIONTILE
360
1DB1
  3
SPECULARTILE
360
1DAE
  0
DICTIONARY
  5
1E02
330
BAB
100
AcDbDictionary
280
     1
281
     1
  3
ACAD_ROUNDTRIP_2008_TABLESTYLE_CELLSTYLEMAP
360
1E03
  3
ACAD_XREC_ROUNDTRIP
360
1E0C
  0
DICTIONARY
  5
1E30
330
1DB8
100
AcDbDictionary
280
     1
281
     1
  3
ACAD_XREC_ROUNDTRIP
360
1E31
  0
DICTIONARY
  5
1E34
330
1DBA
100
AcDbDictionary
280
     1
281
     1
  3
ACAD_XREC_ROUNDTRIP
360
1E35
  0
DICTIONARY
  5
1E32
330
1DB9
100
AcDbDictionary
280
     1
281
     1
  3
ACAD_XREC_ROUNDTRIP
360
1E33
  0
DICTIONARY
  5
1E2E
330
1DB7
100
AcDbDictionary
280
     1
281
     1
  3
ACAD_XREC_ROUNDTRIP
360
1E2F
  0
DICTIONARY
  5
1E3C
330
1DBE
100
AcDbDictionary
280
     1
281
     1
  3
ACAD_XREC_ROUNDTRIP
360
1E3D
  0
DICTIONARY
  5
1E44
330
1DC2
100
AcDbDictionary
280
     1
281
     1
  3
ACAD_XREC_ROUNDTRIP
360
1E45
  0
DICTIONARY
  5
1E36
330
1DBB
100
AcDbDictionary
280
     1
281
     1
  3
ACAD_XREC_ROUNDTRIP
360
1E37
  0
DICTIONARY
  5
1E3A
330
1DBD
100
AcDbDictionary
280
     1
281
     1
  3
ACAD_XREC_ROUNDTRIP
360
1E3B
  0
DICTIONARY
  5
1E4A
330
1DC5
100
AcDbDictionary
280
     1
281
     1
  3
ACAD_XREC_ROUNDTRIP
360
1E4B
  0
DICTIONARY
  5
1E42
330
1DC1
100
AcDbDictionary
280
     1
281
     1
  3
ACAD_XREC_ROUNDTRIP
360
1E43
  0
DICTIONARY
  5
1E26
330
1DB3
100
AcDbDictionary
280
     1
281
     1
  3
ACAD_XREC_ROUNDTRIP
360
1E27
  0
DICTIONARY
  5
1E28
330
1DB4
100
AcDbDictionary
280
     1
281
     1
  3
ACAD_XREC_ROUNDTRIP
360
1E29
  0
DICTIONARY
  5
1E2A
330
1DB5
100
AcDbDictionary
280
     1
281
     1
  3
ACAD_XREC_ROUNDTRIP
360
1E2B
  0
DICTIONARY
  5
1E2C
330
1DB6
100
AcDbDictionary
280
     1
281
     1
  3
ACAD_XREC_ROUNDTRIP
360
1E2D
  0
DICTIONARY
  5
1E46
330
1DC3
100
AcDbDictionary
280
     1
281
     1
  3
ACAD_XREC_ROUNDTRIP
360
1E47
  0
DICTIONARY
  5
1E40
330
1DC0
100
AcDbDictionary
280
     1
281
     1
  3
ACAD_XREC_ROUNDTRIP
360
1E41
  0
DICTIONARY
  5
1E48
330
1DC4
100
AcDbDictionary
280
     1
281
     1
  3
ACAD_XREC_ROUNDTRIP
360
1E49
  0
DICTIONARY
  5
1E38
330
1DBC
100
AcDbDictionary
280
     1
281
     1
  3
ACAD_XREC_ROUNDTRIP
360
1E39
  0
DICTIONARY
  5
1E3E
330
1DBF
100
AcDbDictionary
280
     1
281
     1
  3
ACAD_XREC_ROUNDTRIP
360
1E3F
  0
XRECORD
  5
1E07
102
{ACAD_REACTORS
330
1E06
102
}
330
1E06
100
AcDbXrecord
280
     1
102
SHADEPLOT
 70
     0
102
SHADEPLOTRESLEVEL
 70
     2
102
SHADEPLOTCUSTOMDPI
 70
   300
  0
XRECORD
  5
1E0B
102
{ACAD_REACTORS
330
1E0A
102
}
330
1E0A
100
AcDbXrecord
280
     1
102
SHADEPLOT
 70
     0
102
SHADEPLOTRESLEVEL
 70
     2
102
SHADEPLOTCUSTOMDPI
 70
   300
  0
XRECORD
  5
1E09
102
{ACAD_REACTORS
330
1E08
102
}
330
1E08
100
AcDbXrecord
280
     1
102
SHADEPLOT
 70
     0
102
SHADEPLOTRESLEVEL
 70
     2
102
SHADEPLOTCUSTOMDPI
 70
   300
  0
XRECORD
  5
1E24
102
{ACAD_REACTORS
330
1DA3
102
}
330
1DA3
100
AcDbXrecord
280
     1
102
MATERIAL
148
0.0
149
0.0
149
0.0
 93
        0
 94
      127
282
     0
 72
     0
 77
     0
171
     0
175
     0
179
     0
273
     0
  0
XRECORD
  5
1DA5
102
{ACAD_REACTORS
330
1DA3
102
}
330
1DA3
100
AcDbXrecord
280
     1
270
     1
271
     1
  0
XRECORD
  5
1DA4
102
{ACAD_REACTORS
330
1DA3
102
}
330
1DA3
100
AcDbXrecord
280
     1
270
     1
271
     1
  0
XRECORD
  5
1DA8
102
{ACAD_REACTORS
330
1DA3
102
}
330
1DA3
100
AcDbXrecord
280
     1
270
     1
271
     1
  0
XRECORD
  5
1DA7
102
{ACAD_REACTORS
330
1DA3
102
}
330
1DA3
100
AcDbXrecord
280
     1
270
     1
271
     1
  0
XRECORD
  5
1DA9
102
{ACAD_REACTORS
330
1DA3
102
}
330
1DA3
100
AcDbXrecord
280
     1
270
     1
271
     1
  0
XRECORD
  5
1DA6
102
{ACAD_REACTORS
330
1DA3
102
}
330
1DA3
100
AcDbXrecord
280
     1
270
     1
271
     1
  0
XRECORD
  5
1E23
102
{ACAD_REACTORS
330
1D9B
102
}
330
1D9B
100
AcDbXrecord
280
     1
102
MATERIAL
148
0.0
149
0.0
149
0.0
 93
        0
 94
      127
282
     0
 72
     0
 77
     0
171
     0
175
     0
179
     0
273
     0
  0
XRECORD
  5
1D9D
102
{ACAD_REACTORS
330
1D9B
102
}
330
1D9B
100
AcDbXrecord
280
     1
270
     1
271
     1
  0
XRECORD
  5
1D9C
102
{ACAD_REACTORS
330
1D9B
102
}
330
1D9B
100
AcDbXrecord
280
     1
270
     1
271
     1
  0
XRECORD
  5
1DA0
102
{ACAD_REACTORS
330
1D9B
102
}
330
1D9B
100
AcDbXrecord
280
     1
270
     1
271
     1
  0
XRECORD
  5
1D9F
102
{ACAD_REACTORS
330
1D9B
102
}
330
1D9B
100
AcDbXrecord
280
     1
270
     1
271
     1
  0
XRECORD
  5
1DA1
102
{ACAD_REACTORS
330
1D9B
102
}
330
1D9B
100
AcDbXrecord
280
     1
270
     1
271
     1
  0
XRECORD
  5
1D9E
102
{ACAD_REACTORS
330
1D9B
102
}
330
1D9B
100
AcDbXrecord
280
     1
270
     1
271
     1
  0
XRECORD
  5
1E25
102
{ACAD_REACTORS
330
1DAB
102
}
330
1DAB
100
AcDbXrecord
280
     1
102
MATERIAL
148
0.0
149
0.0
149
0.0
 93
        0
 94
      127
282
     0
 72
     0
 77
     0
171
     0
175
     0
179
     0
273
     0
  0
XRECORD
  5
1DAD
102
{ACAD_REACTORS
330
1DAB
102
}
330
1DAB
100
AcDbXrecord
280
     1
270
     1
271
     1
  0
XRECORD
  5
1DAC
102
{ACAD_REACTORS
330
1DAB
102
}
330
1DAB
100
AcDbXrecord
280
     1
270
     1
271
     1
  0
XRECORD
  5
1DB0
102
{ACAD_REACTORS
330
1DAB
102
}
330
1DAB
100
AcDbXrecord
280
     1
270
     1
271
     1
  0
XRECORD
  5
1DAF
102
{ACAD_REACTORS
330
1DAB
102
}
330
1DAB
100
AcDbXrecord
280
     1
270
     1
271
     1
  0
XRECORD
  5
1DB1
102
{ACAD_REACTORS
330
1DAB
102
}
330
1DAB
100
AcDbXrecord
280
     1
270
     1
271
     1
  0
XRECORD
  5
1DAE
102
{ACAD_REACTORS
330
1DAB
102
}
330
1DAB
100
AcDbXrecord
280
     1
270
     1
271
     1
  0
CELLSTYLEMAP
  5
1E03
102
{ACAD_REACTORS
330
1E02
102
}
330
1E02
100
AcDbCellStyleMap
 90
        3
300
CELLSTYLE
  1
TABLEFORMAT_BEGIN
 90
        5
170
     1
 91
        0
 92
    32768
 62
   257
 93
        1
300
CONTENTFORMAT
  1
CONTENTFORMAT_BEGIN
 90
        0
 91
        0
 92
        4
 93
        0
300

 40
0.0
140
1.0
 94
        5
 62
     0
340
11
144
6.0
309
CONTENTFORMAT_END
171
     1
301
MARGIN
  1
CELLMARGIN_BEGIN
 40
1.5
 40
1.5
 40
1.5
 40
1.5
 40
0.18
 40
0.18
309
CELLMARGIN_END
 94
        6
 95
        1
302
GRIDFORMAT
  1
GRIDFORMAT_BEGIN
 90
        0
 91
        1
 62
     0
 92
       -2
340
0
 93
        0
 40
0.045
309
GRIDFORMAT_END
 95
        2
302
GRIDFORMAT
  1
GRIDFORMAT_BEGIN
 90
        0
 91
        1
 62
     0
 92
       -2
340
0
 93
        0
 40
0.045
309
GRIDFORMAT_END
 95
        4
302
GRIDFORMAT
  1
GRIDFORMAT_BEGIN
 90
        0
 91
        1
 62
     0
 92
       -2
340
0
 93
        0
 40
0.045
309
GRIDFORMAT_END
 95
        8
302
GRIDFORMAT
  1
GRIDFORMAT_BEGIN
 90
        0
 91
        1
 62
     0
 92
       -2
340
0
 93
        0
 40
0.045
309
GRIDFORMAT_END
 95
       16
302
GRIDFORMAT
  1
GRIDFORMAT_BEGIN
 90
        0
 91
        1
 62
     0
 92
       -2
340
0
 93
        0
 40
0.045
309
GRIDFORMAT_END
 95
       32
302
GRIDFORMAT
  1
GRIDFORMAT_BEGIN
 90
        0
 91
        1
 62
     0
 92
       -2
340
0
 93
        0
 40
0.045
309
GRIDFORMAT_END
309
TABLEFORMAT_END
  1
CELLSTYLE_BEGIN
 90
        1
 91
        1
300
_TITLE
309
CELLSTYLE_END
300
CELLSTYLE
  1
TABLEFORMAT_BEGIN
 90
        5
170
     1
 91
        0
 92
        0
 62
   257
 93
        1
300
CONTENTFORMAT
  1
CONTENTFORMAT_BEGIN
 90
        0
 91
        0
 92
        4
 93
        0
300

 40
0.0
140
1.0
 94
        5
 62
     0
340
11
144
4.5
309
CONTENTFORMAT_END
171
     1
301
MARGIN
  1
CELLMARGIN_BEGIN
 40
1.5
 40
1.5
 40
1.5
 40
1.5
 40
0.18
 40
0.18
309
CELLMARGIN_END
 94
        6
 95
        1
302
GRIDFORMAT
  1
GRIDFORMAT_BEGIN
 90
        0
 91
        1
 62
     0
 92
       -2
340
0
 93
        0
 40
0.045
309
GRIDFORMAT_END
 95
        2
302
GRIDFORMAT
  1
GRIDFORMAT_BEGIN
 90
        0
 91
        1
 62
     0
 92
       -2
340
0
 93
        0
 40
0.045
309
GRIDFORMAT_END
 95
        4
302
GRIDFORMAT
  1
GRIDFORMAT_BEGIN
 90
        0
 91
        1
 62
     0
 92
       -2
340
0
 93
        0
 40
0.045
309
GRIDFORMAT_END
 95
        8
302
GRIDFORMAT
  1
GRIDFORMAT_BEGIN
 90
        0
 91
        1
 62
     0
 92
       -2
340
0
 93
        0
 40
0.045
309
GRIDFORMAT_END
 95
       16
302
GRIDFORMAT
  1
GRIDFORMAT_BEGIN
 90
        0
 91
        1
 62
     0
 92
       -2
340
0
 93
        0
 40
0.045
309
GRIDFORMAT_END
 95
       32
302
GRIDFORMAT
  1
GRIDFORMAT_BEGIN
 90
        0
 91
        1
 62
     0
 92
       -2
340
0
 93
        0
 40
0.045
309
GRIDFORMAT_END
309
TABLEFORMAT_END
  1
CELLSTYLE_BEGIN
 90
        2
 91
        1
300
_HEADER
309
CELLSTYLE_END
300
CELLSTYLE
  1
TABLEFORMAT_BEGIN
 90
        5
170
     1
 91
        0
 92
        0
 62
   257
 93
        1
300
CONTENTFORMAT
  1
CONTENTFORMAT_BEGIN
 90
        0
 91
        0
 92
        4
 93
        0
300

 40
0.0
140
1.0
 94
        2
 62
     0
340
11
144
4.5
309
CONTENTFORMAT_END
171
     1
301
MARGIN
  1
CELLMARGIN_BEGIN
 40
1.5
 40
1.5
 40
1.5
 40
1.5
 40
0.18
 40
0.18
309
CELLMARGIN_END
 94
        6
 95
        1
302
GRIDFORMAT
  1
GRIDFORMAT_BEGIN
 90
        0
 91
        1
 62
     0
 92
       -2
340
0
 93
        0
 40
0.045
309
GRIDFORMAT_END
 95
        2
302
GRIDFORMAT
  1
GRIDFORMAT_BEGIN
 90
        0
 91
        1
 62
     0
 92
       -2
340
0
 93
        0
 40
0.045
309
GRIDFORMAT_END
 95
        4
302
GRIDFORMAT
  1
GRIDFORMAT_BEGIN
 90
        0
 91
        1
 62
     0
 92
       -2
340
0
 93
        0
 40
0.045
309
GRIDFORMAT_END
 95
        8
302
GRIDFORMAT
  1
GRIDFORMAT_BEGIN
 90
        0
 91
        1
 62
     0
 92
       -2
340
0
 93
        0
 40
0.045
309
GRIDFORMAT_END
 95
       16
302
GRIDFORMAT
  1
GRIDFORMAT_BEGIN
 90
        0
 91
        1
 62
     0
 92
       -2
340
0
 93
        0
 40
0.045
309
GRIDFORMAT_END
 95
       32
302
GRIDFORMAT
  1
GRIDFORMAT_BEGIN
 90
        0
 91
        1
 62
     0
 92
       -2
340
0
 93
        0
 40
0.045
309
GRIDFORMAT_END
309
TABLEFORMAT_END
  1
CELLSTYLE_BEGIN
 90
        3
 91
        2
300
_DATA
309
CELLSTYLE_END
  0
XRECORD
  5
1E0C
102
{ACAD_REACTORS
330
1E02
102
}
330
1E02
100
AcDbXrecord
280
     1
102
ACAD_ROUNDTRIP_PRE2007_TABLESTYLE
 90
        4
 91
        0
  1

 92
        4
 93
        0
  2

 94
        4
 95
        0
  3

  0
XRECORD
  5
1E31
102
{ACAD_REACTORS
330
1E30
102
}
330
1E30
100
AcDbXrecord
280
     1
102
RTVSPropertyOp0
 70
     1
102
RTVSPropertyOp1
 70
     1
102
RTVSPropertyOp2
 70
     1
102
RTVSPropertyOp3
 70
     1
102
RTVSPropertyOp4
 70
     1
102
RTVSPropertyOp5
 70
     1
102
RTVSPropertyOp6
 70
     1
102
RTVSPropertyOp7
 70
     1
102
RTVSPropertyOp8
 70
     1
102
RTVSPropertyOp9
 70
     1
102
RTVSPropertyOp10
 70
     1
102
RTVSPropertyOp11
 70
     1
102
RTVSPropertyOp12
 70
     1
102
RTVSPropertyOp13
 70
     1
102
RTVSPropertyOp14
 70
     1
102
RTVSPropertyOp15
 70
     1
102
RTVSPropertyOp16
 70
     1
102
RTVSPropertyOp17
 70
     1
102
RTVSPropertyOp18
 70
     1
102
RTVSPropertyOp19
 70
     1
102
RTVSPropertyOp20
 70
     1
102
RTVSPropertyOp21
 70
     1
102
RTVSPropertyOp22
 70
     1
102
RTVSPropertyOp23
 70
     1
102
RTVSPropertyOp24
 70
     1
102
RTVSPropertyOp25
 70
     1
102
RTVSPropertyOp26
 70
     1
102
RTVSPropertyOp27
 70
     1
  0
XRECORD
  5
1E35
102
{ACAD_REACTORS
330
1E34
102
}
330
1E34
100
AcDbXrecord
280
     1
102
RTVSPropertyOp0
 70
     1
102
RTVSPropertyOp1
 70
     1
102
RTVSPropertyOp2
 70
     1
102
RTVSPropertyOp3
 70
     1
102
RTVSPropertyOp4
 70
     1
102
RTVSPropertyOp5
 70
     1
102
RTVSPropertyOp6
 70
     1
102
RTVSPropertyOp7
 70
     1
102
RTVSPropertyOp8
 70
     1
102
RTVSPropertyOp9
 70
     1
102
RTVSPropertyOp10
 70
     1
102
RTVSPropertyOp11
 70
     1
102
RTVSPropertyOp12
 70
     1
102
RTVSPropertyOp13
 70
     1
102
RTVSPropertyOp14
 70
     1
102
RTVSPropertyOp15
 70
     1
102
RTVSPropertyOp16
 70
     1
102
RTVSPropertyOp17
 70
     1
102
RTVSPropertyOp18
 70
     1
102
RTVSPropertyOp19
 70
     1
102
RTVSPropertyOp20
 70
     1
102
RTVSPropertyOp21
 70
     1
102
RTVSPropertyOp22
 70
     1
102
RTVSPropertyOp23
 70
     1
102
RTVSPropertyOp24
 70
     1
102
RTVSPropertyOp25
 70
     1
102
RTVSPropertyOp26
 70
     1
102
RTVSPropertyOp27
 70
     1
  0
XRECORD
  5
1E33
102
{ACAD_REACTORS
330
1E32
102
}
330
1E32
100
AcDbXrecord
280
     1
102
RTVSPropertyOp0
 70
     1
102
RTVSPropertyOp1
 70
     1
102
RTVSPropertyOp2
 70
     1
102
RTVSPropertyOp3
 70
     1
102
RTVSPropertyOp4
 70
     1
102
RTVSPropertyOp5
 70
     1
102
RTVSPropertyOp6
 70
     1
102
RTVSPropertyOp7
 70
     1
102
RTVSPropertyOp8
 70
     1
102
RTVSPropertyOp9
 70
     1
102
RTVSPropertyOp10
 70
     1
102
RTVSPropertyOp11
 70
     1
102
RTVSPropertyOp12
 70
     1
102
RTVSPropertyOp13
 70
     1
102
RTVSPropertyOp14
 70
     1
102
RTVSPropertyOp15
 70
     1
102
RTVSPropertyOp16
 70
     1
102
RTVSPropertyOp17
 70
     1
102
RTVSPropertyOp18
 70
     1
102
RTVSPropertyOp19
 70
     1
102
RTVSPropertyOp20
 70
     1
102
RTVSPropertyOp21
 70
     1
102
RTVSPropertyOp22
 70
     1
102
RTVSPropertyOp23
 70
     1
102
RTVSPropertyOp24
 70
     1
102
RTVSPropertyOp25
 70
     1
102
RTVSPropertyOp26
 70
     1
102
RTVSPropertyOp27
 70
     1
  0
XRECORD
  5
1E2F
102
{ACAD_REACTORS
330
1E2E
102
}
330
1E2E
100
AcDbXrecord
280
     1
102
RTVSPropertyOp0
 70
     1
102
RTVSPropertyOp1
 70
     1
102
RTVSPropertyOp2
 70
     1
102
RTVSPropertyOp3
 70
     1
102
RTVSPropertyOp4
 70
     1
102
RTVSPropertyOp5
 70
     1
102
RTVSPropertyOp6
 70
     1
102
RTVSPropertyOp7
 70
     1
102
RTVSPropertyOp8
 70
     1
102
RTVSPropertyOp9
 70
     1
102
RTVSPropertyOp10
 70
     1
102
RTVSPropertyOp11
 70
     1
102
RTVSPropertyOp12
 70
     1
102
RTVSPropertyOp13
 70
     1
102
RTVSPropertyOp14
 70
     1
102
RTVSPropertyOp15
 70
     1
102
RTVSPropertyOp16
 70
     1
102
RTVSPropertyOp17
 70
     1
102
RTVSPropertyOp18
 70
     1
102
RTVSPropertyOp19
 70
     1
102
RTVSPropertyOp20
 70
     1
102
RTVSPropertyOp21
 70
     1
102
RTVSPropertyOp22
 70
     1
102
RTVSPropertyOp23
 70
     1
102
RTVSPropertyOp24
 70
     1
102
RTVSPropertyOp25
 70
     1
102
RTVSPropertyOp26
 70
     1
102
RTVSPropertyOp27
 70
     1
  0
XRECORD
  5
1E3D
102
{ACAD_REACTORS
330
1E3C
102
}
330
1E3C
100
AcDbXrecord
280
     1
102
RTVSPropertyOp0
 70
     1
102
RTVSPropertyOp1
 70
     1
102
RTVSPropertyOp2
 70
     1
102
RTVSPropertyOp3
 70
     1
102
RTVSPropertyOp4
 70
     1
102
RTVSPropertyOp5
 70
     1
102
RTVSPropertyOp6
 70
     1
102
RTVSPropertyOp7
 70
     1
102
RTVSPropertyOp8
 70
     1
102
RTVSPropertyOp9
 70
     1
102
RTVSPropertyOp10
 70
     1
102
RTVSPropertyOp11
 70
     1
102
RTVSPropertyOp12
 70
     1
102
RTVSPropertyOp13
 70
     1
102
RTVSPropertyOp14
 70
     1
102
RTVSPropertyOp15
 70
     1
102
RTVSPropertyOp16
 70
     1
102
RTVSPropertyOp17
 70
     1
102
RTVSPropertyOp18
 70
     1
102
RTVSPropertyOp19
 70
     1
102
RTVSPropertyOp20
 70
     1
102
RTVSPropertyOp21
 70
     1
102
RTVSPropertyOp22
 70
     1
102
RTVSPropertyOp23
 70
     1
102
RTVSPropertyOp24
 70
     1
102
RTVSPropertyOp25
 70
     1
102
RTVSPropertyOp26
 70
     1
102
RTVSPropertyOp27
 70
     1
  0
XRECORD
  5
1E45
102
{ACAD_REACTORS
330
1E44
102
}
330
1E44
100
AcDbXrecord
280
     1
102
RTVSPropertyOp0
 70
     1
102
RTVSPropertyOp1
 70
     1
102
RTVSPropertyOp2
 70
     1
102
RTVSPropertyOp3
 70
     1
102
RTVSPropertyOp4
 70
     1
102
RTVSPropertyOp5
 70
     1
102
RTVSPropertyOp6
 70
     1
102
RTVSPropertyOp7
 70
     1
102
RTVSPropertyOp8
 70
     1
102
RTVSPropertyOp9
 70
     1
102
RTVSPropertyOp10
 70
     1
102
RTVSPropertyOp11
 70
     1
102
RTVSPropertyOp12
 70
     1
102
RTVSPropertyOp13
 70
     1
102
RTVSPropertyOp14
 70
     1
102
RTVSPropertyOp15
 70
     1
102
RTVSPropertyOp16
 70
     1
102
RTVSPropertyOp17
 70
     1
102
RTVSPropertyOp18
 70
     1
102
RTVSPropertyOp19
 70
     1
102
RTVSPropertyOp20
 70
     1
102
RTVSPropertyOp21
 70
     1
102
RTVSPropertyOp22
 70
     1
102
RTVSPropertyOp23
 70
     1
102
RTVSPropertyOp24
 70
     1
102
RTVSPropertyOp25
 70
     1
102
RTVSPropertyOp26
 70
     1
102
RTVSPropertyOp27
 70
     1
  0
XRECORD
  5
1E37
102
{ACAD_REACTORS
330
1E36
102
}
330
1E36
100
AcDbXrecord
280
     1
102
RTVSPropertyOp0
 70
     1
102
RTVSPropertyOp1
 70
     1
102
RTVSPropertyOp2
 70
     1
102
RTVSPropertyOp3
 70
     1
102
RTVSPropertyOp4
 70
     1
102
RTVSPropertyOp5
 70
     1
102
RTVSPropertyOp6
 70
     1
102
RTVSPropertyOp7
 70
     1
102
RTVSPropertyOp8
 70
     1
102
RTVSPropertyOp9
 70
     1
102
RTVSPropertyOp10
 70
     1
102
RTVSPropertyOp11
 70
     1
102
RTVSPropertyOp12
 70
     1
102
RTVSPropertyOp13
 70
     1
102
RTVSPropertyOp14
 70
     1
102
RTVSPropertyOp15
 70
     1
102
RTVSPropertyOp16
 70
     1
102
RTVSPropertyOp17
 70
     1
102
RTVSPropertyOp18
 70
     1
102
RTVSPropertyOp19
 70
     1
102
RTVSPropertyOp20
 70
     1
102
RTVSPropertyOp21
 70
     1
102
RTVSPropertyOp22
 70
     1
102
RTVSPropertyOp23
 70
     1
102
RTVSPropertyOp24
 70
     1
102
RTVSPropertyOp25
 70
     1
102
RTVSPropertyOp26
 70
     1
102
RTVSPropertyOp27
 70
     1
  0
XRECORD
  5
1E3B
102
{ACAD_REACTORS
330
1E3A
102
}
330
1E3A
100
AcDbXrecord
280
     1
102
RTVSPropertyOp0
 70
     1
102
RTVSPropertyOp1
 70
     1
102
RTVSPropertyOp2
 70
     1
102
RTVSPropertyOp3
 70
     1
102
RTVSPropertyOp4
 70
     1
102
RTVSPropertyOp5
 70
     1
102
RTVSPropertyOp6
 70
     1
102
RTVSPropertyOp7
 70
     1
102
RTVSPropertyOp8
 70
     1
102
RTVSPropertyOp9
 70
     1
102
RTVSPropertyOp10
 70
     1
102
RTVSPropertyOp11
 70
     1
102
RTVSPropertyOp12
 70
     1
102
RTVSPropertyOp13
 70
     1
102
RTVSPropertyOp14
 70
     1
102
RTVSPropertyOp15
 70
     1
102
RTVSPropertyOp16
 70
     1
102
RTVSPropertyOp17
 70
     1
102
RTVSPropertyOp18
 70
     1
102
RTVSPropertyOp19
 70
     1
102
RTVSPropertyOp20
 70
     1
102
RTVSPropertyOp21
 70
     1
102
RTVSPropertyOp22
 70
     1
102
RTVSPropertyOp23
 70
     1
102
RTVSPropertyOp24
 70
     1
102
RTVSPropertyOp25
 70
     1
102
RTVSPropertyOp26
 70
     1
102
RTVSPropertyOp27
 70
     1
  0
XRECORD
  5
1E4B
102
{ACAD_REACTORS
330
1E4A
102
}
330
1E4A
100
AcDbXrecord
280
     1
102
RTVSPropertyOp0
 70
     0
102
RTVSPropertyOp1
 70
     0
102
RTVSPropertyOp2
 70
     0
102
RTVSPropertyOp3
 70
     0
102
RTVSPropertyOp4
 70
     0
102
RTVSPropertyOp5
 70
     0
102
RTVSPropertyOp6
 70
     0
102
RTVSPropertyOp7
 70
     0
102
RTVSPropertyOp8
 70
     0
102
RTVSPropertyOp9
 70
     0
102
RTVSPropertyOp10
 70
     0
102
RTVSPropertyOp11
 70
     0
102
RTVSPropertyOp12
 70
     0
102
RTVSPropertyOp13
 70
     0
102
RTVSPropertyOp14
 70
     2
102
RTVSPropertyOp15
 70
     0
102
RTVSPropertyOp16
 70
     0
102
RTVSPropertyOp17
 70
     0
102
RTVSPropertyOp18
 70
     0
102
RTVSPropertyOp19
 70
     0
102
RTVSPropertyOp20
 70
     0
102
RTVSPropertyOp21
 70
     0
102
RTVSPropertyOp22
 70
     0
102
RTVSPropertyOp23
 70
     0
102
RTVSPropertyOp24
 70
     0
102
RTVSPropertyOp25
 70
     0
102
RTVSPropertyOp26
 70
     0
102
RTVSPropertyOp27
 70
     0
  0
XRECORD
  5
1E43
102
{ACAD_REACTORS
330
1E42
102
}
330
1E42
100
AcDbXrecord
280
     1
102
RTVSPropertyOp0
 70
     1
102
RTVSPropertyOp1
 70
     1
102
RTVSPropertyOp2
 70
     1
102
RTVSPropertyOp3
 70
     1
102
RTVSPropertyOp4
 70
     1
102
RTVSPropertyOp5
 70
     1
102
RTVSPropertyOp6
 70
     1
102
RTVSPropertyOp7
 70
     1
102
RTVSPropertyOp8
 70
     1
102
RTVSPropertyOp9
 70
     1
102
RTVSPropertyOp10
 70
     1
102
RTVSPropertyOp11
 70
     1
102
RTVSPropertyOp12
 70
     1
102
RTVSPropertyOp13
 70
     1
102
RTVSPropertyOp14
 70
     1
102
RTVSPropertyOp15
 70
     1
102
RTVSPropertyOp16
 70
     1
102
RTVSPropertyOp17
 70
     1
102
RTVSPropertyOp18
 70
     1
102
RTVSPropertyOp19
 70
     1
102
RTVSPropertyOp20
 70
     1
102
RTVSPropertyOp21
 70
     1
102
RTVSPropertyOp22
 70
     1
102
RTVSPropertyOp23
 70
     1
102
RTVSPropertyOp24
 70
     1
102
RTVSPropertyOp25
 70
     1
102
RTVSPropertyOp26
 70
     1
102
RTVSPropertyOp27
 70
     1
  0
XRECORD
  5
1E27
102
{ACAD_REACTORS
330
1E26
102
}
330
1E26
100
AcDbXrecord
280
     1
102
RTVSPropertyOp0
 70
     1
102
RTVSPropertyOp1
 70
     1
102
RTVSPropertyOp2
 70
     1
102
RTVSPropertyOp3
 70
     1
102
RTVSPropertyOp4
 70
     1
102
RTVSPropertyOp5
 70
     1
102
RTVSPropertyOp6
 70
     1
102
RTVSPropertyOp7
 70
     1
102
RTVSPropertyOp8
 70
     1
102
RTVSPropertyOp9
 70
     1
102
RTVSPropertyOp10
 70
     1
102
RTVSPropertyOp11
 70
     1
102
RTVSPropertyOp12
 70
     1
102
RTVSPropertyOp13
 70
     1
102
RTVSPropertyOp14
 70
     1
102
RTVSPropertyOp15
 70
     1
102
RTVSPropertyOp16
 70
     1
102
RTVSPropertyOp17
 70
     1
102
RTVSPropertyOp18
 70
     1
102
RTVSPropertyOp19
 70
     1
102
RTVSPropertyOp20
 70
     1
102
RTVSPropertyOp21
 70
     1
102
RTVSPropertyOp22
 70
     1
102
RTVSPropertyOp23
 70
     1
102
RTVSPropertyOp24
 70
     1
102
RTVSPropertyOp25
 70
     1
102
RTVSPropertyOp26
 70
     1
102
RTVSPropertyOp27
 70
     1
  0
XRECORD
  5
1E29
102
{ACAD_REACTORS
330
1E28
102
}
330
1E28
100
AcDbXrecord
280
     1
102
RTVSPropertyOp0
 70
     1
102
RTVSPropertyOp1
 70
     1
102
RTVSPropertyOp2
 70
     1
102
RTVSPropertyOp3
 70
     1
102
RTVSPropertyOp4
 70
     1
102
RTVSPropertyOp5
 70
     1
102
RTVSPropertyOp6
 70
     1
102
RTVSPropertyOp7
 70
     1
102
RTVSPropertyOp8
 70
     1
102
RTVSPropertyOp9
 70
     1
102
RTVSPropertyOp10
 70
     1
102
RTVSPropertyOp11
 70
     1
102
RTVSPropertyOp12
 70
     1
102
RTVSPropertyOp13
 70
     1
102
RTVSPropertyOp14
 70
     1
102
RTVSPropertyOp15
 70
     1
102
RTVSPropertyOp16
 70
     1
102
RTVSPropertyOp17
 70
     1
102
RTVSPropertyOp18
 70
     1
102
RTVSPropertyOp19
 70
     1
102
RTVSPropertyOp20
 70
     1
102
RTVSPropertyOp21
 70
     1
102
RTVSPropertyOp22
 70
     1
102
RTVSPropertyOp23
 70
     1
102
RTVSPropertyOp24
 70
     1
102
RTVSPropertyOp25
 70
     1
102
RTVSPropertyOp26
 70
     1
102
RTVSPropertyOp27
 70
     1
  0
XRECORD
  5
1E2B
102
{ACAD_REACTORS
330
1E2A
102
}
330
1E2A
100
AcDbXrecord
280
     1
102
RTVSPropertyOp0
 70
     1
102
RTVSPropertyOp1
 70
     1
102
RTVSPropertyOp2
 70
     1
102
RTVSPropertyOp3
 70
     1
102
RTVSPropertyOp4
 70
     1
102
RTVSPropertyOp5
 70
     1
102
RTVSPropertyOp6
 70
     1
102
RTVSPropertyOp7
 70
     1
102
RTVSPropertyOp8
 70
     1
102
RTVSPropertyOp9
 70
     1
102
RTVSPropertyOp10
 70
     1
102
RTVSPropertyOp11
 70
     1
102
RTVSPropertyOp12
 70
     1
102
RTVSPropertyOp13
 70
     1
102
RTVSPropertyOp14
 70
     1
102
RTVSPropertyOp15
 70
     1
102
RTVSPropertyOp16
 70
     1
102
RTVSPropertyOp17
 70
     1
102
RTVSPropertyOp18
 70
     1
102
RTVSPropertyOp19
 70
     1
102
RTVSPropertyOp20
 70
     1
102
RTVSPropertyOp21
 70
     1
102
RTVSPropertyOp22
 70
     1
102
RTVSPropertyOp23
 70
     1
102
RTVSPropertyOp24
 70
     1
102
RTVSPropertyOp25
 70
     1
102
RTVSPropertyOp26
 70
     1
102
RTVSPropertyOp27
 70
     1
  0
XRECORD
  5
1E2D
102
{ACAD_REACTORS
330
1E2C
102
}
330
1E2C
100
AcDbXrecord
280
     1
102
RTVSPropertyOp0
 70
     1
102
RTVSPropertyOp1
 70
     1
102
RTVSPropertyOp2
 70
     1
102
RTVSPropertyOp3
 70
     1
102
RTVSPropertyOp4
 70
     1
102
RTVSPropertyOp5
 70
     1
102
RTVSPropertyOp6
 70
     1
102
RTVSPropertyOp7
 70
     1
102
RTVSPropertyOp8
 70
     1
102
RTVSPropertyOp9
 70
     1
102
RTVSPropertyOp10
 70
     1
102
RTVSPropertyOp11
 70
     1
102
RTVSPropertyOp12
 70
     1
102
RTVSPropertyOp13
 70
     1
102
RTVSPropertyOp14
 70
     1
102
RTVSPropertyOp15
 70
     1
102
RTVSPropertyOp16
 70
     1
102
RTVSPropertyOp17
 70
     1
102
RTVSPropertyOp18
 70
     1
102
RTVSPropertyOp19
 70
     1
102
RTVSPropertyOp20
 70
     1
102
RTVSPropertyOp21
 70
     1
102
RTVSPropertyOp22
 70
     1
102
RTVSPropertyOp23
 70
     1
102
RTVSPropertyOp24
 70
     1
102
RTVSPropertyOp25
 70
     1
102
RTVSPropertyOp26
 70
     1
102
RTVSPropertyOp27
 70
     1
  0
XRECORD
  5
1E47
102
{ACAD_REACTORS
330
1E46
102
}
330
1E46
100
AcDbXrecord
280
     1
102
RTVSPropertyOp0
 70
     0
102
RTVSPropertyOp1
 70
     0
102
RTVSPropertyOp2
 70
     0
102
RTVSPropertyOp3
 70
     0
102
RTVSPropertyOp4
 70
     0
102
RTVSPropertyOp5
 70
     0
102
RTVSPropertyOp6
 70
     0
102
RTVSPropertyOp7
 70
     0
102
RTVSPropertyOp8
 70
     0
102
RTVSPropertyOp9
 70
     0
102
RTVSPropertyOp10
 70
     0
102
RTVSPropertyOp11
 70
     0
102
RTVSPropertyOp12
 70
     0
102
RTVSPropertyOp13
 70
     0
102
RTVSPropertyOp14
 70
     2
102
RTVSPropertyOp15
 70
     0
102
RTVSPropertyOp16
 70
     0
102
RTVSPropertyOp17
 70
     0
102
RTVSPropertyOp18
 70
     0
102
RTVSPropertyOp19
 70
     0
102
RTVSPropertyOp20
 70
     0
102
RTVSPropertyOp21
 70
     0
102
RTVSPropertyOp22
 70
     0
102
RTVSPropertyOp23
 70
     0
102
RTVSPropertyOp24
 70
     0
102
RTVSPropertyOp25
 70
     0
102
RTVSPropertyOp26
 70
     0
102
RTVSPropertyOp27
 70
     0
  0
XRECORD
  5
1E41
102
{ACAD_REACTORS
330
1E40
102
}
330
1E40
100
AcDbXrecord
280
     1
102
RTVSPropertyOp0
 70
     1
102
RTVSPropertyOp1
 70
     1
102
RTVSPropertyOp2
 70
     1
102
RTVSPropertyOp3
 70
     1
102
RTVSPropertyOp4
 70
     1
102
RTVSPropertyOp5
 70
     1
102
RTVSPropertyOp6
 70
     1
102
RTVSPropertyOp7
 70
     1
102
RTVSPropertyOp8
 70
     1
102
RTVSPropertyOp9
 70
     1
102
RTVSPropertyOp10
 70
     1
102
RTVSPropertyOp11
 70
     1
102
RTVSPropertyOp12
 70
     1
102
RTVSPropertyOp13
 70
     1
102
RTVSPropertyOp14
 70
     1
102
RTVSPropertyOp15
 70
     1
102
RTVSPropertyOp16
 70
     1
102
RTVSPropertyOp17
 70
     1
102
RTVSPropertyOp18
 70
     1
102
RTVSPropertyOp19
 70
     1
102
RTVSPropertyOp20
 70
     1
102
RTVSPropertyOp21
 70
     1
102
RTVSPropertyOp22
 70
     1
102
RTVSPropertyOp23
 70
     1
102
RTVSPropertyOp24
 70
     1
102
RTVSPropertyOp25
 70
     1
102
RTVSPropertyOp26
 70
     1
102
RTVSPropertyOp27
 70
     1
  0
XRECORD
  5
1E49
102
{ACAD_REACTORS
330
1E48
102
}
330
1E48
100
AcDbXrecord
280
     1
102
RTVSPropertyOp0
 70
     0
102
RTVSPropertyOp1
 70
     0
102
RTVSPropertyOp2
 70
     0
102
RTVSPropertyOp3
 70
     0
102
RTVSPropertyOp4
 70
     0
102
RTVSPropertyOp5
 70
     0
102
RTVSPropertyOp6
 70
     0
102
RTVSPropertyOp7
 70
     0
102
RTVSPropertyOp8
 70
     0
102
RTVSPropertyOp9
 70
     0
102
RTVSPropertyOp10
 70
     0
102
RTVSPropertyOp11
 70
     0
102
RTVSPropertyOp12
 70
     0
102
RTVSPropertyOp13
 70
     0
102
RTVSPropertyOp14
 70
     2
102
RTVSPropertyOp15
 70
     0
102
RTVSPropertyOp16
 70
     0
102
RTVSPropertyOp17
 70
     0
102
RTVSPropertyOp18
 70
     0
102
RTVSPropertyOp19
 70
     0
102
RTVSPropertyOp20
 70
     0
102
RTVSPropertyOp21
 70
     0
102
RTVSPropertyOp22
 70
     0
102
RTVSPropertyOp23
 70
     0
102
RTVSPropertyOp24
 70
     0
102
RTVSPropertyOp25
 70
     0
102
RTVSPropertyOp26
 70
     0
102
RTVSPropertyOp27
 70
     0
  0
XRECORD
  5
1E39
102
{ACAD_REACTORS
330
1E38
102
}
330
1E38
100
AcDbXrecord
280
     1
102
RTVSPropertyOp0
 70
     1
102
RTVSPropertyOp1
 70
     1
102
RTVSPropertyOp2
 70
     1
102
RTVSPropertyOp3
 70
     1
102
RTVSPropertyOp4
 70
     1
102
RTVSPropertyOp5
 70
     1
102
RTVSPropertyOp6
 70
     1
102
RTVSPropertyOp7
 70
     1
102
RTVSPropertyOp8
 70
     1
102
RTVSPropertyOp9
 70
     1
102
RTVSPropertyOp10
 70
     1
102
RTVSPropertyOp11
 70
     1
102
RTVSPropertyOp12
 70
     1
102
RTVSPropertyOp13
 70
     1
102
RTVSPropertyOp14
 70
     1
102
RTVSPropertyOp15
 70
     1
102
RTVSPropertyOp16
 70
     1
102
RTVSPropertyOp17
 70
     1
102
RTVSPropertyOp18
 70
     1
102
RTVSPropertyOp19
 70
     1
102
RTVSPropertyOp20
 70
     1
102
RTVSPropertyOp21
 70
     1
102
RTVSPropertyOp22
 70
     1
102
RTVSPropertyOp23
 70
     1
102
RTVSPropertyOp24
 70
     1
102
RTVSPropertyOp25
 70
     1
102
RTVSPropertyOp26
 70
     1
102
RTVSPropertyOp27
 70
     1
  0
XRECORD
  5
1E3F
102
{ACAD_REACTORS
330
1E3E
102
}
330
1E3E
100
AcDbXrecord
280
     1
102
RTVSPropertyOp0
 70
     1
102
RTVSPropertyOp1
 70
     1
102
RTVSPropertyOp2
 70
     1
102
RTVSPropertyOp3
 70
     1
102
RTVSPropertyOp4
 70
     1
102
RTVSPropertyOp5
 70
     1
102
RTVSPropertyOp6
 70
     1
102
RTVSPropertyOp7
 70
     1
102
RTVSPropertyOp8
 70
     1
102
RTVSPropertyOp9
 70
     1
102
RTVSPropertyOp10
 70
     1
102
RTVSPropertyOp11
 70
     1
102
RTVSPropertyOp12
 70
     1
102
RTVSPropertyOp13
 70
     1
102
RTVSPropertyOp14
 70
     1
102
RTVSPropertyOp15
 70
     1
102
RTVSPropertyOp16
 70
     1
102
RTVSPropertyOp17
 70
     1
102
RTVSPropertyOp18
 70
     1
102
RTVSPropertyOp19
 70
     1
102
RTVSPropertyOp20
 70
     1
102
RTVSPropertyOp21
 70
     1
102
RTVSPropertyOp22
 70
     1
102
RTVSPropertyOp23
 70
     1
102
RTVSPropertyOp24
 70
     1
102
RTVSPropertyOp25
 70
     1
102
RTVSPropertyOp26
 70
     1
102
RTVSPropertyOp27
 70
     1
  0
ENDSEC
  0
EOF
