  0
SECTION
  2
HEADER
  9
$ACADVER
  1
AC1015
  9
$ACADMAINTVER
 70
    20
  9
$DWGCODEPAGE
  3
ANSI_1252
  9
$INSBASE
 10
0.0
 20
0.0
 30
0.0
  9
$EXTMIN
 10
4685.4092085148
 20
2501.660499725869
 30
0.0
  9
$EXTMAX
 10
4688.097660244685
 20
2501.91049972587
 30
0.0
  9
$LIMMIN
 10
0.0
 20
0.0
  9
$LIMMAX
 10
420.0
 20
297.0
  9
$ORTHOMODE
 70
     0
  9
$REGENMODE
 70
     1
  9
$FILLMODE
 70
     1
  9
$QTEXTMODE
 70
     0
  9
$MIRRTEXT
 70
     1
  9
$LTSCALE
 40
1.0
  9
$ATTMODE
 70
     1
  9
$TEXTSIZE
 40
2.5
  9
$TRACEWID
 40
1.0
  9
$TEXTSTYLE
  7
SANINDUSA
  9
$CLAYER
  8
0
  9
$CELTYPE
  6
ByLayer
  9
$CECOLOR
 62
   256
  9
$CELTSCALE
 40
1.0
  9
$DISPSILH
 70
     0
  9
$DIMSCALE
 40
1.0
  9
$DIMASZ
 40
2.0
  9
$DIMEXO
 40
1.0
  9
$DIMDLI
 40
1.0
  9
$DIMRND
 40
0.0
  9
$DIMDLE
 40
0.0
  9
$DIMEXE
 40
1.0
  9
$DIMTP
 40
0.0
  9
$DIMTM
 40
0.0
  9
$DIMTXT
 40
2.0
  9
$DIMCEN
 40
0.0
  9
$DIMTSZ
 40
0.0
  9
$DIMTOL
 70
     0
  9
$DIMLIM
 70
     0
  9
$DIMTIH
 70
     0
  9
$DIMTOH
 70
     0
  9
$DIMSE1
 70
     0
  9
$DIMSE2
 70
     0
  9
$DIMTAD
 70
     1
  9
$DIMZIN
 70
     8
  9
$DIMBLK
  1

  9
$DIMASO
 70
     1
  9
$DIMSHO
 70
     1
  9
$DIMPOST
  1

  9
$DIMAPOST
  1

  9
$DIMALT
 70
     0
  9
$DIMALTD
 70
     3
  9
$DIMALTF
 40
0.03937007874016
  9
$DIMLFAC
 40
1.0
  9
$DIMTOFL
 70
     1
  9
$DIMTVP
 40
0.0
  9
$DIMTIX
 70
     0
  9
$DIMSOXD
 70
     0
  9
$DIMSAH
 70
     0
  9
$DIMBLK1
  1

  9
$DIMBLK2
  1

  9
$DIMSTYLE
  2
SANINDUSA
  9
$DIMCLRD
 70
   256
  9
$DIMCLRE
 70
   256
  9
$DIMCLRT
 70
   256
  9
$DIMTFAC
 40
1.0
  9
$DIMGAP
 40
1.0
  9
$DIMJUST
 70
     0
  9
$DIMSD1
 70
     0
  9
$DIMSD2
 70
     0
  9
$DIMTOLJ
 70
     0
  9
$DIMTZIN
 70
     8
  9
$DIMALTZ
 70
     0
  9
$DIMALTTZ
 70
     0
  9
$DIMUPT
 70
     0
  9
$DIMDEC
 70
     1
  9
$DIMTDEC
 70
     1
  9
$DIMALTU
 70
     2
  9
$DIMALTTD
 70
     3
  9
$DIMTXSTY
  7
SANINDUSA
  9
$DIMAUNIT
 70
     0
  9
$DIMADEC
 70
     1
  9
$DIMALTRND
 40
0.0
  9
$DIMAZIN
 70
     0
  9
$DIMDSEP
 70
    44
  9
$DIMATFIT
 70
     3
  9
$DIMFRAC
 70
     0
  9
$DIMLDRBLK
  1

  9
$DIMLUNIT
 70
     2
  9
$DIMLWD
 70
    -1
  9
$DIMLWE
 70
    -1
  9
$DIMTMOVE
 70
     0
  9
$LUNITS
 70
     2
  9
$LUPREC
 70
     4
  9
$SKETCHINC
 40
1.0
  9
$FILLETRAD
 40
0.0
  9
$AUNITS
 70
     0
  9
$AUPREC
 70
     0
  9
$MENU
  1
.
  9
$ELEVATION
 40
0.0
  9
$PELEVATION
 40
0.0
  9
$THICKNESS
 40
0.0
  9
$LIMCHECK
 70
     0
  9
$CHAMFERA
 40
10.0
  9
$CHAMFERB
 40
10.0
  9
$CHAMFERC
 40
20.0
  9
$CHAMFERD
 40
0.0
  9
$SKPOLY
 70
     0
  9
$TDCREATE
 40
2454195.614455289
  9
$TDUCREATE
 40
2454195.572788623
  9
$TDUPDATE
 40
2456147.504874305
  9
$TDUUPDATE
 40
2456147.463207639
  9
$TDINDWG
 40
0.0085172685
  9
$TDUSRTIMER
 40
0.0085170833
  9
$USRTIMER
 70
     1
  9
$ANGBASE
 50
0.0
  9
$ANGDIR
 70
     0
  9
$PDMODE
 70
     0
  9
$PDSIZE
 40
0.0
  9
$PLINEWID
 40
0.0
  9
$SPLFRAME
 70
     0
  9
$SPLINETYPE
 70
     6
  9
$SPLINESEGS
 70
     8
  9
$HANDSEED
  5
1DF8
  9
$SURFTAB1
 70
     6
  9
$SURFTAB2
 70
     6
  9
$SURFTYPE
 70
     6
  9
$SURFU
 70
     6
  9
$SURFV
 70
     6
  9
$UCSBASE
  2

  9
$UCSNAME
  2

  9
$UCSORG
 10
0.0
 20
0.0
 30
0.0
  9
$UCSXDIR
 10
1.0
 20
0.0
 30
0.0
  9
$UCSYDIR
 10
0.0
 20
1.0
 30
0.0
  9
$UCSORTHOREF
  2

  9
$UCSORTHOVIEW
 70
     0
  9
$UCSORGTOP
 10
0.0
 20
0.0
 30
0.0
  9
$UCSORGBOTTOM
 10
0.0
 20
0.0
 30
0.0
  9
$UCSORGLEFT
 10
0.0
 20
0.0
 30
0.0
  9
$UCSORGRIGHT
 10
0.0
 20
0.0
 30
0.0
  9
$UCSORGFRONT
 10
0.0
 20
0.0
 30
0.0
  9
$UCSORGBACK
 10
0.0
 20
0.0
 30
0.0
  9
$PUCSBASE
  2

  9
$PUCSNAME
  2

  9
$PUCSORG
 10
0.0
 20
0.0
 30
0.0
  9
$PUCSXDIR
 10
1.0
 20
0.0
 30
0.0
  9
$PUCSYDIR
 10
0.0
 20
1.0
 30
0.0
  9
$PUCSORTHOREF
  2

  9
$PUCSORTHOVIEW
 70
     0
  9
$PUCSORGTOP
 10
0.0
 20
0.0
 30
0.0
  9
$PUCSORGBOTTOM
 10
0.0
 20
0.0
 30
0.0
  9
$PUCSORGLEFT
 10
0.0
 20
0.0
 30
0.0
  9
$PUCSORGRIGHT
 10
0.0
 20
0.0
 30
0.0
  9
$PUCSORGFRONT
 10
0.0
 20
0.0
 30
0.0
  9
$PUCSORGBACK
 10
0.0
 20
0.0
 30
0.0
  9
$USERI1
 70
     0
  9
$USERI2
 70
     0
  9
$USERI3
 70
     0
  9
$USERI4
 70
     0
  9
$USERI5
 70
     0
  9
$USERR1
 40
0.0
  9
$USERR2
 40
0.0
  9
$USERR3
 40
0.0
  9
$USERR4
 40
0.0
  9
$USERR5
 40
0.0
  9
$WORLDVIEW
 70
     1
  9
$SHADEDGE
 70
     3
  9
$SHADEDIF
 70
    70
  9
$TILEMODE
 70
     1
  9
$MAXACTVP
 70
    64
  9
$PINSBASE
 10
0.0
 20
0.0
 30
0.0
  9
$PLIMCHECK
 70
     0
  9
$PEXTMIN
 10
1.000000000000000E+20
 20
1.000000000000000E+20
 30
1.000000000000000E+20
  9
$PEXTMAX
 10
-1.000000000000000E+20
 20
-1.000000000000000E+20
 30
-1.000000000000000E+20
  9
$PLIMMIN
 10
0.0
 20
0.0
  9
$PLIMMAX
 10
420.0
 20
297.0
  9
$UNITMODE
 70
     0
  9
$VISRETAIN
 70
     1
  9
$PLINEGEN
 70
     0
  9
$PSLTSCALE
 70
     1
  9
$TREEDEPTH
 70
  3020
  9
$CMLSTYLE
  2
Standard
  9
$CMLJUST
 70
     0
  9
$CMLSCALE
 40
20.0
  9
$PROXYGRAPHICS
 70
     1
  9
$MEASUREMENT
 70
     1
  9
$CELWEIGHT
370
    -1
  9
$ENDCAPS
280
     0
  9
$JOINSTYLE
280
     0
  9
$LWDISPLAY
290
     0
  9
$INSUNITS
 70
     4
  9
$HYPERLINKBASE
  1

  9
$STYLESHEET
  1
sanindusa.ctb
  9
$XEDIT
290
     1
  9
$CEPSNTYPE
380
     0
  9
$PSTYLEMODE
290
     1
  9
$FINGERPRINTGUID
  2
{8407A8C6-DCAD-4112-BF5E-33AADE78491C}
  9
$VERSIONGUID
  2
{D5784393-001B-44DD-AEAA-D34C01112695}
  9
$EXTNAMES
290
     1
  9
$PSVPSCALE
 40
0.0
  9
$OLESTARTUP
290
     0
  0
ENDSEC
  0
SECTION
  2
CLASSES
  0
CLASS
  1
ACDBDICTIONARYWDFLT
  2
AcDbDictionaryWithDefault
  3
ObjectDBX Classes
 90
        0
280
     0
281
     0
  0
CLASS
  1
ACDBPLACEHOLDER
  2
AcDbPlaceHolder
  3
ObjectDBX Classes
 90
        0
280
     0
281
     0
  0
CLASS
  1
LAYOUT
  2
AcDbLayout
  3
ObjectDBX Classes
 90
        0
280
     0
281
     0
  0
CLASS
  1
DICTIONARYVAR
  2
AcDbDictionaryVar
  3
ObjectDBX Classes
 90
        0
280
     0
281
     0
  0
CLASS
  1
DIMASSOC
  2
AcDbDimAssoc
  3
"AcDbDimAssoc|Product Desc:     AcDim ARX App For Dimension|Company:          Autodesk, Inc.|WEB Address:      www.autodesk.com"
 90
    32768
280
     0
281
     0
  0
CLASS
  1
TABLESTYLE
  2
AcDbTableStyle
  3
ObjectDBX Classes
 90
     4095
280
     0
281
     0
  0
CLASS
  1
SORTENTSTABLE
  2
AcDbSortentsTable
  3
ObjectDBX Classes
 90
    32768
280
     0
281
     0
  0
CLASS
  1
MATERIAL
  2
AcDbMaterial
  3
ObjectDBX Classes
 90
     1153
280
     0
281
     0
  0
CLASS
  1
VISUALSTYLE
  2
AcDbVisualStyle
  3
ObjectDBX Classes
 90
     4095
280
     0
281
     0
  0
CLASS
  1
SCALE
  2
AcDbScale
  3
ObjectDBX Classes
 90
     1153
280
     0
281
     0
  0
CLASS
  1
MLEADERSTYLE
  2
AcDbMLeaderStyle
  3
ACDB_MLEADERSTYLE_CLASS
 90
     4095
280
     0
281
     0
  0
CLASS
  1
CELLSTYLEMAP
  2
AcDbCellStyleMap
  3
ObjectDBX Classes
 90
     1152
280
     0
281
     0
  0
ENDSEC
  0
SECTION
  2
TABLES
  0
TABLE
  2
VPORT
  5
8
330
0
100
AcDbSymbolTable
 70
     1
  0
VPORT
  5
1D3E
330
8
100
AcDbSymbolTableRecord
100
AcDbViewportTableRecord
  2
*Active
 70
     0
 10
0.0
 20
0.0
 11
1.0
 21
1.0
 12
4686.798459008316
 22
2501.785499725869
 13
0.0
 23
0.0
 14
10.0
 24
10.0
 15
10.0
 25
10.0
 16
0.0
 26
0.0
 36
1.0
 17
0.0
 27
0.0
 37
0.0
 40
1.694788150853286
 41
1.645464025026068
 42
50.0
 43
0.0
 44
0.0
 50
0.0
 51
0.0
 71
     0
 72
   100
 73
     1
 74
     2
 75
     0
 76
     0
 77
     0
 78
     0
281
     0
 65
     1
110
0.0
120
0.0
130
0.0
111
1.0
121
0.0
131
0.0
112
0.0
122
1.0
132
0.0
 79
     0
146
0.0
  0
ENDTAB
  0
TABLE
  2
LTYPE
  5
5
330
0
100
AcDbSymbolTable
 70
     5
  0
LTYPE
  5
14
330
5
100
AcDbSymbolTableRecord
100
AcDbLinetypeTableRecord
  2
ByBlock
 70
     0
  3

 72
    65
 73
     0
 40
0.0
  0
LTYPE
  5
15
330
5
100
AcDbSymbolTableRecord
100
AcDbLinetypeTableRecord
  2
ByLayer
 70
     0
  3

 72
    65
 73
     0
 40
0.0
  0
LTYPE
  5
16
330
5
100
AcDbSymbolTableRecord
100
AcDbLinetypeTableRecord
  2
Continuous
 70
     0
  3
Solid line
 72
    65
 73
     0
 40
0.0
  0
LTYPE
  5
2D
330
5
100
AcDbSymbolTableRecord
100
AcDbLinetypeTableRecord
  2
DASHDOT
 70
     0
  3
Dash dot __ . __ . __ . __ . __ . __ . __ . __
 72
    65
 73
     4
 40
25.4
 49
12.7
 74
     0
 49
-6.349999999999999
 74
     0
 49
0.0
 74
     0
 49
-6.349999999999999
 74
     0
  0
LTYPE
  5
2E
330
5
100
AcDbSymbolTableRecord
100
AcDbLinetypeTableRecord
  2
HIDDEN
 70
     0
  3
Hidden __ __ __ __ __ __ __ __ __ __ __ __ __ _
 72
    65
 73
     2
 40
9.524999999999998
 49
6.349999999999999
 74
     0
 49
-3.174999999999999
 74
     0
  0
LTYPE
  5
C75
330
5
100
AcDbSymbolTableRecord
100
AcDbLinetypeTableRecord
  2
AM_ISO02W050
 70
     0
  3
__ __ __ __ __ __ __ __ __ __ __ __ __ __ __
 72
    65
 73
     2
 40
7.5
 49
6.0
 74
     0
 49
-1.5
 74
     0
  0
LTYPE
  5
C76
330
5
100
AcDbSymbolTableRecord
100
AcDbLinetypeTableRecord
  2
AM_ISO08W050
 70
     0
  3
____ . ____ . ____ . ____ . ____ . ____ . ____
 72
    65
 73
     4
 40
18.0
 49
12.0
 74
     0
 49
-1.5
 74
     0
 49
3.0
 74
     0
 49
-1.5
 74
     0
  0
ENDTAB
  0
TABLE
  2
LAYER
  5
2
102
{ACAD_XDICTIONARY
360
1051
102
}
330
0
100
AcDbSymbolTable
 70
    16
  0
LAYER
  5
10
102
{ACAD_XDICTIONARY
360
1D8E
102
}
330
2
100
AcDbSymbolTableRecord
100
AcDbLayerTableRecord
  2
0
 70
     0
 62
     7
  6
Continuous
370
    -3
390
F
  0
LAYER
  5
2F
102
{ACAD_XDICTIONARY
360
1D90
102
}
330
2
100
AcDbSymbolTableRecord
100
AcDbLayerTableRecord
  2
1
 70
     0
 62
     1
  6
Continuous
370
    -3
390
F
  0
LAYER
  5
30
102
{ACAD_XDICTIONARY
360
1D92
102
}
330
2
100
AcDbSymbolTableRecord
100
AcDbLayerTableRecord
  2
2
 70
     0
 62
     2
  6
Continuous
370
    -3
390
F
  0
LAYER
  5
31
102
{ACAD_XDICTIONARY
360
1D94
102
}
330
2
100
AcDbSymbolTableRecord
100
AcDbLayerTableRecord
  2
3
 70
     0
 62
     3
  6
Continuous
370
    -3
390
F
  0
LAYER
  5
32
102
{ACAD_XDICTIONARY
360
1D96
102
}
330
2
100
AcDbSymbolTableRecord
100
AcDbLayerTableRecord
  2
4
 70
     0
 62
     4
  6
Continuous
370
    -3
390
F
  0
LAYER
  5
33
102
{ACAD_XDICTIONARY
360
1D98
102
}
330
2
100
AcDbSymbolTableRecord
100
AcDbLayerTableRecord
  2
5
 70
     0
 62
     5
  6
Continuous
370
    -3
390
F
  0
LAYER
  5
34
102
{ACAD_XDICTIONARY
360
1D9A
102
}
330
2
100
AcDbSymbolTableRecord
100
AcDbLayerTableRecord
  2
6
 70
     0
 62
     6
  6
Continuous
370
    -3
390
F
  0
LAYER
  5
35
102
{ACAD_XDICTIONARY
360
1D9C
102
}
330
2
100
AcDbSymbolTableRecord
100
AcDbLayerTableRecord
  2
7
 70
     0
 62
     7
  6
Continuous
370
    -3
390
F
  0
LAYER
  5
36
102
{ACAD_XDICTIONARY
360
1D9E
102
}
330
2
100
AcDbSymbolTableRecord
100
AcDbLayerTableRecord
  2
cen
 70
     0
 62
     7
  6
DASHDOT
370
    -3
390
F
  0
LAYER
  5
37
102
{ACAD_XDICTIONARY
360
1DA0
102
}
330
2
100
AcDbSymbolTableRecord
100
AcDbLayerTableRecord
  2
hid
 70
     0
 62
     7
  6
HIDDEN
370
    -3
390
F
  0
LAYER
  5
5D6
102
{ACAD_XDICTIONARY
360
1DA2
102
}
330
2
100
AcDbSymbolTableRecord
100
AcDbLayerTableRecord
  2
hatch
 70
     0
 62
     9
  6
Continuous
370
    -3
390
F
  0
LAYER
  5
8AF
102
{ACAD_XDICTIONARY
360
1DA4
102
}
330
2
100
AcDbSymbolTableRecord
100
AcDbLayerTableRecord
  2
9
 70
     0
 62
     9
  6
Continuous
370
    -3
390
F
  0
LAYER
  5
8F8
102
{ACAD_XDICTIONARY
360
1DA6
102
}
330
2
100
AcDbSymbolTableRecord
100
AcDbLayerTableRecord
  2
leg fin
 70
     0
 62
     9
  6
Continuous
370
    -3
390
F
  0
LAYER
  5
91D
102
{ACAD_XDICTIONARY
360
1DA8
102
}
330
2
100
AcDbSymbolTableRecord
100
AcDbLayerTableRecord
  2
cotas
 70
     0
 62
     1
  6
Continuous
370
    -3
390
F
  0
LAYER
  5
92F
330
2
100
AcDbSymbolTableRecord
100
AcDbLayerTableRecord
  2
Defpoints
 70
     0
 62
     7
  6
Continuous
290
     0
370
    -3
390
F
  0
LAYER
  5
C7B
102
{ACAD_XDICTIONARY
360
1DAA
102
}
330
2
100
AcDbSymbolTableRecord
100
AcDbLayerTableRecord
  2
SANINDUSA
 70
     0
 62
     3
  6
Continuous
370
    -3
390
F
  0
ENDTAB
  0
TABLE
  2
STYLE
  5
3
330
0
100
AcDbSymbolTable
 70
     4
  0
STYLE
  5
11
330
3
100
AcDbSymbolTableRecord
100
AcDbTextStyleTableRecord
  2
Standard
 70
     0
 40
0.0
 41
1.0
 50
0.0
 71
     0
 42
2.5
  3
Avgardn.ttf
  4

1001
ACAD
1000
AvantGarde Bk BT
1071
       34
  0
STYLE
  5
2C
330
3
100
AcDbSymbolTableRecord
100
AcDbTextStyleTableRecord
  2

 70
     1
 40
0.0
 41
1.0
 50
0.0
 71
     0
 42
2.5
  3
ltypeshp.shx
  4

  0
STYLE
  5
91F
330
3
100
AcDbSymbolTableRecord
100
AcDbTextStyleTableRecord
  2
SANINDUSA
 70
     0
 40
0.0
 41
1.0
 50
0.0
 71
     0
 42
2.5
  3
verdana.TTF
  4

1001
ACAD
1000
Verdana
1071
       34
  0
STYLE
  5
C7C
330
3
100
AcDbSymbolTableRecord
100
AcDbTextStyleTableRecord
  2
futura
 70
     0
 40
0.0
 41
1.0
 50
0.0
 71
     0
 42
2.5
  3
ZURCHN.TTF
  4

1001
ACAD
1000
Zurich BT
1071
       34
  0
ENDTAB
  0
TABLE
  2
VIEW
  5
6
330
0
100
AcDbSymbolTable
 70
     0
  0
ENDTAB
  0
TABLE
  2
UCS
  5
7
330
0
100
AcDbSymbolTable
 70
     0
  0
ENDTAB
  0
TABLE
  2
APPID
  5
9
330
0
100
AcDbSymbolTable
 70
    12
  0
APPID
  5
12
330
9
100
AcDbSymbolTableRecord
100
AcDbRegAppTableRecord
  2
ACAD
 70
     0
  0
APPID
  5
3A
330
9
100
AcDbSymbolTableRecord
100
AcDbRegAppTableRecord
  2
DCO15
 70
     0
  0
APPID
  5
EEE
330
9
100
AcDbSymbolTableRecord
100
AcDbRegAppTableRecord
  2
ACAD_DSTYLE_DIMTEXT_FILL
 70
     0
  0
APPID
  5
EEF
330
9
100
AcDbSymbolTableRecord
100
AcDbRegAppTableRecord
  2
ACAD_DSTYLE_DIMEXT_LENGTH
 70
     0
  0
APPID
  5
EF0
330
9
100
AcDbSymbolTableRecord
100
AcDbRegAppTableRecord
  2
ACAD_DSTYLE_DIMEXT_ENABLED
 70
     0
  0
APPID
  5
EF1
330
9
100
AcDbSymbolTableRecord
100
AcDbRegAppTableRecord
  2
ACAD_DSTYLE_DIM_LINETYPE
 70
     0
  0
APPID
  5
EF2
330
9
100
AcDbSymbolTableRecord
100
AcDbRegAppTableRecord
  2
ACAD_DSTYLE_DIM_EXT1_LINETYPE
 70
     0
  0
APPID
  5
EF3
330
9
100
AcDbSymbolTableRecord
100
AcDbRegAppTableRecord
  2
ACAD_DSTYLE_DIM_EXT2_LINETYPE
 70
     0
  0
APPID
  5
FAF
330
9
100
AcDbSymbolTableRecord
100
AcDbRegAppTableRecord
  2
ACAD_DSTYLE_DIMJOGGED_JOGANGLE_SYMBOL
 70
     0
  0
APPID
  5
1013
330
9
100
AcDbSymbolTableRecord
100
AcDbRegAppTableRecord
  2
ACAD_DSTYLE_DIMARC_LENGTH_SYMBOL
 70
     0
  0
APPID
  5
1D2F
330
9
100
AcDbSymbolTableRecord
100
AcDbRegAppTableRecord
  2
ACAD_EXEMPT_FROM_CAD_STANDARDS
 70
     0
  0
APPID
  5
1DF7
330
9
100
AcDbSymbolTableRecord
100
AcDbRegAppTableRecord
  2
ACAD_MLEADERVER
 70
     0
  0
ENDTAB
  0
TABLE
  2
DIMSTYLE
  5
A
330
0
100
AcDbSymbolTable
 70
     3
100
AcDbDimStyleTable
 71
     1
340
921
  0
DIMSTYLE
105
45
330
A
100
AcDbSymbolTableRecord
100
AcDbDimStyleTableRecord
  2
STANDARD
 70
     0
289
     0
340
11
  0
DIMSTYLE
105
921
330
A
100
AcDbSymbolTableRecord
100
AcDbDimStyleTableRecord
  2
SANINDUSA
 70
     0
 41
2.0
 42
1.0
 43
1.0
 44
1.0
 73
     0
 74
     0
 77
     1
 78
     8
140
2.0
141
0.0
143
0.03937007874016
147
1.0
171
     3
172
     1
176
   256
177
   256
178
   256
179
     1
271
     1
272
     1
274
     3
278
    44
283
     0
284
     8
340
91F
371
    -1
372
    -1
1001
ACAD_DSTYLE_DIMJOGGED_JOGANGLE_SYMBOL
1070
   384
1040
1.570796326794896
  0
DIMSTYLE
105
C7D
330
A
100
AcDbSymbolTableRecord
100
AcDbDimStyleTableRecord
  2
AM_ISO
 70
     0
  4
"
 41
2.5
 42
1.0
 43
10.0
 44
1.0
 47
0.1
 48
0.1
 73
     0
 74
     0
 77
     1
 78
     8
 79
     2
140
3.5
141
0.0
143
0.0393701
146
0.71
147
1.5
172
     1
176
   256
177
   256
178
     2
271
     2
272
     3
274
     4
283
     0
284
     8
340
11
371
    -1
372
    -1
  0
ENDTAB
  0
TABLE
  2
BLOCK_RECORD
  5
1
330
0
100
AcDbSymbolTable
 70
   115
  0
BLOCK_RECORD
  5
1F
330
1
100
AcDbSymbolTableRecord
100
AcDbBlockTableRecord
  2
*Model_Space
340
22
  0
BLOCK_RECORD
  5
1B
330
1
100
AcDbSymbolTableRecord
100
AcDbBlockTableRecord
  2
*Paper_Space
340
1E
  0
BLOCK_RECORD
  5
23
330
1
100
AcDbSymbolTableRecord
100
AcDbBlockTableRecord
  2
*Paper_Space0
340
26
  0
BLOCK_RECORD
  5
919
330
1
100
AcDbSymbolTableRecord
100
AcDbBlockTableRecord
  2
_DotSmall
340
0
102
{BLKREFS
331
1289
331
1297
331
1C89
331
1C97
102
}
  0
BLOCK_RECORD
  5
922
330
1
100
AcDbSymbolTableRecord
100
AcDbBlockTableRecord
  2
base para cotas
340
0
310
2800000020000000200000000100080000000000000400000000000000000000000000000000000000000000000080000080000000808000800000008000800080800000C0C0C000C0DCC000F0CAA6000020400000206000002080000020A0000020C0000020E00000400000004020000040400000406000004080000040A0
310
000040C0000040E00000600000006020000060400000606000006080000060A0000060C0000060E00000800000008020000080400000806000008080000080A0000080C0000080E00000A0000000A0200000A0400000A0600000A0800000A0A00000A0C00000A0E00000C0000000C0200000C0400000C0600000C0800000C0
310
A00000C0C00000C0E00000E0000000E0200000E0400000E0600000E0800000E0A00000E0C00000E0E00040000000400020004000400040006000400080004000A0004000C0004000E00040200000402020004020400040206000402080004020A0004020C0004020E000404000004040200040404000404060004040800040
310
40A0004040C0004040E00040600000406020004060400040606000406080004060A0004060C0004060E00040800000408020004080400040806000408080004080A0004080C0004080E00040A0000040A0200040A0400040A0600040A0800040A0A00040A0C00040A0E00040C0000040C0200040C0400040C0600040C08000
310
40C0A00040C0C00040C0E00040E0000040E0200040E0400040E0600040E0800040E0A00040E0C00040E0E00080000000800020008000400080006000800080008000A0008000C0008000E00080200000802020008020400080206000802080008020A0008020C0008020E00080400000804020008040400080406000804080
310
008040A0008040C0008040E00080600000806020008060400080606000806080008060A0008060C0008060E00080800000808020008080400080806000808080008080A0008080C0008080E00080A0000080A0200080A0400080A0600080A0800080A0A00080A0C00080A0E00080C0000080C0200080C0400080C0600080C0
310
800080C0A00080C0C00080C0E00080E0000080E0200080E0400080E0600080E0800080E0A00080E0C00080E0E000C0000000C0002000C0004000C0006000C0008000C000A000C000C000C000E000C0200000C0202000C0204000C0206000C0208000C020A000C020C000C020E000C0400000C0402000C0404000C0406000C0
310
408000C040A000C040C000C040E000C0600000C0602000C0604000C0606000C0608000C060A000C060C000C060E000C0800000C0802000C0804000C0806000C0808000C080A000C080C000C080E000C0A00000C0A02000C0A04000C0A06000C0A08000C0A0A000C0A0C000C0A0E000C0C00000C0C02000C0C04000C0C06000
310
C0C08000C0C0A000F0FBFF00A4A0A000808080000000FF0000FF000000FFFF00FF000000FF00FF00FFFF0000FFFFFF00A4A4A4A4A4A4A4A4A4A4A4A4A4A4A4A4A4A4A4A4A4A4A4A4A4A4A4A4A4A4A4A4A4A4A4A4A4A4A4A4A4A4A4A4A4A4A4A4A4A4A4A4A4A4A4A4A4A4A4A4A4A4A4A4A4A4A4A4A4A4A4A4A4A4A4A4A4A4A4
310
A4A4A4A4A4A4A4A4A4A4A4A4A4A4A4A4A4A4A4A4A4A4A4A4A4A4A4A4A4A4A4A4A4A4A4A4A4A4A4A4A4A4A4A4A4A4A4A4A4A4A4A4A4A4A4A4A4A4A4A4A4A4A4A4A4A4A4A4A4A4A4A4A4A4A4A4A4A4A4A4A4A4A4A4A4A4A4A4A4A4A4A4A4A4A4A4A4A4A4A4A4A4A4A4A4A4A4A4A4A4A4A4A4A4A4A4A4A4A4A4A4A4A4A4A4A4A4
310
A4A4A4A4A4A4A4A4A4A4A4A4A4A4A4A4A4A4A4A4A4A4A4A4A4A4A4A4A4A4A4A4A4A4A4A4A4A4A4A4A4A4A4A4A4A4A4A4A4A4A4A4A4A4A4A4A4A4A4A4A4A4A4A4A4A4A4A4A4A4A4A4A4A4A4A4A4A4A4A4A4A4A4A4A4A4A4A4A4A4A4A4A4A4A4A4A4A4A4A4A4A4A4A4A4A4A4A4A4A4A4A4A4A4A4A4A4A4A4A4A4A4A4A4A4A4A4
310
A4A4A4A4A4A4A4A4A4A4A4A4A4A4A4A4A4A4A4A4A4A4A4A4A4A4A4A4A4A4A4A4A4A4A4A4A4A4A4A4A4A4A4A4A4A4A4A4A4A4A4A4A4A4A4A4A4A4A4A4A4A4A4A4A4A4A4A4A4A4A4A4A4A4A4A4A4A4A4A4A4A4A4A4A4A4A4A4A4A4A4A4A4A4A4A4A4A4A4A4A4A4A4A4A4A4A4A4A4A4A4A4A4A4A4A4F9F9F9F9F9F9F9F9F9F9F9
310
F9F9F9F9F9F9F9F9F9F9F9F9F9F9F9F9F9F9F9A4A4F9F9F9F9F9F9F9F9F9F9F9F9F9F9F9F9F9F9F9F9F9F9F9F9F9F9F9F9F9F9A4A4F9F9F9F9F9F9F9F9F9F9F9F9F9F9F9F9F9F9F9F9F9F9F9F9F9F9F9F9F9F9A4A4F9A4A4A4A4A4A4A4A4A4A4A4A4A4A4A4A4A4A4A4A4A4A4A4A4A4A4A4A4F9A4A4A4A4A4A4A4A4A4A4A4A4
310
A4A4A4A4A4A4A4A4A4A4A4A4A4A4A4A4A4A4A4A4A4A4A4A4A4A4A4A4A4A4A4A4A4A4A4A4A4A4A4A4A4A4A4A4A4A4A4A4A4A4A4A4A4A4A4A4A4A4A4A4A4A4A4A4A4A4A4A4A4A4A4A4A4A4A4A4A4A4A4A4A4A4A4A4A4A4A4A4A4A4A4A4A4A4A4A4A4A4A4A4A4A4A4A4A4A4A4A4A4A4A4A4A4A4A4A4A4A4A4A4A4A4A4A4A4A4A4
310
A4A4A4A4A4A4A4A4A4A4A4A4A4A4A4A4A4A4A4A4A4A4A4A4A4A4A4A4A4A4A4A4A4A4A4A4A4A4A4A4A4A4A4A4A4A4A4A4A4A4A4A4A4A4A4A4A4A4A4A4A4A4A4A4A4A4A4A4A4A4A4A4A4A4A4A4A4A4A4A4A4A4A4A4A4A4A4A4A4A4A4A4A4A4A4A4A4A4A4A4A4A4A4A4A4A4A4A4A4A4A4A4A4A4A4A4A4A4A4A4A4A4A4A4A4A4A4
310
A4A4A4A4A4A4A4A4A4A4A4A4A4A4A4A4A4A4A4A4A4A4A4A4A4A4A4A4A4A4A4A4A4A4A4A4A4A4A4A4A4A4A4A4A4A4A4A4A4A4A4A4A4A4A4A4A4A4A4A4A4A4A4A4A4A4A4A4A4A4A4A4A4A4A4A4A4A4A4A4A4A4A4A4A4A4A4A4A4A4A4A4A4A4A4A4A4A4A4A4A4A4A4A4A4A4A4A4A4A4A4A4A4A4A4A4A4A4A4A4A4A4A4A4A4A4A4
310
A4A4A4A4A4A4A4A4A4A4A4A4A4A4A4A4A4A4A4A4A4A4A4A4A4A4A4A4A4A4A4A4A4A4A4A4A4A4A4A4A4A4A4A4A4A4A4A4A4A4A4A4A4A4A4A4
1001
ACAD
1000
DesignCenter Data
1002
{
1070
     1
1070
     4
1002
}
  0
BLOCK_RECORD
  5
AA8
330
1
100
AcDbSymbolTableRecord
100
AcDbBlockTableRecord
  2
_CLOSED
340
0
  0
BLOCK_RECORD
  5
B79
330
1
100
AcDbSymbolTableRecord
100
AcDbBlockTableRecord
  2
nota revisoes
340
0
1001
ACAD
1000
DesignCenter Data
1002
{
1070
     1
1070
     4
1002
}
  0
BLOCK_RECORD
  5
B8E
330
1
100
AcDbSymbolTableRecord
100
AcDbBlockTableRecord
  2
a3l
340
0
1001
ACAD
1000
DesignCenter Data
1002
{
1070
     1
1070
     4
1002
}
  0
BLOCK_RECORD
  5
B9E
330
1
100
AcDbSymbolTableRecord
100
AcDbBlockTableRecord
  2
legenda desenvolvimento
340
0
1001
ACAD
1000
DesignCenter Data
1002
{
1070
     1
1070
     4
1002
}
  0
ENDTAB
  0
ENDSEC
  0
SECTION
  2
BLOCKS
  0
BLOCK
  5
20
330
1F
100
AcDbEntity
  8
0
100
AcDbBlockBegin
  2
*Model_Space
 70
     0
 10
0.0
 20
0.0
 30
0.0
  3
*Model_Space
  1

  0
ENDBLK
  5
21
330
1F
100
AcDbEntity
  8
0
100
AcDbBlockEnd
  0
BLOCK
  5
1C
330
1B
100
AcDbEntity
 67
     1
  8
0
100
AcDbBlockBegin
  2
*Paper_Space
 70
     0
 10
0.0
 20
0.0
 30
0.0
  3
*Paper_Space
  1

  0
ENDBLK
  5
1D
330
1B
100
AcDbEntity
 67
     1
  8
0
100
AcDbBlockEnd
  0
BLOCK
  5
24
330
23
100
AcDbEntity
 67
     1
  8
0
100
AcDbBlockBegin
  2
*Paper_Space0
 70
     0
 10
0.0
 20
0.0
 30
0.0
  3
*Paper_Space0
  1

  0
ENDBLK
  5
25
330
23
100
AcDbEntity
 67
     1
  8
0
100
AcDbBlockEnd
  0
BLOCK
  5
91B
330
919
100
AcDbEntity
  8
0
100
AcDbBlockBegin
  2
_DotSmall
 70
     0
 10
0.0
 20
0.0
 30
0.0
  3
_DotSmall
  1

  0
LWPOLYLINE
  5
91A
330
919
100
AcDbEntity
  8
0
  6
ByBlock
 62
     0
100
AcDbPolyline
 90
        2
 70
     1
 43
0.5
 10
-0.0625
 20
0.0
 42
1.0
 10
0.0625
 20
0.0
 42
1.0
  0
ENDBLK
  5
91C
330
919
100
AcDbEntity
  8
0
100
AcDbBlockEnd
  0
BLOCK
  5
92A
330
922
100
AcDbEntity
  8
0
100
AcDbBlockBegin
  2
base para cotas
 70
     0
 10
0.0
 20
0.0
 30
0.0
  3
base para cotas
  1

  0
LINE
  5
B36
330
922
100
AcDbEntity
  8
cotas
100
AcDbLine
 10
0.0
 20
-30.0
 30
0.0
 11
327.1260136525398
 21
-30.0
 31
0.0
  0
LINE
  5
B37
330
922
100
AcDbEntity
  8
cotas
100
AcDbLine
 10
0.0
 20
-25.0
 30
0.0
 11
327.1260136525398
 21
-25.0
 31
0.0
  0
LINE
  5
B38
330
922
100
AcDbEntity
  8
cotas
100
AcDbLine
 10
0.0
 20
-20.0
 30
0.0
 11
327.1260136525398
 21
-20.0
 31
0.0
  0
LINE
  5
B39
330
922
100
AcDbEntity
  8
cotas
100
AcDbLine
 10
0.0
 20
-15.0
 30
0.0
 11
327.1260136525398
 21
-15.0
 31
0.0
  0
LINE
  5
B3A
330
922
100
AcDbEntity
  8
cotas
100
AcDbLine
 10
0.0
 20
-10.0
 30
0.0
 11
327.1260136525398
 21
-10.0
 31
0.0
  0
LINE
  5
B3B
330
922
100
AcDbEntity
  8
cotas
100
AcDbLine
 10
0.0
 20
0.0
 30
0.0
 11
0.0
 21
-30.0
 31
0.0
  0
LINE
  5
B3C
330
922
100
AcDbEntity
  8
cotas
100
AcDbLine
 10
327.1260136525398
 20
-30.0
 30
0.0
 11
327.1260136525398
 21
0.0
 31
0.0
  0
ENDBLK
  5
92B
330
922
100
AcDbEntity
  8
0
100
AcDbBlockEnd
  0
BLOCK
  5
AAD
330
AA8
100
AcDbEntity
  8
0
100
AcDbBlockBegin
  2
_CLOSED
 70
     0
 10
0.0
 20
0.0
 30
0.0
  3
_CLOSED
  1

  0
LINE
  5
AA9
330
AA8
100
AcDbEntity
  8
0
100
AcDbLine
 10
-1.0
 20
0.166667
 30
0.0
 11
0.0
 21
0.0
 31
0.0
  0
LINE
  5
AAA
330
AA8
100
AcDbEntity
  8
0
100
AcDbLine
 10
0.0
 20
0.0
 30
0.0
 11
-1.0
 21
-0.166667
 31
0.0
  0
LINE
  5
AAB
330
AA8
100
AcDbEntity
  8
0
100
AcDbLine
 10
-1.0
 20
0.166667
 30
0.0
 11
-1.0
 21
-0.166667
 31
0.0
  0
LINE
  5
AAC
330
AA8
100
AcDbEntity
  8
0
100
AcDbLine
 10
0.0
 20
0.0
 30
0.0
 11
-1.0
 21
0.0
 31
0.0
  0
ENDBLK
  5
AAE
330
AA8
100
AcDbEntity
  8
0
100
AcDbBlockEnd
  0
BLOCK
  5
B7C
330
B79
100
AcDbEntity
  8
0
100
AcDbBlockBegin
  2
nota revisoes
 70
     0
 10
0.0
 20
0.0
 30
0.0
  3
nota revisoes
  1

  0
CIRCLE
  5
B7A
330
B79
100
AcDbEntity
  8
4
100
AcDbCircle
 10
0.0
 20
0.0
 30
0.0
 40
13.69426055101189
  0
TEXT
  5
B7B
330
B79
100
AcDbEntity
  8
4
100
AcDbText
 10
-5.496248358154345
 20
-5.354545554066362
 30
0.0
 40
12.0
  1
1
  7
SANINDUSA
 72
     1
 11
-0.249774214433728
 21
-5.354545554066362
 31
0.0
100
AcDbText
  0
ENDBLK
  5
B7D
330
B79
100
AcDbEntity
  8
0
100
AcDbBlockEnd
  0
BLOCK
  5
B9C
330
B8E
100
AcDbEntity
  8
0
100
AcDbBlockBegin
  2
a3l
 70
     0
 10
0.0
 20
0.0
 30
0.0
  3
a3l
  1

  0
LINE
  5
B8F
330
B8E
100
AcDbEntity
  8
1
100
AcDbLine
 10
-364.2925296599447
 20
-362.1188951399395
 30
0.0
 11
-364.2925296599447
 21
-65.11889513993946
 31
0.0
  0
LINE
  5
B90
330
B8E
100
AcDbEntity
  8
4
100
AcDbLine
 10
-369.2925296599447
 20
-357.1188951399395
 30
0.0
 11
-369.2925296599447
 21
-70.11889513993946
 31
0.0
  0
LINE
  5
B91
330
B8E
100
AcDbEntity
  8
1
100
AcDbLine
 10
-784.2925296599446
 20
-65.11889513993946
 30
0.0
 11
-784.2925296599446
 21
-362.1188951399395
 31
0.0
  0
LINE
  5
B92
330
B8E
100
AcDbEntity
  8
4
100
AcDbLine
 10
-759.2925296599446
 20
-357.1188951399395
 30
0.0
 11
-759.2925296599446
 21
-70.11889513993946
 31
0.0
  0
LINE
  5
B93
330
B8E
100
AcDbEntity
  8
1
100
AcDbLine
 10
-784.2925296599446
 20
-362.1188951399395
 30
0.0
 11
-364.2925296599447
 21
-362.1188951399395
 31
0.0
  0
LINE
  5
B94
330
B8E
100
AcDbEntity
  8
4
100
AcDbLine
 10
-759.2925296599446
 20
-357.1188951399395
 30
0.0
 11
-369.2925296599447
 21
-357.1188951399395
 31
0.0
  0
LINE
  5
B95
330
B8E
100
AcDbEntity
  8
1
100
AcDbLine
 10
-654.2925296599446
 20
-357.1188951399395
 30
0.0
 11
-654.2925296599446
 21
-362.1188951399395
 31
0.0
  0
LINE
  5
B96
330
B8E
100
AcDbEntity
  8
1
100
AcDbLine
 10
-364.2925296599447
 20
-65.11889513993946
 30
0.0
 11
-784.2925296599446
 21
-65.11889513993946
 31
0.0
  0
LINE
  5
B97
330
B8E
100
AcDbEntity
  8
4
100
AcDbLine
 10
-369.2925296599447
 20
-70.11889513993946
 30
0.0
 11
-759.2925296599446
 21
-70.11889513993946
 31
0.0
  0
LINE
  5
B98
330
B8E
100
AcDbEntity
  8
1
100
AcDbLine
 10
-654.2925296599446
 20
-65.11889513993946
 30
0.0
 11
-654.2925296599446
 21
-70.11889513993946
 31
0.0
  0
LINE
  5
B99
330
B8E
100
AcDbEntity
  8
1
100
AcDbLine
 10
-549.2925296599446
 20
-70.11889513993946
 30
0.0
 11
-549.2925296599446
 21
-65.11889513993946
 31
0.0
  0
LINE
  5
B9A
330
B8E
100
AcDbEntity
  8
1
100
AcDbLine
 10
-369.2925296599447
 20
-65.11889513993946
 30
0.0
 11
-364.2925296599447
 21
-65.11889513993946
 31
0.0
  0
LINE
  5
B9B
330
B8E
100
AcDbEntity
  8
1
100
AcDbLine
 10
-549.2925296599446
 20
-357.1188951399395
 30
0.0
 11
-549.2925296599446
 21
-362.1188951399395
 31
0.0
  0
ENDBLK
  5
B9D
330
B8E
100
AcDbEntity
  8
0
100
AcDbBlockEnd
  0
BLOCK
  5
C13
330
B9E
100
AcDbEntity
  8
0
100
AcDbBlockBegin
  2
legenda desenvolvimento
 70
     2
 10
0.0
 20
0.0
 30
0.0
  3
legenda desenvolvimento
  1

  0
ATTDEF
  5
B9F
330
B9E
100
AcDbEntity
  8
1
100
AcDbText
 10
-108.606245802552
 20
55.5
 30
0.0
 40
4.0
  1
XXXXXXXXXXXXXX
 41
0.8
  7
SANINDUSA
 72
     4
 11
-87.5
 21
57.5
 31
0.0
100
AcDbAttributeDefinition
  3
Nome do Produto:
  2
PRODUTO
 70
     0
  0
ATTDEF
  5
BA0
330
B9E
100
AcDbEntity
  8
1
100
AcDbText
 10
-97.9997966101695
 20
41.25
 30
0.0
 40
3.0
  1
XXXXXXXXX
 41
0.8
  7
futura
 72
     4
 11
-87.5
 21
42.75
 31
0.0
100
AcDbAttributeDefinition
  3
Nome da Peça:
  2
PECA
 70
     0
  0
ATTDEF
  5
BA1
330
B9E
100
AcDbEntity
  8
1
100
AcDbText
 10
-133.4422431161853
 20
21.11745296763252
 30
0.0
 40
2.5
  1
X
 41
0.8
  7
SANINDUSA
 72
     4
 11
-132.5
 21
22.36745296763252
 31
0.0
100
AcDbAttributeDefinition
  3
Cod. TESTE:
  2
TESTE
 70
     0
  0
ATTDEF
  5
BA2
330
B9E
100
AcDbEntity
  8
1
100
AcDbText
 10
-124.3844862323707
 20
21.11745296763252
 30
0.0
 40
2.5
  1
XX
 41
0.8
  7
SANINDUSA
 72
     4
 11
-122.5
 21
22.36745296763252
 31
0.0
100
AcDbAttributeDefinition
  3
Cod. Ano:
  2
ANO
 70
     0
  0
ATTDEF
  5
BA3
330
B9E
100
AcDbEntity
  8
1
100
AcDbText
 10
-112.526889953052
 20
21.11745296763252
 30
0.0
 40
2.5
  1
XXX
 41
0.8
  7
SANINDUSA
 72
     4
 11
-109.700160604496
 21
22.36745296763252
 31
0.0
100
AcDbAttributeDefinition
  3
Cod. Sequência:
  2
SEQUENCIA
 70
     0
  0
ATTDEF
  5
BA4
330
B9E
100
AcDbEntity
  8
1
100
AcDbText
 10
-99.35382430979316
 20
21.11745296763252
 30
0.0
 40
2.5
  1
XX
 41
0.8
  7
SANINDUSA
 72
     4
 11
-97.46933807742244
 21
22.36745296763252
 31
0.0
100
AcDbAttributeDefinition
  3
Cod. Tipo:
  2
TIPO
 70
     0
  0
ATTDEF
  5
BA5
330
B9E
100
AcDbEntity
  8
1
100
AcDbText
 10
-87.42035911468438
 20
21.11745296763252
 30
0.0
 40
2.5
  1
XXX
 41
0.8
  7
SANINDUSA
 72
     4
 11
-84.59362976612828
 21
22.36745296763252
 31
0.0
100
AcDbAttributeDefinition
  3
Cod. Produto:
  2
PRODUTO
 70
     0
  0
ATTDEF
  5
BA6
330
B9E
100
AcDbEntity
  8
1
100
AcDbText
 10
-74.62051971917853
 20
21.11745296763252
 30
0.0
 40
2.5
  1
XXX
 41
0.8
  7
SANINDUSA
 72
     4
 11
-71.79379037062244
 21
22.36745296763252
 31
0.0
100
AcDbAttributeDefinition
  3
Cod. Peça:
  2
PECA
 70
     0
  0
ATTDEF
  5
BA7
330
B9E
100
AcDbEntity
  8
1
100
AcDbText
 10
-61.10603446650329
 20
21.11745296763252
 30
0.0
 40
2.5
  1
XX
 41
0.8
  7
SANINDUSA
 72
     4
 11
-59.22154823413257
 21
22.36745296763252
 31
0.0
100
AcDbAttributeDefinition
  3
Cod. Revisão:
  2
REV
 70
     0
  0
ATTDEF
  5
BA8
330
B9E
100
AcDbEntity
  8
1
100
AcDbText
 10
-48.43615325006194
 20
21.11745296763252
 30
0.0
 40
2.5
  1
XX
 41
0.8
  7
SANINDUSA
 72
     4
 11
-46.55166701769121
 21
22.36745296763252
 31
0.0
100
AcDbAttributeDefinition
  3
Cod. Alteração:
  2
ALT
 70
     0
  0
ATTDEF
  5
BA9
330
B9E
100
AcDbEntity
  8
1
100
AcDbText
 10
-35.19086635325722
 20
23.98875083948959
 30
0.0
 40
3.0
  1
1/XXX
 41
0.8
  7
SANINDUSA
 72
     4
 11
-30.0
 21
25.25
 31
0.0
100
AcDbAttributeDefinition
  3
Escala geral:
  2
ESCALA
 70
     0
  0
ATTDEF
  5
BAA
330
B9E
100
AcDbEntity
  8
1
100
AcDbText
 10
-15.65345869711215
 20
23.75
 30
0.0
 40
3.0
  1
XXXXX
 41
0.8
  7
SANINDUSA
 72
     4
 11
-10.0
 21
25.25
 31
0.0
100
AcDbAttributeDefinition
  3
Folha:
  2
FOLHA
 70
     0
  0
ATTDEF
  5
BAB
330
B9E
100
AcDbEntity
  8
1
100
AcDbText
 10
-178.5146998822042
 20
56.9531347542807
 30
0.0
 40
2.0
  1
xx
 41
0.8
  7
SANINDUSA
 72
     4
 11
-177.2123493113513
 21
57.70330265219877
 31
0.0
100
AcDbAttributeDefinition
  3
revisão
  2
REV.
 70
     0
  0
ATTDEF
  5
BAC
330
B9E
100
AcDbEntity
  8
1
100
AcDbText
 10
-172.7849640077129
 20
56.9531347542807
 30
0.0
 40
2.0
  1
xx
 41
0.8
  7
SANINDUSA
 72
     4
 11
-171.48261343686
 21
57.70330265219877
 31
0.0
100
AcDbAttributeDefinition
  3
alteração
  2
ALT.
 70
     0
  0
ATTDEF
  5
BAD
330
B9E
100
AcDbEntity
  8
1
100
AcDbText
 10
-168.007199951307
 20
56.70330265219877
 30
0.0
 40
2.0
  1
xx/xx/xxxx
 41
0.8
  7
SANINDUSA
 11
-168.007199951307
 21
57.70330265219877
 31
0.0
100
AcDbAttributeDefinition
  3
data
  2
DATA
 70
     0
 74
     2
  0
ATTDEF
  5
BAE
330
B9E
100
AcDbEntity
  8
1
100
AcDbText
 10
-168.5396372253371
 20
13.15916722632639
 30
0.0
 40
2.0
  1
XX/XX/XXXX
 41
0.8
  7
SANINDUSA
 72
     4
 11
-161.5099528734231
 21
14.0
 31
0.0
100
AcDbAttributeDefinition
  3
Data projecto
  2
DATA_PROJ
 70
     0
  0
ATTDEF
  5
BAF
330
B9E
100
AcDbEntity
  8
1
100
AcDbText
 10
-150.8658110728766
 20
13.24983210208193
 30
0.0
 40
2.0
  1
xxxxxxxx
 41
0.8
  7
SANINDUSA
 72
     4
 11
-145.6564087894649
 21
14.0
 31
0.0
100
AcDbAttributeDefinition
  3
nome de quem projectou
  2
NOME
 70
     0
  0
ATTDEF
  5
BB0
330
B9E
100
AcDbEntity
  8
1
100
AcDbText
 10
-168.5396372253371
 20
9.159167226326394
 30
0.0
 40
2.0
  1
XX/XX/XXXX
 41
0.8
  7
SANINDUSA
 72
     4
 11
-161.5099528734231
 21
10.0
 31
0.0
100
AcDbAttributeDefinition
  3
Data desenhou
  2
DATA_DES
 70
     0
  0
ATTDEF
  5
BB1
330
B9E
100
AcDbEntity
  8
1
100
AcDbText
 10
-151.516986358303
 20
9.249832102081933
 30
0.0
 40
2.0
  1
xxxxxxxxx
 41
0.8
  7
SANINDUSA
 72
     4
 11
-145.6564087894649
 21
10.0
 31
0.0
100
AcDbAttributeDefinition
  3
nome
  2
NOME
 70
     0
  0
ATTDEF
  5
BB2
330
B9E
100
AcDbEntity
  8
1
100
AcDbText
 10
-127.2924214135946
 20
14.1979876583216
 30
0.0
 40
2.0
  1
Vitreous China
 41
0.8
  7
SANINDUSA
 72
     4
 11
-119.231709526422
 21
15.22216495852308
 31
0.0
100
AcDbAttributeDefinition
  3
Nome do Material:
  2
MATERIAL
 70
     0
  0
ATTDEF
  5
BB3
330
B9E
100
AcDbEntity
  8
1
100
AcDbText
 10
-103.1563452122093
 20
14.38019043949261
 30
0.0
 40
2.0
  1
Branco
 41
0.8
  7
SANINDUSA
 72
     4
 11
-99.33418268702462
 21
15.35937109765245
 31
0.0
100
AcDbAttributeDefinition
  3
cor da peça
  2
COR
 70
     0
  0
ATTDEF
  5
BB4
330
B9E
100
AcDbEntity
  8
1
100
AcDbText
 10
-116.7235057085292
 20
5.975822699798522
 30
0.0
 40
2.0
  1
Vidrado
 41
0.8
  7
SANINDUSA
 72
     4
 11
-112.5
 21
7.0
 31
0.0
100
AcDbAttributeDefinition
  3
Tipo de acabamento:
  2
ACABAMENTO
 70
     0
  0
ATTDEF
  5
BB5
330
B9E
100
AcDbEntity
  8
1
100
AcDbText
 10
-79.18527869967246
 20
16.65066409850533
 30
0.0
 40
2.0
  1
XXXXXXX
 41
0.8
  7
SANINDUSA
 72
     4
 11
-73.90871724903445
 21
17.65066409850533
 31
0.0
100
AcDbAttributeDefinition
  3
Normas
  2
NORMAS
 70
     0
  0
ATTDEF
  5
BB6
330
B9E
100
AcDbEntity
  8
1
100
AcDbText
 10
-30.55312290127603
 20
14.0
 30
0.0
 40
2.0
  1
XXXXXXXXXXXXXX
 41
0.8
  7
SANINDUSA
 72
     4
 11
-20.0
 21
15.0
 31
0.0
100
AcDbAttributeDefinition
  3
Substitui o desenho:
  2
SUBSTITUI
 70
     0
  0
ATTDEF
  5
BB7
330
B9E
100
AcDbEntity
  8
1
100
AcDbText
 10
-31.30691739422431
 20
6.0
 30
0.0
 40
2.0
  1
XXXXXXXXXXXXXXX
 41
0.8
  7
SANINDUSA
 72
     4
 11
-20.0
 21
7.0
 31
0.0
100
AcDbAttributeDefinition
  3
Substituido por:
  2
SUBSTITUIDO
 70
     0
  0
ATTDEF
  5
BB8
330
B9E
100
AcDbEntity
  8
1
100
AcDbText
 10
-110.0220608548302
 20
1.478208457928303
 30
0.0
 40
2.0
  1
XXXXXXXXXXXXXXXXXXXXXXXXXXXXXXXXXX
 41
0.8
  7
SANINDUSA
 11
-110.0220608548302
 21
2.478208457928303
 31
0.0
100
AcDbAttributeDefinition
  3
Localização do desenho:
  2
LOC-DWG
 70
     0
 74
     2
  0
LINE
  5
BB9
330
B9E
100
AcDbEntity
  8
3
100
AcDbLine
 10
-135.0
 20
4.0
 30
0.0
 11
0.0000000000004547
 21
4.0
 31
0.0
  0
LINE
  5
BBA
330
B9E
100
AcDbEntity
  8
3
100
AcDbLine
 10
-90.00000000000046
 20
12.0
 30
0.0
 11
-135.0
 21
12.0
 31
0.0
  0
LINE
  5
BBB
330
B9E
100
AcDbEntity
  8
3
100
AcDbLine
 10
-135.0
 20
32.5
 30
0.0
 11
-40.0
 21
32.5
 31
0.0
  0
TEXT
  5
BBC
330
B9E
100
AcDbEntity
  8
1
100
AcDbText
 10
-134.0
 20
1.25
 30
0.0
 40
2.0
  1
Localização do des.:
 41
0.8
  7
SANINDUSA
 11
-134.0
 21
2.25
 31
0.0
100
AcDbText
 73
     2
  0
LINE
  5
BBD
330
B9E
100
AcDbEntity
  8
3
100
AcDbLine
 10
-180.0
 20
65.0
 30
0.0
 11
0.0
 21
65.0
 31
0.0
  0
LINE
  5
BBE
330
B9E
100
AcDbEntity
  8
leg fin
100
AcDbLine
 10
-40.0
 20
25.05956924886846
 30
0.0
 11
-135.0
 21
25.05956924886846
 31
0.0
  0
LINE
  5
BBF
330
B9E
100
AcDbEntity
  8
leg fin
100
AcDbLine
 10
-40.0
 20
28.5
 30
0.0
 11
-135.0
 21
28.5
 31
0.0
  0
LINE
  5
BC0
330
B9E
100
AcDbEntity
  8
3
100
AcDbLine
 10
-135.0
 20
50.0
 30
0.0
 11
-40.0
 21
50.0
 31
0.0
  0
TEXT
  5
BC1
330
B9E
100
AcDbEntity
  8
1
100
AcDbText
 10
-134.0
 20
29.75
 30
0.0
 40
2.0
  1
Desenho nº:
 41
0.8
  7
SANINDUSA
 11
-134.0
 21
30.75
 31
0.0
100
AcDbText
 73
     2
  0
TEXT
  5
BC2
330
B9E
100
AcDbEntity
  8
1
100
AcDbText
 10
-134.0
 20
9.25
 30
0.0
 40
2.0
  1
Acabamento:
 41
0.8
  7
SANINDUSA
 11
-134.0
 21
10.25
 31
0.0
100
AcDbText
 73
     2
  0
LINE
  5
BC3
330
B9E
100
AcDbEntity
  8
3
100
AcDbLine
 10
-180.0
 20
20.0
 30
0.0
 11
0.0
 21
20.0
 31
0.0
  0
LINE
  5
BC4
330
B9E
100
AcDbEntity
  8
1
100
AcDbLine
 10
-174.5810776056337
 20
55.5
 30
0.0
 11
-174.5810776056337
 21
65.0
 31
0.0
  0
LINE
  5
BC5
330
B9E
100
AcDbEntity
  8
1
100
AcDbLine
 10
-168.9210461879161
 20
55.5
 30
0.0
 11
-168.9210461879161
 21
65.0
 31
0.0
  0
LINE
  5
BC6
330
B9E
100
AcDbEntity
  8
1
100
AcDbLine
 10
-154.0988595589306
 20
55.5
 30
0.0
 11
-154.0988595589306
 21
65.0
 31
0.0
  0
LINE
  5
BC7
330
B9E
100
AcDbEntity
  8
3
100
AcDbLine
 10
-180.0
 20
65.0
 30
0.0
 11
-180.0
 21
0.0
 31
0.0
  0
LINE
  5
BC8
330
B9E
100
AcDbEntity
  8
3
100
AcDbLine
 10
-135.0
 20
0.0
 30
0.0
 11
-135.0
 21
65.0
 31
0.0
  0
TEXT
  5
BC9
330
B9E
100
AcDbEntity
  8
1
100
AcDbText
 10
-179.0
 20
9.75
 30
0.0
 40
1.5
  1
Des.
 41
0.8
  7
SANINDUSA
 11
-179.0
 21
10.5
 31
0.0
100
AcDbText
 73
     2
  0
LINE
  5
BCA
330
B9E
100
AcDbEntity
  8
1
100
AcDbLine
 10
-168.9210461879161
 20
20.0
 30
0.0
 11
-168.9210461879161
 21
0.0
 31
0.0
  0
LINE
  5
BCB
330
B9E
100
AcDbEntity
  8
1
100
AcDbLine
 10
-154.0988595589306
 20
20.0
 30
0.0
 11
-154.0988595589306
 21
0.0
 31
0.0
  0
LINE
  5
BCC
330
B9E
100
AcDbEntity
  8
1
100
AcDbLine
 10
-180.0
 20
4.0
 30
0.0
 11
-135.0
 21
4.0
 31
0.0
  0
LINE
  5
BCD
330
B9E
100
AcDbEntity
  8
1
100
AcDbLine
 10
-180.0
 20
8.0
 30
0.0
 11
-135.0
 21
8.0
 31
0.0
  0
TEXT
  5
BCE
330
B9E
100
AcDbEntity
  8
1
100
AcDbText
 10
-179.0
 20
1.73257823687436
 30
0.0
 40
1.5
  1
Aprov.
 41
0.8
  7
SANINDUSA
 11
-179.0
 21
2.48257823687436
 31
0.0
100
AcDbText
 73
     2
  0
TEXT
  5
BCF
330
B9E
100
AcDbEntity
  8
1
100
AcDbText
 10
-179.0
 20
5.75
 30
0.0
 40
1.5
  1
Ver.
 41
0.8
  7
SANINDUSA
 11
-179.0
 21
6.5
 31
0.0
100
AcDbText
 73
     2
  0
LINE
  5
BD0
330
B9E
100
AcDbEntity
  8
1
100
AcDbLine
 10
-180.0
 20
16.0
 30
0.0
 11
-135.0
 21
16.0
 31
0.0
  0
LINE
  5
BD1
330
B9E
100
AcDbEntity
  8
1
100
AcDbLine
 10
-180.0
 20
12.0
 30
0.0
 11
-135.0
 21
12.0
 31
0.0
  0
TEXT
  5
BD2
330
B9E
100
AcDbEntity
  8
1
100
AcDbText
 10
-179.0
 20
13.75
 30
0.0
 40
1.5
  1
Proj.
 41
0.8
  7
SANINDUSA
 11
-179.0
 21
14.5
 31
0.0
100
AcDbText
 73
     2
  0
TEXT
  5
BD3
330
B9E
100
AcDbEntity
  8
1
100
AcDbText
 10
-167.9210461879161
 20
17.75
 30
0.0
 40
1.5
  1
Data
 41
0.8
  7
SANINDUSA
 11
-167.9210461879161
 21
18.5
 31
0.0
100
AcDbText
 73
     2
  0
TEXT
  5
BD4
330
B9E
100
AcDbEntity
  8
1
100
AcDbText
 10
-153.0988595589306
 20
17.75
 30
0.0
 40
1.5
  1
Nome
 41
0.8
  7
SANINDUSA
 11
-153.0988595589306
 21
18.5
 31
0.0
100
AcDbText
 73
     2
  0
LINE
  5
BD5
330
B9E
100
AcDbEntity
  8
leg fin
100
AcDbLine
 10
-130.0
 20
20.0
 30
0.0
 11
-130.0
 21
28.5
 31
0.0
  0
TEXT
  5
BD6
330
B9E
100
AcDbEntity
  8
1
100
AcDbText
 10
-134.0
 20
17.25
 30
0.0
 40
2.0
  1
Material:
 41
0.8
  7
SANINDUSA
 11
-134.0
 21
18.25
 31
0.0
100
AcDbText
 73
     2
  0
TEXT
  5
BD7
330
B9E
100
AcDbEntity
  8
1
100
AcDbText
 10
-129.0
 20
26.43288406845113
 30
0.0
 40
1.5
  1
Ano:
 41
0.8
  7
SANINDUSA
 11
-129.0
 21
27.18288406845113
 31
0.0
100
AcDbText
 73
     2
  0
LINE
  5
BD8
330
B9E
100
AcDbEntity
  8
1
100
AcDbLine
 10
-180.0
 20
55.5
 30
0.0
 11
-135.0
 21
55.5
 31
0.0
  0
TEXT
  5
BD9
330
B9E
100
AcDbEntity
  8
1
100
AcDbText
 10
-179.0
 20
52.67772246885193
 30
0.0
 40
1.5
  1
descrição
 41
0.8
  7
SANINDUSA
 11
-179.0
 21
53.42772246885193
 31
0.0
100
AcDbText
 73
     2
  0
TEXT
  5
BDA
330
B9E
100
AcDbEntity
  8
1
100
AcDbText
 10
-134.0
 20
47.25
 30
0.0
 40
2.0
  1
Peça:
 41
0.8
  7
SANINDUSA
 11
-134.0
 21
48.25
 31
0.0
100
AcDbText
 73
     2
  0
LINE
  5
BDB
330
B9E
100
AcDbEntity
  8
1
100
AcDbLine
 10
-180.0
 20
59.5
 30
0.0
 11
-135.0
 21
59.5
 31
0.0
  0
TEXT
  5
BDC
330
B9E
100
AcDbEntity
  8
1
100
AcDbText
 10
-173.5810776056337
 20
62.75
 30
0.0
 40
1.5
  1
Alt.
 41
0.8
  7
SANINDUSA
 11
-173.5810776056337
 21
63.5
 31
0.0
100
AcDbText
 73
     2
  0
TEXT
  5
BDD
330
B9E
100
AcDbEntity
  8
1
100
AcDbText
 10
-179.0
 20
62.75
 30
0.0
 40
1.5
  1
Rev.
 41
0.8
  7
SANINDUSA
 11
-179.0
 21
63.5
 31
0.0
100
AcDbText
 73
     2
  0
TEXT
  5
BDE
330
B9E
100
AcDbEntity
  8
1
100
AcDbText
 10
-167.9210461879161
 20
62.75
 30
0.0
 40
1.5
  1
Data
 41
0.8
  7
SANINDUSA
 11
-167.9210461879161
 21
63.5
 31
0.0
100
AcDbText
 73
     2
  0
TEXT
  5
BDF
330
B9E
100
AcDbEntity
  8
1
100
AcDbText
 10
-153.0988595589306
 20
62.75
 30
0.0
 40
1.5
  1
Nome
 41
0.8
  7
SANINDUSA
 11
-153.0988595589306
 21
63.5
 31
0.0
100
AcDbText
 73
     2
  0
TEXT
  5
BE0
330
B9E
100
AcDbEntity
  8
1
100
AcDbText
 10
-134.0
 20
62.25
 30
0.0
 40
2.0
  1
Produto:
 41
0.8
  7
SANINDUSA
 11
-134.0
 21
63.25
 31
0.0
100
AcDbText
 73
     2
  0
LINE
  5
BE1
330
B9E
100
AcDbEntity
  8
3
100
AcDbLine
 10
-40.0
 20
4.0
 30
0.0
 11
-40.0
 21
65.0
 31
0.0
  0
LWPOLYLINE
  5
BE2
102
{ACAD_REACTORS
330
BEC
102
}
330
B9E
100
AcDbEntity
  8
9
100
AcDbPolyline
 90
       12
 70
     1
 43
0.0
 10
-3.038714600644652
 20
58.90010174665076
 10
-5.726962862472191
 20
58.90010174665076
 10
-5.726962862472191
 20
58.5001017466509
 10
-3.038748516195028
 20
58.5001017466509
 42
-0.4142135623731731
 10
-2.638748516194482
 20
58.1001017466508
 10
-2.638748516194482
 20
57.42799728675596
 10
-5.21497371544865
 20
57.42799728675596
 42
0.4142135623731289
 10
-6.014973715448377
 20
56.627997286756
 10
-6.014973715448377
 20
55.92380871629643
 42
0.4142135623731132
 10
-5.21497371544865
 20
55.12380871629648
 10
-2.23871460064447
 20
55.12380871629648
 10
-2.23871460064447
 20
58.10010174665103
 42
0.4142135623730717
  0
LWPOLYLINE
  5
BE3
102
{ACAD_REACTORS
330
BEC
102
}
330
B9E
100
AcDbEntity
  8
9
100
AcDbPolyline
 90
       20
 70
     1
 43
0.0
 10
-10.01531287095122
 20
57.82799728675581
 10
-10.01531287095122
 20
58.10010174665103
 42
-0.4142135623730744
 10
-9.615312870951584
 20
58.5001017466509
 10
-6.92703069357276
 20
58.5001017466509
 10
-6.92703069357276
 20
58.90010174665076
 10
-9.615346786501959
 20
58.90010174665076
 42
0.4142135623730883
 10
-10.41534678650168
 20
58.1001017466508
 10
-10.41534678650168
 20
57.82796337120567
 42
0.4142135623730717
 10
-9.615346786501959
 20
57.02796337120571
 10
-7.423079531965413
 20
57.02796337120571
 42
-0.4142135623730847
 10
-7.023079531965322
 20
56.62796337120562
 10
-7.023079531965322
 20
55.90786840766487
 42
-0.4142135623730744
 10
-7.423079531965413
 20
55.507868407665
 10
-10.41534678650168
 20
55.507868407665
 10
-10.41534678650168
 20
55.12380871629648
 10
-7.445787917283723
 20
55.12380871629648
 42
0.4114777732064574
 10
-6.645822882998345
 20
55.9163291493976
 10
-6.639238813324936
 20
56.62051771985716
 42
0.4169546541682913
 10
-7.439203847610315
 20
57.42799728675596
 10
-9.615312870951584
 20
57.42799728675596
 42
-0.4142135623731576
  0
LWPOLYLINE
  5
BE4
102
{ACAD_REACTORS
330
BEC
102
}
330
B9E
100
AcDbEntity
  8
9
100
AcDbPolyline
 90
       12
 70
     1
 43
0.0
 10
-14.41561811090378
 20
58.90010174665076
 10
-14.79964388672215
 20
58.90010174665076
 10
-14.79964388672215
 20
55.92380871629643
 42
0.4142135623731133
 10
-13.99964388672242
 20
55.12380871629648
 10
-11.8233508563676
 20
55.12380871629648
 42
0.4142135623730872
 10
-11.02335085636741
 20
55.92380871629643
 10
-11.02335085636741
 20
58.90010174665076
 10
-11.42338477191788
 20
58.90010174665076
 10
-11.42338477191788
 20
55.91567577726095
 42
-0.4131711701795318
 10
-11.82196067063523
 20
55.51567831234956
 10
-14.0141940096214
 20
55.50787335710947
 42
-0.4152567234624407
 10
-14.41561811090378
 20
55.90787082202087
  0
LWPOLYLINE
  5
BE5
102
{ACAD_REACTORS
330
BEC
102
}
330
B9E
100
AcDbEntity
  8
9
100
AcDbPolyline
 90
        6
 70
     1
 43
0.0
 10
-15.80771578768872
 20
55.507868407665
 10
-18.39994912667453
 20
55.507868407665
 42
-0.4142135623731731
 10
-18.79994912667462
 20
55.90786840766487
 10
-18.79994912667462
 20
58.10010174665103
 42
-0.4142135623730744
 10
-18.39994912667453
 20
58.5001017466509
 10
-15.80771578768872
 20
58.5001017466509
  0
LWPOLYLINE
  5
BE6
102
{ACAD_REACTORS
330
BEC
102
}
330
B9E
100
AcDbEntity
  8
9
100
AcDbPolyline
 90
        8
 70
     1
 43
0.0
 10
-15.4236900118708
 20
59.87619128370352
 10
-15.80771578768872
 20
59.87619128370352
 10
-15.80771578768872
 20
58.90010174665076
 10
-18.39176256411201
 20
58.90010174665076
 42
0.4131164467977967
 10
-19.19175694739761
 20
58.1030995310698
 10
-19.1999120763262
 20
55.92680650071542
 42
0.4153115297271718
 10
-18.39991769304061
 20
55.12380871629648
 10
-15.4236900118708
 20
55.12380871629648
  0
LWPOLYLINE
  5
BE7
102
{ACAD_REACTORS
330
BEC
102
}
330
B9E
100
AcDbEntity
  8
9
100
AcDbPolyline
 90
       10
 70
     1
 43
0.0
 10
-20.59201288790928
 20
58.90010174665076
 10
-23.56830591826338
 20
58.90010174665076
 10
-23.56830591826338
 20
55.12380871629648
 10
-23.18424622689509
 20
55.12380871629648
 10
-23.18424622689509
 20
58.5001017466509
 10
-20.59204680345965
 20
58.5001017466509
 42
-0.4142135623730898
 10
-20.19204680345956
 20
58.1001017466508
 10
-20.19204680345956
 20
55.12380871629648
 10
-19.79201288790909
 20
55.12380871629648
 10
-19.79201288790909
 20
58.10010174665103
 42
0.4142135623731132
  0
LWPOLYLINE
  5
BE8
102
{ACAD_REACTORS
330
BEC
102
}
330
B9E
100
AcDbEntity
  8
9
100
AcDbPolyline
 90
        4
 70
     1
 43
0.0
 10
-24.19231812786165
 20
58.90010174665076
 10
-24.57637781922995
 20
58.90010174665076
 10
-24.57637781922995
 20
55.12380871629648
 10
-24.19231812786165
 20
55.12380871629648
  0
LWPOLYLINE
  5
BE9
102
{ACAD_REACTORS
330
BEC
102
}
330
B9E
100
AcDbEntity
  8
9
100
AcDbPolyline
 90
       10
 70
     1
 43
0.0
 10
-28.57661522808212
 20
58.5001017466509
 10
-25.98444972019706
 20
58.5001017466509
 42
-0.4142135623731731
 10
-25.58444972019652
 20
58.1001017466508
 10
-25.58444972019652
 20
55.12380871629648
 10
-25.2004239443786
 20
55.12380871629648
 10
-25.2004239443786
 20
58.10010174665103
 42
0.4142135623730717
 10
-26.00042394437833
 20
58.90010174665076
 10
-28.97664914363259
 20
58.90010174665076
 10
-28.97664914363259
 20
55.12380871629648
 10
-28.57661522808212
 20
55.12380871629648
  0
LWPOLYLINE
  5
BEA
102
{ACAD_REACTORS
330
BEC
102
}
330
B9E
100
AcDbEntity
  8
9
100
AcDbPolyline
 90
       12
 70
     1
 43
0.0
 10
-29.58465321349832
 20
58.10010174665103
 42
0.4142135623730716
 10
-30.3846532134985
 20
58.90010174665076
 10
-33.07296930642724
 20
58.90010174665076
 10
-33.07296930642724
 20
58.5001017466509
 10
-30.38468712904842
 20
58.5001017466509
 42
-0.4142135623730067
 10
-29.98468712904878
 20
58.1001017466508
 10
-29.98468712904878
 20
57.42799728675618
 10
-32.56098015940324
 20
57.42799728675596
 42
0.4142135623731289
 10
-33.36098015940343
 20
56.627997286756
 10
-33.36098015940343
 20
55.92380871629643
 42
0.4142135623731132
 10
-32.56098015940324
 20
55.12380871629648
 10
-29.58465321349832
 20
55.12380871629648
  0
LWPOLYLINE
  5
BEB
102
{ACAD_REACTORS
330
BEC
102
}
330
B9E
100
AcDbEntity
  8
9
100
AcDbPolyline
 90
       20
 70
     1
 43
0.0
 10
-34.7850262845518
 20
57.42799728675596
 10
-36.96125148380543
 20
57.42799728675596
 42
-0.4142135623730898
 10
-37.36125148380552
 20
57.82799728675604
 10
-37.36125148380552
 20
58.10010174665103
 42
-0.4142135623730744
 10
-36.96125148380543
 20
58.5001017466509
 10
-34.27303713752781
 20
58.50010174665067
 10
-34.27303713752781
 20
58.90010174665076
 10
-36.96128539935535
 20
58.90010174665076
 42
0.4142135623731289
 10
-37.76128539935553
 20
58.1001017466508
 10
-37.76128539935553
 20
57.82796337120567
 42
0.4142135623730716
 10
-36.9612853993558
 20
57.02796337120571
 10
-34.76901814481926
 20
57.02796337120571
 42
-0.414213562373168
 10
-34.36901814481962
 20
56.62796337120562
 10
-34.36901814481962
 20
55.90786840766487
 42
-0.4142135623730744
 10
-34.76901814481926
 20
55.507868407665
 10
-37.76128539935553
 20
55.507868407665
 10
-37.76128539935553
 20
55.12380871629648
 10
-34.7850262845518
 20
55.12380871629648
 42
0.4142135623731289
 10
-33.98502628455162
 20
55.92380871629643
 10
-33.98502628455162
 20
56.627997286756
 42
0.4142135623731132
  0
HATCH
  5
BEC
330
B9E
100
AcDbEntity
  8
9
100
AcDbHatch
 10
0.0
 20
0.0
 30
0.0
210
0.0
220
0.0
230
1.0
  2
SOLID
 70
     1
 71
     1
 91
       13
 92
        7
 72
     1
 73
     1
 93
       20
 10
-34.36901814481962
 20
55.90786840766487
 42
-0.414213562372991
 10
-34.76901814481926
 20
55.507868407665
 42
0.0
 10
-37.76128539935553
 20
55.507868407665
 42
0.0
 10
-37.76128539935553
 20
55.12380871629648
 42
0.0
 10
-34.7850262845518
 20
55.12380871629648
 42
0.4142135623731705
 10
-33.98502628455162
 20
55.92380871629666
 42
0.0
 10
-33.98502628455162
 20
56.627997286756
 42
0.4142135623731547
 10
-34.7850262845518
 20
57.42799728675596
 42
0.0
 10
-36.96125148380543
 20
57.42799728675596
 42
-0.4142135623730898
 10
-37.36125148380552
 20
57.82799728675604
 42
0.0
 10
-37.36125148380552
 20
58.1001017466508
 42
-0.4142135623731575
 10
-36.96125148380543
 20
58.5001017466509
 42
0.0
 10
-34.27303713752781
 20
58.50010174665067
 42
0.0
 10
-34.27303713752781
 20
58.90010174665076
 42
0.0
 10
-36.96128539935535
 20
58.90010174665076
 42
0.4142135623731705
 10
-37.76128539935553
 20
58.10010174665058
 42
0.0
 10
-37.76128539935553
 20
57.82796337120544
 42
0.4142135623730299
 10
-36.9612853993558
 20
57.02796337120571
 42
0.0
 10
-34.76901814481926
 20
57.02796337120571
 42
-0.4142135623730015
 10
-34.36901814481962
 20
56.62796337120608
 42
0.0
 97
        1
330
BEB
 92
        7
 72
     1
 73
     1
 93
       12
 10
-33.36098015940343
 20
55.92380871629666
 42
0.4142135623731547
 10
-32.56098015940324
 20
55.12380871629648
 42
0.0
 10
-29.58465321349877
 20
55.12380871629648
 42
0.0
 10
-29.58465321349832
 20
58.10010174665058
 42
0.4142135623731964
 10
-30.3846532134985
 20
58.90010174665076
 42
0.0
 10
-33.07296930642724
 20
58.90010174665076
 42
0.0
 10
-33.07296930642724
 20
58.50010174665067
 42
0.0
 10
-30.38468712904887
 20
58.5001017466509
 42
-0.4142135623732564
 10
-29.98468712904878
 20
58.10010174665103
 42
0.0
 10
-29.98468712904923
 20
57.42799728675596
 42
0.0
 10
-32.56098015940324
 20
57.42799728675596
 42
0.4142135623731705
 10
-33.36098015940343
 20
56.627997286756
 42
0.0
 97
        1
330
BEA
 92
       22
 72
     1
 73
     1
 93
        6
 10
-32.97692046803468
 20
56.62796337120562
 42
-0.4142135623731576
 10
-32.57692046803459
 20
57.02796337120571
 42
0.0
 10
-29.98468712904878
 20
57.02796337120571
 42
0.0
 10
-29.98468712904878
 20
55.507868407665
 42
0.0
 10
-32.57692046803459
 20
55.507868407665
 42
-0.4142135623731731
 10
-32.97692046803468
 20
55.90786840766487
 42
0.0
 97
        1
330
C11
 92
        7
 72
     1
 73
     1
 93
       10
 10
-28.57661522808212
 20
58.5001017466509
 42
0.0
 10
-25.98444972019661
 20
58.5001017466509
 42
-0.4142135623730067
 10
-25.58444972019652
 20
58.10010174665058
 42
0.0
 10
-25.58444972019606
 20
55.12380871629648
 42
0.0
 10
-25.20042394437906
 20
55.12380871629648
 42
0.0
 10
-25.2004239443786
 20
58.1001017466508
 42
0.4142135623731134
 10
-26.00042394437833
 20
58.90010174665076
 42
0.0
 10
-28.97664914363259
 20
58.90010174665076
 42
0.0
 10
-28.97664914363259
 20
55.12380871629648
 42
0.0
 10
-28.57661522808212
 20
55.12380871629648
 42
0.0
 97
        1
330
BE9
 92
        7
 72
     0
 73
     1
 93
        4
 10
-24.57637781922995
 20
55.12380871629648
 10
-24.19231812786165
 20
55.12380871629648
 10
-24.19231812786165
 20
58.90010174665076
 10
-24.57637781922995
 20
58.90010174665076
 97
        1
330
BE8
 92
        7
 72
     0
 73
     1
 93
        4
 10
-24.19231812786165
 20
59.87619128370352
 10
-24.5763778192304
 20
59.87619128370352
 10
-24.5763778192304
 20
59.28412752246913
 10
-24.1923181278612
 20
59.28412752246913
 97
        1
330
C12
 92
        7
 72
     1
 73
     1
 93
       10
 10
-23.18424622689509
 20
58.5001017466509
 42
0.0
 10
-20.59204680345965
 20
58.5001017466509
 42
-0.4142135623730898
 10
-20.19204680345956
 20
58.1001017466508
 42
0.0
 10
-20.19204680345956
 20
55.12380871629648
 42
0.0
 10
-19.79201288790909
 20
55.12380871629648
 42
0.0
 10
-19.79201288790909
 20
58.1001017466508
 42
0.4142135623731547
 10
-20.59201288790928
 20
58.90010174665076
 42
0.0
 10
-23.56830591826338
 20
58.90010174665076
 42
0.0
 10
-23.56830591826338
 20
55.12380871629648
 42
0.0
 10
-23.18424622689463
 20
55.12380871629648
 42
0.0
 97
        1
330
BE7
 92
        7
 72
     1
 73
     1
 93
        8
 10
-19.1999120763262
 20
55.92680650071542
 42
0.4153115297271299
 10
-18.39991769304061
 20
55.12380871629648
 42
0.0
 10
-15.4236900118708
 20
55.12380871629648
 42
0.0
 10
-15.4236900118708
 20
59.87619128370352
 42
0.0
 10
-15.80771578768872
 20
59.87619128370352
 42
0.0
 10
-15.80771578768872
 20
58.90010174665076
 42
0.0
 10
-18.39176256411201
 20
58.90010174665076
 42
0.4131164467977965
 10
-19.19175694739761
 20
58.1030995310698
 42
0.0
 97
        1
330
BE6
 92
       22
 72
     1
 73
     1
 93
        6
 10
-18.79994912667462
 20
58.1001017466508
 42
-0.4142135623731575
 10
-18.39994912667453
 20
58.5001017466509
 42
0.0
 10
-15.80771578768872
 20
58.50010174665067
 42
0.0
 10
-15.80771578768827
 20
55.507868407665
 42
0.0
 10
-18.39994912667453
 20
55.507868407665
 42
-0.4142135623731731
 10
-18.79994912667462
 20
55.90786840766487
 42
0.0
 97
        1
330
BE5
 92
        7
 72
     1
 73
     1
 93
       12
 10
-14.79964388672215
 20
55.92380871629621
 42
0.4142135623729885
 10
-13.99964388672242
 20
55.12380871629648
 42
0.0
 10
-11.8233508563676
 20
55.12380871629648
 42
0.4142135623731289
 10
-11.02335085636741
 20
55.92380871629666
 42
0.0
 10
-11.02335085636741
 20
58.90010174665076
 42
0.0
 10
-11.42338477191788
 20
58.90010174665076
 42
0.0
 10
-11.42338477191788
 20
55.91567577726095
 42
-0.4131711701795319
 10
-11.82196067063523
 20
55.51567831234956
 42
0.0
 10
-14.01419400962095
 20
55.50787335710947
 42
-0.4152567234626918
 10
-14.41561811090378
 20
55.90787082202087
 42
0.0
 10
-14.41561811090378
 20
58.90010174665076
 42
0.0
 10
-14.7996438867226
 20
58.90010174665076
 42
0.0
 97
        1
330
BE4
 92
        7
 72
     1
 73
     1
 93
       20
 10
-7.423079531965413
 20
57.02796337120571
 42
-0.414213562373168
 10
-7.023079531965322
 20
56.62796337120562
 42
0.0
 10
-7.023079531965322
 20
55.90786840766487
 42
-0.4142135623731575
 10
-7.423079531965413
 20
55.507868407665
 42
0.0
 10
-10.41534678650168
 20
55.507868407665
 42
0.0
 10
-10.41534678650168
 20
55.12380871629648
 42
0.0
 10
-7.445787917283723
 20
55.12380871629648
 42
0.4114777732065809
 10
-6.645822882998345
 20
55.91632914939783
 42
0.0
 10
-6.639238813324936
 20
56.62051771985716
 42
0.4169546541682913
 10
-7.439203847610315
 20
57.42799728675596
 42
0.0
 10
-9.615312870951584
 20
57.42799728675596
 42
-0.4142135623729911
 10
-10.01531287095122
 20
57.82799728675581
 42
0.0
 10
-10.01531287095122
 20
58.10010174665103
 42
-0.414213562372991
 10
-9.615312870951584
 20
58.5001017466509
 42
0.0
 10
-6.92703069357276
 20
58.50010174665067
 42
0.0
 10
-6.927030693572305
 20
58.90010174665076
 42
0.0
 10
-9.615346786501959
 20
58.90010174665076
 42
0.4142135623730467
 10
-10.41534678650168
 20
58.10010174665103
 42
0.0
 10
-10.41534678650168
 20
57.82796337120544
 42
0.4142135623730301
 10
-9.615346786501959
 20
57.02796337120571
 42
0.0
 97
        1
330
BE3
 92
        7
 72
     1
 73
     1
 93
       12
 10
-5.21497371544865
 20
57.42799728675596
 42
0.4142135623730871
 10
-6.014973715448377
 20
56.627997286756
 42
0.0
 10
-6.014973715448377
 20
55.92380871629621
 42
0.4142135623730715
 10
-5.21497371544865
 20
55.12380871629648
 42
0.0
 10
-2.23871460064447
 20
55.12380871629648
 42
0.0
 10
-2.23871460064447
 20
58.10010174665058
 42
0.414213562373155
 10
-3.038714600644652
 20
58.90010174665076
 42
0.0
 10
-5.726962862471737
 20
58.90010174665076
 42
0.0
 10
-5.726962862472191
 20
58.5001017466509
 42
0.0
 10
-3.038748516194573
 20
58.5001017466509
 42
-0.4142135623730067
 10
-2.638748516194482
 20
58.10010174665058
 42
0.0
 10
-2.638748516194482
 20
57.42799728675596
 42
0.0
 97
        1
330
BE2
 92
       22
 72
     1
 73
     1
 93
        6
 10
-2.638748516194937
 20
57.02796337120571
 42
0.0
 10
-2.638748516194482
 20
55.50786840766477
 42
0.0
 10
-5.21497371544865
 20
55.507868407665
 42
-0.4142135623731731
 10
-5.614973715448741
 20
55.90786840766509
 42
0.0
 10
-5.614973715448741
 20
56.62796337120562
 42
-0.4142135623731576
 10
-5.21497371544865
 20
57.02796337120571
 42
0.0
 97
        1
330
C0D
 75
     0
 76
     1
 47
0.0407044778999864
 98
       13
 10
-34.18710075113677
 20
56.16907953933765
 10
-33.12851374392494
 20
56.49471602641233
 10
-33.12851374392494
 20
56.49471602641233
 10
-28.77202873835904
 20
57.51232930166111
 10
-24.41554807250941
 20
57.91937341678636
 10
-24.41554807250941
 20
59.384734621186
 10
-23.31624584658039
 20
58.3264175319116
 10
-19.04119127844888
 20
57.75655517324913
 10
-19.04119127844888
 20
57.75655517324913
 10
-14.64399105416578
 20
57.43091868617466
 10
-8.048195057457178
 20
57.22739662861204
 10
-4.017427461911665
 20
57.18669281458665
 10
-4.017427461911665
 20
57.18669281458665
  0
TEXT
  5
BED
330
B9E
100
AcDbEntity
  8
leg fin
100
AcDbText
 10
3.391127401597259
 20
2.107634911895729
 30
0.0
 40
1.5
  1
Este desenho é propriedade da Sanindusa, S.A., e não pode ser copiado nem divulgado sem nossa autorização.
 50
90.0
 41
0.8
  7
SANINDUSA
100
AcDbText
  0
LINE
  5
BEE
330
B9E
100
AcDbEntity
  8
3
100
AcDbLine
 10
-90.0
 20
4.0
 30
0.0
 11
-90.0
 21
12.0
 31
0.0
  0
TEXT
  5
BEF
330
B9E
100
AcDbEntity
  8
1
100
AcDbText
 10
-39.0
 20
9.25
 30
0.0
 40
2.0
  1
Substituido por:
 41
0.8
  7
SANINDUSA
 11
-39.0
 21
10.25
 31
0.0
100
AcDbText
 73
     2
  0
POINT
  5
BF0
330
B9E
100
AcDbEntity
  8
SANINDUSA
100
AcDbPoint
 10
0.0
 20
0.0
 30
0.0
  0
TEXT
  5
BF1
330
B9E
100
AcDbEntity
  8
1
100
AcDbText
 10
-89.0
 20
16.74927010445663
 30
0.0
 40
2.0
  1
Normas:
 41
0.8
  7
SANINDUSA
 11
-89.0
 21
17.74927010445663
 31
0.0
100
AcDbText
 73
     2
  0
LINE
  5
BF2
330
B9E
100
AcDbEntity
  8
3
100
AcDbLine
 10
-90.0
 20
12.0
 30
0.0
 11
-90.0
 21
20.0
 31
0.0
  0
LINE
  5
BF3
330
B9E
100
AcDbEntity
  8
3
100
AcDbLine
 10
-110.546019464768
 20
12.0
 30
0.0
 11
-110.546019464768
 21
20.0
 31
0.0
  0
TEXT
  5
BF4
330
B9E
100
AcDbEntity
  8
1
100
AcDbText
 10
-109.6177520618648
 20
17.25
 30
0.0
 40
2.0
  1
Cor:
 41
0.8
  7
SANINDUSA
 11
-109.6177520618648
 21
18.25
 31
0.0
100
AcDbText
 73
     2
  0
LINE
  5
BF5
330
B9E
100
AcDbEntity
  8
leg fin
100
AcDbLine
 10
-91.42857142857156
 20
20.0
 30
0.0
 11
-91.42857142857156
 21
28.5
 31
0.0
  0
LINE
  5
BF6
330
B9E
100
AcDbEntity
  8
leg fin
100
AcDbLine
 10
-104.2857142857142
 20
20.0
 30
0.0
 11
-104.2857142857142
 21
28.5
 31
0.0
  0
LINE
  5
BF7
330
B9E
100
AcDbEntity
  8
leg fin
100
AcDbLine
 10
-117.1428571428573
 20
20.0
 30
0.0
 11
-117.1428571428573
 21
28.5
 31
0.0
  0
POINT
  5
BF8
330
B9E
100
AcDbEntity
  8
SANINDUSA
100
AcDbPoint
 10
-117.1428571428573
 20
28.5
 30
0.0
  0
POINT
  5
BF9
330
B9E
100
AcDbEntity
  8
SANINDUSA
100
AcDbPoint
 10
-104.2857142857142
 20
28.5
 30
0.0
  0
POINT
  5
BFA
330
B9E
100
AcDbEntity
  8
SANINDUSA
100
AcDbPoint
 10
-91.42857142857156
 20
28.5
 30
0.0
  0
TEXT
  5
BFB
330
B9E
100
AcDbEntity
  8
1
100
AcDbText
 10
-116.200160604496
 20
26.43288406845113
 30
0.0
 40
1.5
  1
Nº Seq.:
 41
0.8
  7
SANINDUSA
 11
-116.200160604496
 21
27.18288406845113
 31
0.0
100
AcDbText
 73
     2
  0
TEXT
  5
BFC
330
B9E
100
AcDbEntity
  8
1
100
AcDbText
 10
-103.2106584078738
 20
26.43288406845113
 30
0.0
 40
1.5
  1
Tipo:
 41
0.8
  7
SANINDUSA
 11
-103.2106584078738
 21
27.18288406845113
 31
0.0
100
AcDbText
 73
     2
  0
TEXT
  5
BFD
330
B9E
100
AcDbEntity
  8
1
100
AcDbText
 10
-90.22114672289353
 20
26.43288406845113
 30
0.0
 40
1.5
  1
Prod.:
 41
0.8
  7
SANINDUSA
 11
-90.22114672289353
 21
27.18288406845113
 31
0.0
100
AcDbText
 73
     2
  0
TEXT
  5
BFE
330
B9E
100
AcDbEntity
  8
1
100
AcDbText
 10
-64.77320576346574
 20
26.43288406845113
 30
0.0
 40
1.5
  1
Rev.:
 41
0.8
  7
SANINDUSA
 11
-64.77320576346574
 21
27.18288406845113
 31
0.0
100
AcDbText
 73
     2
  0
LINE
  5
BFF
330
B9E
100
AcDbEntity
  8
leg fin
100
AcDbLine
 10
-52.85714285714266
 20
20.0
 30
0.0
 11
-52.85714285714266
 21
28.5
 31
0.0
  0
LINE
  5
C00
330
B9E
100
AcDbEntity
  8
leg fin
100
AcDbLine
 10
-65.71428571428578
 20
20.0
 30
0.0
 11
-65.71428571428578
 21
28.5
 31
0.0
  0
LINE
  5
C01
330
B9E
100
AcDbEntity
  8
leg fin
100
AcDbLine
 10
-78.57142857142844
 20
20.0
 30
0.0
 11
-78.57142857142844
 21
28.5
 31
0.0
  0
POINT
  5
C02
330
B9E
100
AcDbEntity
  8
SANINDUSA
100
AcDbPoint
 10
-78.57142857142844
 20
28.5
 30
0.0
  0
POINT
  5
C03
330
B9E
100
AcDbEntity
  8
SANINDUSA
100
AcDbPoint
 10
-65.71428571428578
 20
28.5
 30
0.0
  0
POINT
  5
C04
330
B9E
100
AcDbEntity
  8
SANINDUSA
100
AcDbPoint
 10
-52.85714285714266
 20
28.5
 30
0.0
  0
TEXT
  5
C05
330
B9E
100
AcDbEntity
  8
1
100
AcDbText
 10
-77.61097961686573
 20
26.43288406845113
 30
0.0
 40
1.5
  1
Peça:
 41
0.8
  7
SANINDUSA
 11
-77.61097961686573
 21
27.18288406845113
 31
0.0
100
AcDbText
 73
     2
  0
TEXT
  5
C06
330
B9E
100
AcDbEntity
  8
1
100
AcDbText
 10
-52.06538060077036
 20
26.43288406845113
 30
0.0
 40
1.5
  1
Alt.:
 41
0.8
  7
SANINDUSA
 11
-52.06538060077036
 21
27.18288406845113
 31
0.0
100
AcDbText
 73
     2
  0
LINE
  5
C07
330
B9E
100
AcDbEntity
  8
3
100
AcDbLine
 10
0.0
 20
12.0
 30
0.0
 11
-40.0
 21
12.0
 31
0.0
  0
LINE
  5
C08
330
B9E
100
AcDbEntity
  8
3
100
AcDbLine
 10
-40.0
 20
32.5
 30
0.0
 11
0.0
 21
32.5
 31
0.0
  0
TEXT
  5
C09
330
B9E
100
AcDbEntity
  8
1
100
AcDbText
 10
-19.0
 20
29.75
 30
0.0
 40
2.0
  1
Folha:
 41
0.8
  7
SANINDUSA
 11
-19.0
 21
30.75
 31
0.0
100
AcDbText
 73
     2
  0
LINE
  5
C0A
330
B9E
100
AcDbEntity
  8
3
100
AcDbLine
 10
-20.0
 20
32.5
 30
0.0
 11
-20.0
 21
20.0
 31
0.0
  0
TEXT
  5
C0B
330
B9E
100
AcDbEntity
  8
1
100
AcDbText
 10
-39.0
 20
29.75
 30
0.0
 40
2.0
  1
Escala:
 41
0.8
  7
SANINDUSA
 11
-39.0
 21
30.75
 31
0.0
100
AcDbText
 73
     2
  0
TEXT
  5
C0C
330
B9E
100
AcDbEntity
  8
1
100
AcDbText
 10
-39.0
 20
17.25
 30
0.0
 40
2.0
  1
Substitui:
 41
0.8
  7
SANINDUSA
 11
-39.0
 21
18.25
 31
0.0
100
AcDbText
 73
     2
  0
LWPOLYLINE
  5
C0D
102
{ACAD_REACTORS
330
BEC
102
}
330
B9E
100
AcDbEntity
  8
9
100
AcDbPolyline
 90
        6
 70
     1
 43
0.0
 10
-2.638748516194482
 20
57.02796337120571
 10
-2.638748516194482
 20
55.50786840766477
 10
-5.21497371544865
 20
55.507868407665
 42
-0.4142135623730898
 10
-5.614973715448741
 20
55.90786840766487
 10
-5.614973715448741
 20
56.62796337120562
 42
-0.4142135623731576
 10
-5.21497371544865
 20
57.02796337120571
  0
LINE
  5
C0E
330
B9E
100
AcDbEntity
  8
3
100
AcDbLine
 10
-40.0
 20
50.0
 30
0.0
 11
0.0
 21
50.0
 31
0.0
  0
ATTDEF
  5
C0F
330
B9E
100
AcDbEntity
  8
1
100
AcDbText
 10
-31.30691739422431
 20
40.25
 30
0.0
 40
2.0
  1
XXXXXXXXXXXXXXX
 41
0.8
  7
SANINDUSA
 72
     4
 11
-20.0
 21
41.25
 31
0.0
100
AcDbAttributeDefinition
  3
Observações:
  2
OBS
 70
     0
  0
TEXT
  5
C10
330
B9E
100
AcDbEntity
  8
1
100
AcDbText
 10
-39.0
 20
47.25
 30
0.0
 40
2.0
  1
Observações:
 41
0.8
  7
SANINDUSA
 11
-39.0
 21
48.25
 31
0.0
100
AcDbText
 73
     2
  0
LWPOLYLINE
  5
C11
102
{ACAD_REACTORS
330
BEC
102
}
330
B9E
100
AcDbEntity
  8
9
100
AcDbPolyline
 90
        6
 70
     1
 43
0.0
 10
-29.98468712904878
 20
57.02796337120571
 10
-29.98468712904878
 20
55.507868407665
 10
-32.57692046803459
 20
55.507868407665
 42
-0.4142135623731731
 10
-32.97692046803468
 20
55.90786840766487
 10
-32.97692046803468
 20
56.62796337120562
 42
-0.4142135623731576
 10
-32.57692046803459
 20
57.02796337120571
  0
LWPOLYLINE
  5
C12
102
{ACAD_REACTORS
330
BEC
102
}
330
B9E
100
AcDbEntity
  8
9
100
AcDbPolyline
 90
        4
 70
     1
 43
0.0
 10
-24.19231812786165
 20
59.87619128370352
 10
-24.57637781922995
 20
59.87619128370352
 10
-24.57637781922995
 20
59.28412752246913
 10
-24.19231812786165
 20
59.28412752246913
  0
ENDBLK
  5
C14
330
B9E
100
AcDbEntity
  8
0
100
AcDbBlockEnd
  0
ENDSEC
  0
SECTION
  2
ENTITIES
  0
LINE
  5
16F9
330
1F
100
AcDbEntity
  8
SANINDUSA
100
AcDbLine
 10
4686.613196683609
 20
2501.673895110393
 30
0.0
 11
4686.613936138832
 21
2501.665443112159
 31
0.0
  0
LINE
  5
16FA
330
1F
100
AcDbEntity
  8
SANINDUSA
100
AcDbLine
 10
4686.684255594415
 20
2501.665443112159
 30
0.0
 11
4686.684995048707
 21
2501.673895110393
 31
0.0
  0
ARC
  5
16FB
330
1F
100
AcDbEntity
  8
SANINDUSA
100
AcDbCircle
 10
4686.68226320501
 20
2501.665617422236
 30
0.0
 40
0.0020000000000002
100
AcDbArc
 50
270.0
 51
355.0000000037089
  0
ARC
  5
16FC
330
1F
100
AcDbEntity
  8
SANINDUSA
100
AcDbCircle
 10
4686.615928529707
 20
2501.665617422236
 30
0.0
 40
0.0020000000000001
100
AcDbArc
 50
184.9999999962911
 51
270.0
  0
LINE
  5
16FF
330
1F
100
AcDbEntity
  8
SANINDUSA
100
AcDbLine
 10
4686.884095860206
 20
2501.873895113373
 30
0.0
 11
4686.909095866167
 21
2501.873895113373
 31
0.0
  0
ARC
  5
1700
330
1F
100
AcDbEntity
  8
SANINDUSA
100
AcDbCircle
 10
4686.909095867359
 20
2501.868895113374
 30
0.0
 40
0.005
100
AcDbArc
 50
0.0
 51
90.0
  0
LINE
  5
1703
330
1F
100
AcDbEntity
  8
SANINDUSA
100
AcDbLine
 10
4686.494095874512
 20
2501.873895113373
 30
0.0
 11
4686.884095860206
 21
2501.873895113373
 31
0.0
  0
LINE
  5
1704
330
1F
100
AcDbEntity
  8
SANINDUSA
100
AcDbLine
 10
4686.469095868551
 20
2501.873895113373
 30
0.0
 11
4686.494095874512
 21
2501.873895113373
 31
0.0
  0
ARC
  5
1706
330
1F
100
AcDbEntity
  8
SANINDUSA
100
AcDbCircle
 10
4686.469095867359
 20
2501.868895113374
 30
0.0
 40
0.005
100
AcDbArc
 50
90.0
 51
180.0
  0
ARC
  5
1708
330
1F
100
AcDbEntity
  8
SANINDUSA
100
AcDbCircle
 10
4686.910095867359
 20
2501.677895113373
 30
0.0
 40
0.0040000000000001
100
AcDbArc
 50
270.0
 51
0.0
  0
LINE
  5
1709
330
1F
100
AcDbEntity
  8
SANINDUSA
100
AcDbLine
 10
4686.910095868194
 20
2501.673895110393
 30
0.0
 11
4686.884095860206
 21
2501.673895110393
 31
0.0
  0
LINE
  5
170C
330
1F
100
AcDbEntity
  8
SANINDUSA
100
AcDbLine
 10
4686.464095873319
 20
2501.677895118499
 30
0.0
 11
4686.464095873319
 21
2501.868895113485
 31
0.0
  0
LINE
  5
170F
330
1F
100
AcDbEntity
  8
SANINDUSA
100
AcDbLine
 10
4686.914095861399
 20
2501.868895113485
 30
0.0
 11
4686.914095861399
 21
2501.677895118499
 31
0.0
  0
LINE
  5
1711
330
1F
100
AcDbEntity
  8
SANINDUSA
100
AcDbLine
 10
4686.494095874512
 20
2501.673895110393
 30
0.0
 11
4686.468095866525
 21
2501.673895110393
 31
0.0
  0
ARC
  5
1712
330
1F
100
AcDbEntity
  8
SANINDUSA
100
AcDbCircle
 10
4686.468095867359
 20
2501.677895113373
 30
0.0
 40
0.0040000000000001
100
AcDbArc
 50
180.0
 51
270.0
  0
LINE
  5
1714
330
1F
100
AcDbEntity
  8
SANINDUSA
100
AcDbLine
 10
4686.884095860206
 20
2501.673895110393
 30
0.0
 11
4686.494095874512
 21
2501.673895110393
 31
0.0
  0
LINE
  5
1715
330
1F
100
AcDbEntity
  8
SANINDUSA
100
AcDbLine
 10
4686.682263204855
 20
2501.66361742189
 30
0.0
 11
4686.615928528392
 21
2501.66361742189
 31
0.0
  0
LINE
  5
1716
330
1F
100
AcDbEntity
  8
SANINDUSA
100
AcDbLine
 10
4686.613936138832
 20
2501.665443112159
 30
0.0
 11
4686.684255594415
 21
2501.665443112159
 31
0.0
  0
LINE
  5
1717
330
1F
100
AcDbEntity
  8
SANINDUSA
100
AcDbLine
 10
4686.117972502672
 20
2501.673895110393
 30
0.0
 11
4686.118711957895
 21
2501.665443112159
 31
0.0
  0
LINE
  5
1718
330
1F
100
AcDbEntity
  8
SANINDUSA
100
AcDbLine
 10
4686.189031409287
 20
2501.665443112159
 30
0.0
 11
4686.18975585159
 21
2501.67372349372
 31
0.0
  0
ARC
  5
1719
330
1F
100
AcDbEntity
  8
SANINDUSA
100
AcDbCircle
 10
4686.187039021244
 20
2501.665617422236
 30
0.0
 40
0.0020000000000001
100
AcDbArc
 50
270.0
 51
355.0000000037089
  0
ARC
  5
171A
330
1F
100
AcDbEntity
  8
SANINDUSA
100
AcDbCircle
 10
4686.12070434594
 20
2501.665617422236
 30
0.0
 40
0.0020000000000001
100
AcDbArc
 50
184.9999999962911
 51
270.0
  0
ARC
  5
171B
330
1F
100
AcDbEntity
  8
SANINDUSA
100
AcDbCircle
 10
4686.194738356793
 20
2501.673305237544
 30
0.0
 40
0.005
100
AcDbArc
 50
173.2247419957535
 51
175.1667551326606
  0
LINE
  5
171F
330
1F
100
AcDbEntity
  8
SANINDUSA
100
AcDbLine
 10
4686.278871683591
 20
2501.868895113485
 30
0.0
 11
4686.278871683591
 21
2501.677895118499
 31
0.0
  0
ARC
  5
1720
330
1F
100
AcDbEntity
  8
SANINDUSA
100
AcDbCircle
 10
4686.274871683592
 20
2501.677895113373
 30
0.0
 40
0.0040000000000001
100
AcDbArc
 50
270.0
 51
0.0
  0
LINE
  5
1721
330
1F
100
AcDbEntity
  8
SANINDUSA
100
AcDbLine
 10
4686.274871682935
 20
2501.673895110393
 30
0.0
 11
4686.248871682399
 21
2501.673895110393
 31
0.0
  0
LINE
  5
1723
330
1F
100
AcDbEntity
  8
SANINDUSA
100
AcDbLine
 10
4686.248871682399
 20
2501.873895113373
 30
0.0
 11
4686.273871680909
 21
2501.873895113373
 31
0.0
  0
ARC
  5
1724
330
1F
100
AcDbEntity
  8
SANINDUSA
100
AcDbCircle
 10
4686.273871683591
 20
2501.868895113374
 30
0.0
 40
0.005
100
AcDbArc
 50
0.0
 51
90.0
  0
LINE
  5
1727
330
1F
100
AcDbEntity
  8
SANINDUSA
100
AcDbLine
 10
4686.248871682399
 20
2501.673895110393
 30
0.0
 11
4686.058871684783
 21
2501.673895110393
 31
0.0
  0
LINE
  5
172B
330
1F
100
AcDbEntity
  8
SANINDUSA
100
AcDbLine
 10
4686.058871684783
 20
2501.873895113373
 30
0.0
 11
4686.248871682399
 21
2501.873895113373
 31
0.0
  0
LINE
  5
172E
330
1F
100
AcDbEntity
  8
SANINDUSA
100
AcDbLine
 10
4686.028871683591
 20
2501.677895118499
 30
0.0
 11
4686.028871683591
 21
2501.868895113485
 31
0.0
  0
ARC
  5
1730
330
1F
100
AcDbEntity
  8
SANINDUSA
100
AcDbCircle
 10
4686.033871683591
 20
2501.868895113374
 30
0.0
 40
0.0050000000000001
100
AcDbArc
 50
90.0
 51
180.0
  0
LINE
  5
1731
330
1F
100
AcDbEntity
  8
SANINDUSA
100
AcDbLine
 10
4686.033871686273
 20
2501.873895113373
 30
0.0
 11
4686.058871684783
 21
2501.873895113373
 31
0.0
  0
LINE
  5
1732
330
1F
100
AcDbEntity
  8
SANINDUSA
100
AcDbLine
 10
4686.058871684783
 20
2501.673895110393
 30
0.0
 11
4686.032871684246
 21
2501.673895110393
 31
0.0
  0
ARC
  5
1733
330
1F
100
AcDbEntity
  8
SANINDUSA
100
AcDbCircle
 10
4686.032871683591
 20
2501.677895113373
 30
0.0
 40
0.0040000000000001
100
AcDbArc
 50
180.0
 51
270.0
  0
LINE
  5
1734
330
1F
100
AcDbEntity
  8
SANINDUSA
100
AcDbLine
 10
4686.187039019727
 20
2501.66361742189
 30
0.0
 11
4686.120704347454
 21
2501.66361742189
 31
0.0
  0
LINE
  5
1735
330
1F
100
AcDbEntity
  8
SANINDUSA
100
AcDbLine
 10
4686.278871683591
 20
2501.864143341796
 30
0.0
 11
4686.278871683591
 21
2501.863755268062
 31
0.0
  0
LWPOLYLINE
  5
173B
330
1F
100
AcDbEntity
  8
SANINDUSA
100
AcDbPolyline
 90
        3
 70
   128
 43
0.0
 10
4685.604354630669
 20
2501.877639066806
 10
4685.604430715998
 20
2501.877604101232
 10
4685.604419664924
 20
2501.877614889672
  0
LINE
  5
173E
330
1F
100
AcDbEntity
  8
SANINDUSA
100
AcDbLine
 10
4685.439208521952
 20
2501.910499725869
 30
0.0
 11
4685.829208507647
 21
2501.910499725869
 31
0.0
  0
ARC
  5
1744
330
1F
100
AcDbEntity
  8
SANINDUSA
100
AcDbCircle
 10
4685.439208514799
 20
2501.880499725869
 30
0.0
 40
0.03
100
AcDbArc
 50
90.0
 51
180.0
  0
ARC
  5
1746
330
1F
100
AcDbEntity
  8
SANINDUSA
100
AcDbCircle
 10
4685.829208514799
 20
2501.880499725869
 30
0.0
 40
0.03
100
AcDbArc
 50
0.0
 51
90.0
  0
ELLIPSE
  5
1757
330
1F
100
AcDbEntity
  8
SANINDUSA
100
AcDbEllipse
 10
4685.743486994062
 20
2501.874778205132
 30
0.0
 11
0.0037265473330396
 21
0.0037265473330399
 31
0.0
210
0.0
220
0.0
230
1.0
 40
0.9487425195398841
 41
5.506763774939903
 42
7.059606839419236
  0
LINE
  5
1759
330
1F
100
AcDbEntity
  8
SANINDUSA
100
AcDbLine
 10
4685.743668153395
 20
2501.879914280405
 30
0.0
 11
4685.444748877992
 21
2501.879914280405
 31
0.0
  0
ELLIPSE
  5
175B
330
1F
100
AcDbEntity
  8
SANINDUSA
100
AcDbEllipse
 10
4685.444930035536
 20
2501.874778205132
 30
0.0
 11
0.0037265473330399
 21
-0.0037265473330399
 31
0.0
210
0.0
220
0.0
230
1.0
 40
0.9487425195398481
 41
2.365171121350126
 42
3.918014185829487
  0
LINE
  5
175E
330
1F
100
AcDbEntity
  8
SANINDUSA
100
AcDbLine
 10
4685.40920852076
 20
2501.690499727061
 30
0.0
 11
4685.40920852076
 21
2501.880499724677
 31
0.0
  0
LINE
  5
1762
330
1F
100
AcDbEntity
  8
SANINDUSA
100
AcDbLine
 10
4685.85920850884
 20
2501.880499724677
 30
0.0
 11
4685.85920850884
 21
2501.690499727061
 31
0.0
  0
LINE
  5
1766
330
1F
100
AcDbEntity
  8
SANINDUSA
100
AcDbLine
 10
4685.439793958773
 20
2501.874959361186
 30
0.0
 11
4685.439793958773
 21
2501.696040090552
 31
0.0
  0
LINE
  5
1769
330
1F
100
AcDbEntity
  8
SANINDUSA
100
AcDbLine
 10
4685.748623065164
 20
2501.696040090552
 30
0.0
 11
4685.748623065164
 21
2501.874959361186
 31
0.0
  0
CIRCLE
  5
176A
330
1F
100
AcDbEntity
  8
SANINDUSA
100
AcDbCircle
 10
4685.8042085148
 20
2501.785499725869
 30
0.0
 40
0.0174999999999999
  0
ELLIPSE
  5
176C
330
1F
100
AcDbEntity
  8
SANINDUSA
100
AcDbEllipse
 10
4685.743486994062
 20
2501.696221246606
 30
0.0
 11
-0.0037265473330402
 21
0.00372654733304
 31
0.0
210
0.0
220
0.0
230
1.0
 40
0.9487425195397934
 41
2.365171121350041
 42
3.918014185829486
  0
ELLIPSE
  5
176D
330
1F
100
AcDbEntity
  8
SANINDUSA
100
AcDbEllipse
 10
4685.444930035536
 20
2501.696221246606
 30
0.0
 11
0.0037265473330399
 21
0.00372654733304
 31
0.0
210
0.0
220
0.0
230
1.0
 40
0.948742519539811
 41
2.365171121350075
 42
3.918014185829501
  0
LINE
  5
176F
330
1F
100
AcDbEntity
  8
SANINDUSA
100
AcDbLine
 10
4685.444748877992
 20
2501.691085171332
 30
0.0
 11
4685.743668153395
 21
2501.691085171332
 31
0.0
  0
ARC
  5
1771
330
1F
100
AcDbEntity
  8
SANINDUSA
100
AcDbCircle
 10
4685.439208514799
 20
2501.690499725869
 30
0.0
 40
0.0300000000000001
100
AcDbArc
 50
180.0
 51
270.0
  0
ARC
  5
1772
330
1F
100
AcDbEntity
  8
SANINDUSA
100
AcDbCircle
 10
4685.829208514799
 20
2501.690499725869
 30
0.0
 40
0.0300000000000001
100
AcDbArc
 50
270.0
 51
0.0
  0
LINE
  5
1774
330
1F
100
AcDbEntity
  8
SANINDUSA
100
AcDbLine
 10
4685.829208507647
 20
2501.660499725869
 30
0.0
 11
4685.439208521952
 21
2501.660499725869
 31
0.0
  0
LINE
  5
1776
330
1F
100
AcDbEntity
  8
SANINDUSA
100
AcDbLine
 10
4685.748623065164
 20
2501.874959361186
 30
0.0
 11
4685.728158108403
 21
2501.854494404426
 31
0.0
  0
ARC
  5
1777
330
1F
100
AcDbEntity
  8
SANINDUSA
100
AcDbCircle
 10
4685.723094423633
 20
2501.854385631261
 30
0.0
 40
0.0050648529149048
100
AcDbArc
 50
1.230583108490693
 51
88.76950304954515
  0
LINE
  5
1778
330
1F
100
AcDbEntity
  8
SANINDUSA
100
AcDbLine
 10
4685.723203189184
 20
2501.859449316194
 30
0.0
 11
4685.743668153395
 21
2501.879914280405
 31
0.0
  0
LINE
  5
1779
330
1F
100
AcDbEntity
  8
SANINDUSA
100
AcDbLine
 10
4685.444748877992
 20
2501.879914280405
 30
0.0
 11
4685.465213834753
 21
2501.859449316194
 31
0.0
  0
ARC
  5
177A
330
1F
100
AcDbEntity
  8
SANINDUSA
100
AcDbCircle
 10
4685.465322615775
 20
2501.854385631017
 30
0.0
 40
0.0050648534907652
100
AcDbArc
 50
91.23067187255513
 51
178.7694142854807
  0
LINE
  5
177B
330
1F
100
AcDbEntity
  8
SANINDUSA
100
AcDbLine
 10
4685.460258930435
 20
2501.854494404426
 30
0.0
 11
4685.439793958773
 21
2501.874959361186
 31
0.0
  0
LINE
  5
177C
330
1F
100
AcDbEntity
  8
SANINDUSA
100
AcDbLine
 10
4685.743668153395
 20
2501.691085171332
 30
0.0
 11
4685.723203189184
 21
2501.711550135544
 31
0.0
  0
ARC
  5
177D
330
1F
100
AcDbEntity
  8
SANINDUSA
100
AcDbCircle
 10
4685.723094423633
 20
2501.716613820477
 30
0.0
 40
0.0050648529148967
100
AcDbArc
 50
271.2304969504549
 51
358.7694168915093
  0
LINE
  5
177E
330
1F
100
AcDbEntity
  8
SANINDUSA
100
AcDbLine
 10
4685.728158108403
 20
2501.716505047312
 30
0.0
 11
4685.748623065164
 21
2501.696040090552
 31
0.0
  0
LINE
  5
177F
330
1F
100
AcDbEntity
  8
SANINDUSA
100
AcDbLine
 10
4685.439793958773
 20
2501.696040090552
 30
0.0
 11
4685.460258930435
 21
2501.716505047312
 31
0.0
  0
ARC
  5
1780
330
1F
100
AcDbEntity
  8
SANINDUSA
100
AcDbCircle
 10
4685.465322615775
 20
2501.71661382072
 30
0.0
 40
0.0050648534907567
100
AcDbArc
 50
181.2305857145193
 51
268.7693281274449
  0
LINE
  5
1781
330
1F
100
AcDbEntity
  8
SANINDUSA
100
AcDbLine
 10
4685.465213834753
 20
2501.711550135544
 30
0.0
 11
4685.444748877992
 21
2501.691085171332
 31
0.0
  0
LWPOLYLINE
  5
1782
330
1F
100
AcDbEntity
  8
SANINDUSA
100
AcDbPolyline
 90
        4
 70
   128
 43
0.0
 10
4685.465213834753
 20
2501.859449316194
 10
4685.574694349875
 20
2501.859407920769
 10
4685.648948980939
 20
2501.859414410224
 10
4685.723203189184
 20
2501.859449316194
  0
ARC
  5
1783
330
1F
100
AcDbEntity
  8
SANINDUSA
100
AcDbCircle
 10
4685.596047212274
 20
2501.844180358304
 30
0.0
 40
0.0344926060427703
100
AcDbArc
 50
75.26843832462557
 51
93.05571322036911
  0
ARC
  5
1784
330
1F
100
AcDbEntity
  8
SANINDUSA
100
AcDbCircle
 10
4685.594358775716
 20
2501.934284598287
 30
0.0
 40
0.0586178215161369
100
AcDbArc
 50
259.9016500743246
 51
279.314768012822
  0
ARC
  5
1785
330
1F
100
AcDbEntity
  8
SANINDUSA
100
AcDbCircle
 10
4685.594107730577
 20
2501.803497890858
 30
0.0
 40
0.0751260985482375
100
AcDbArc
 50
89.9231350753404
 51
93.28359166701686
  0
LWPOLYLINE
  5
1786
330
1F
100
AcDbEntity
  8
SANINDUSA
100
AcDbPolyline
 90
        4
 70
   128
 43
0.0
 10
4685.728158108403
 20
2501.854494404426
 10
4685.728135592749
 20
2501.790759439958
 10
4685.72814022701
 20
2501.753632136067
 10
4685.728158108403
 20
2501.716505047312
  0
LWPOLYLINE
  5
1787
330
1F
100
AcDbEntity
  8
SANINDUSA
100
AcDbPolyline
 90
        4
 70
   128
 43
0.0
 10
4685.460258930435
 20
2501.716505047312
 10
4685.460281446089
 20
2501.780240011779
 10
4685.460276796927
 20
2501.81736731567
 10
4685.460258930435
 20
2501.854494404426
  0
LWPOLYLINE
  5
1788
330
1F
100
AcDbEntity
  8
SANINDUSA
100
AcDbPolyline
 90
        4
 70
   128
 43
0.0
 10
4685.723203189184
 20
2501.711550135544
 10
4685.613722681512
 20
2501.711591530969
 10
4685.539468049516
 20
2501.711585041514
 10
4685.465213834753
 20
2501.711550135544
  0
LWPOLYLINE
  5
1795
330
1F
100
AcDbEntity
  8
SANINDUSA
100
AcDbPolyline
 90
       39
 70
   128
 43
0.0
 10
4685.594208515694
 20
2501.749499727419
 10
4685.599395300706
 20
2501.749891683838
 10
4685.604466622208
 20
2501.751048557839
 10
4685.609895653536
 20
2501.75324013122
 10
4685.614890198667
 20
2501.756295491388
 10
4685.619361485799
 20
2501.760186979925
 10
4685.623135303591
 20
2501.764758630102
 10
4685.626149200348
 20
2501.769985417282
 10
4685.628261513521
 20
2501.775637494778
 10
4685.62941219283
 20
2501.781637200998
 10
4685.62955173196
 20
2501.787744775094
 10
4685.628655616173
 20
2501.793817726342
 10
4685.626758996376
 20
2501.79965584111
 10
4685.623902103377
 20
2501.805083817249
 10
4685.620174436343
 20
2501.809954446188
 10
4685.61570076037
 20
2501.814087273931
 10
4685.61059222508
 20
2501.817402556917
 10
4685.605073544642
 20
2501.819753371557
 10
4685.599236227085
 20
2501.821133721998
 10
4685.593354198595
 20
2501.821485426655
 10
4685.587496574481
 20
2501.820844836911
 10
4685.581875606884
 20
2501.819234718015
 10
4685.576597604414
 20
2501.816718178248
 10
4685.571772314122
 20
2501.813327653712
 10
4685.567567288389
 20
2501.809192201501
 10
4685.56404679965
 20
2501.804331805935
 10
4685.561372398843
 20
2501.798958680039
 10
4685.559606998672
 20
2501.793129544152
 10
4685.558830745032
 20
2501.787088386161
 10
4685.559083461274
 20
2501.780959940894
 10
4685.560353278627
 20
2501.774959305679
 10
4685.562622159233
 20
2501.769255126273
 10
4685.56581448715
 20
2501.76401212663
 10
4685.569834507515
 20
2501.759411869949
 10
4685.574573520084
 20
2501.755557215219
 10
4685.579837128034
 20
2501.752611797681
 10
4685.585524111499
 20
2501.750602916261
 10
4685.589831582715
 20
2501.749777935823
 10
4685.594208515694
 20
2501.749499727419
  0
CIRCLE
  5
1796
330
1F
100
AcDbEntity
  8
SANINDUSA
100
AcDbCircle
 10
4685.5942085148
 20
2501.785499725869
 30
0.0
 40
0.0235
  0
LWPOLYLINE
  5
1797
330
1F
100
AcDbEntity
  8
SANINDUSA
100
AcDbPolyline
 90
        8
 70
   128
 43
0.0
 10
4685.604818362256
 20
2501.877539117267
 10
4685.604978439843
 20
2501.877449933818
 10
4685.605182870736
 20
2501.877250653138
 10
4685.605182870736
 20
2501.877049494913
 10
4685.604978439843
 20
2501.876850206783
 10
4685.604573385304
 20
2501.876656506589
 10
4685.603975252693
 20
2501.876472007861
 10
4685.603846549501
 20
2501.876439709594
  0
LWPOLYLINE
  5
1798
330
1F
100
AcDbEntity
  8
SANINDUSA
100
AcDbPolyline
 90
       13
 70
   128
 43
0.0
 10
4685.584080822279
 20
2501.876574870577
 10
4685.583843644222
 20
2501.876656506589
 10
4685.583438589683
 20
2501.876850206783
 10
4685.583234156927
 20
2501.877049494913
 10
4685.583234156927
 20
2501.877250653138
 10
4685.583438589683
 20
2501.877449933818
 10
4685.583843644222
 20
2501.877643634012
 10
4685.584441776832
 20
2501.87782814019
 10
4685.58522184517
 20
2501.878000010183
 10
4685.586169320603
 20
2501.878156047693
 10
4685.587266548981
 20
2501.878293354443
 10
4685.588493089636
 20
2501.878409352532
 10
4685.589804648866
 20
2501.878500651946
  0
LINE
  5
179B
330
1F
100
AcDbEntity
  8
SANINDUSA
100
AcDbLine
 10
4687.315450893012
 20
2501.701899935508
 30
0.0
 11
4687.342534401683
 21
2501.703579043055
 31
0.0
  0
ARC
  5
179C
330
1F
100
AcDbEntity
  8
SANINDUSA
100
AcDbCircle
 10
4687.315685976406
 20
2501.696905461619
 30
0.0
 40
0.005
100
AcDbArc
 50
92.69483357709958
 51
175.0000000037089
  0
LINE
  5
179D
330
1F
100
AcDbEntity
  8
SANINDUSA
100
AcDbLine
 10
4687.237594825445
 20
2501.665443112159
 30
0.0
 11
4687.236868852047
 21
2501.673741017485
 31
0.0
  0
LINE
  5
179E
330
1F
100
AcDbEntity
  8
SANINDUSA
100
AcDbLine
 10
4687.310705003557
 20
2501.697341238165
 30
0.0
 11
4687.307914276837
 21
2501.665443112159
 31
0.0
  0
LINE
  5
179F
330
1F
100
AcDbEntity
  8
SANINDUSA
100
AcDbLine
 10
4687.296254550336
 20
2501.700751339102
 30
0.0
 11
4687.249254551946
 21
2501.700751339102
 31
0.0
  0
LINE
  5
17A0
330
1F
100
AcDbEntity
  8
SANINDUSA
100
AcDbLine
 10
4687.249254551946
 20
2501.700751339102
 30
0.0
 11
4687.23675455269
 21
2501.711617414857
 31
0.0
  0
ARC
  5
17A1
330
1F
100
AcDbEntity
  8
SANINDUSA
100
AcDbCircle
 10
4687.27275455114
 20
2502.979474317001
 30
0.0
 40
1.26836789781309
100
AcDbArc
 50
268.3735594021578
 51
271.6264405978423
  0
LINE
  5
17A2
330
1F
100
AcDbEntity
  8
SANINDUSA
100
AcDbLine
 10
4687.308754549591
 20
2501.711617414857
 30
0.0
 11
4687.296254550336
 21
2501.700751339102
 31
0.0
  0
LINE
  5
17A3
330
1F
100
AcDbEntity
  8
SANINDUSA
100
AcDbLine
 10
4687.149414398937
 20
2501.859599708597
 30
0.0
 11
4687.17148526129
 21
2501.69636011591
 31
0.0
  0
ARC
  5
17A4
330
1F
100
AcDbEntity
  8
SANINDUSA
100
AcDbCircle
 10
4687.14644145078
 20
2501.85919775032
 30
0.0
 40
0.0029999999999996
100
AcDbArc
 50
7.700000008962316
 51
40.62261908314206
  0
ARC
  5
17A5
330
1F
100
AcDbEntity
  8
SANINDUSA
100
AcDbCircle
 10
4687.15175455114
 20
2501.863755267687
 30
0.0
 40
0.0040000000000003
100
AcDbArc
 50
180.0
 51
220.6226190831421
  0
LINE
  5
17A6
330
1F
100
AcDbEntity
  8
SANINDUSA
100
AcDbLine
 10
4687.147754551141
 20
2501.863755268062
 30
0.0
 11
4687.147754551141
 21
2501.868895113485
 31
0.0
  0
ARC
  5
17A7
330
1F
100
AcDbEntity
  8
SANINDUSA
100
AcDbCircle
 10
4687.15275455114
 20
2501.868895113374
 30
0.0
 40
0.0050000000000003
100
AcDbArc
 50
90.0
 51
180.0
  0
LINE
  5
17A8
330
1F
100
AcDbEntity
  8
SANINDUSA
100
AcDbLine
 10
4687.152754553823
 20
2501.873895113373
 30
0.0
 11
4687.173385084835
 21
2501.873895113373
 31
0.0
  0
ARC
  5
17A9
330
1F
100
AcDbEntity
  8
SANINDUSA
100
AcDbCircle
 10
4687.17338508345
 20
2501.868895113374
 30
0.0
 40
0.005
100
AcDbArc
 50
7.700000008962316
 51
90.0
  0
LINE
  5
17AA
330
1F
100
AcDbEntity
  8
SANINDUSA
100
AcDbLine
 10
4687.179630355207
 20
2501.860021348128
 30
0.0
 11
4687.178339281536
 21
2501.86957033284
 31
0.0
  0
ARC
  5
17AB
330
1F
100
AcDbEntity
  8
SANINDUSA
100
AcDbCircle
 10
4687.178639374536
 20
2501.859887362392
 30
0.0
 40
0.0010000000000001
100
AcDbArc
 50
277.7000000089623
 51
7.700000008962316
  0
LINE
  5
17AC
330
1F
100
AcDbEntity
  8
SANINDUSA
100
AcDbLine
 10
4687.169854515461
 20
2501.857690502907
 30
0.0
 11
4687.178773359625
 21
2501.858896379376
 31
0.0
  0
LINE
  5
17AD
330
1F
100
AcDbEntity
  8
SANINDUSA
100
AcDbLine
 10
4687.169286028711
 20
2501.861895113269
 30
0.0
 11
4687.169854515461
 21
2501.857690502907
 31
0.0
  0
LINE
  5
17AE
330
1F
100
AcDbEntity
  8
SANINDUSA
100
AcDbLine
 10
4687.159195036857
 20
2501.861895113269
 30
0.0
 11
4687.169286028711
 21
2501.861895113269
 31
0.0
  0
LINE
  5
17AF
330
1F
100
AcDbEntity
  8
SANINDUSA
100
AcDbLine
 10
4687.181395092143
 20
2501.697699966053
 30
0.0
 11
4687.159195036857
 21
2501.861895113269
 31
0.0
  0
ARC
  5
17B0
330
1F
100
AcDbEntity
  8
SANINDUSA
100
AcDbCircle
 10
4687.18635000814
 20
2501.698369896992
 30
0.0
 40
0.005
100
AcDbArc
 50
187.7000001380632
 51
263.8000112380169
  0
LINE
  5
17B1
330
1F
100
AcDbEntity
  8
SANINDUSA
100
AcDbLine
 10
4687.24836254981
 20
2501.686603774333
 30
0.0
 11
4687.185810012338
 21
2501.693399142066
 31
0.0
  0
ARC
  5
17B2
330
1F
100
AcDbEntity
  8
SANINDUSA
100
AcDbCircle
 10
4687.248254551141
 20
2501.685609616137
 30
0.0
 40
0.0009999999999999
100
AcDbArc
 50
0.0
 51
83.80000001940349
  0
LINE
  5
17B3
330
1F
100
AcDbEntity
  8
SANINDUSA
100
AcDbLine
 10
4687.249254551946
 20
2501.665617425943
 30
0.0
 11
4687.249254551946
 21
2501.685609613562
 31
0.0
  0
ARC
  5
17B4
330
1F
100
AcDbEntity
  8
SANINDUSA
100
AcDbCircle
 10
4687.247254551141
 20
2501.665617422236
 30
0.0
 40
0.0019999999999999
100
AcDbArc
 50
270.0
 51
0.0
  0
LINE
  5
17B5
330
1F
100
AcDbEntity
  8
SANINDUSA
100
AcDbLine
 10
4687.247254551617
 20
2501.66361742189
 30
0.0
 11
4687.239587215004
 21
2501.66361742189
 31
0.0
  0
ARC
  5
17B6
330
1F
100
AcDbEntity
  8
SANINDUSA
100
AcDbCircle
 10
4687.239587213489
 20
2501.665617422236
 30
0.0
 40
0.0019999999999999
100
AcDbArc
 50
184.9999999962911
 51
270.0
  0
ARC
  5
17B7
330
1F
100
AcDbEntity
  8
SANINDUSA
100
AcDbCircle
 10
4687.231887877938
 20
2501.673305237544
 30
0.0
 40
0.005
100
AcDbArc
 50
4.999999996291116
 51
83.80000001940349
  0
LINE
  5
17B8
330
1F
100
AcDbEntity
  8
SANINDUSA
100
AcDbLine
 10
4687.184730016855
 20
2501.683457632566
 30
0.0
 11
4687.232427873878
 21
2501.67827599218
 31
0.0
  0
ARC
  5
17B9
330
1F
100
AcDbEntity
  8
SANINDUSA
100
AcDbCircle
 10
4687.186350008141
 20
2501.69836990227
 30
0.0
 40
0.015
100
AcDbArc
 50
187.7000000089623
 51
263.8000000194035
  0
LINE
  5
17BA
330
1F
100
AcDbEntity
  8
SANINDUSA
100
AcDbLine
 10
4687.239982606141
 20
2501.695561190153
 30
0.0
 11
4687.24814655189
 21
2501.694674302841
 31
0.0
  0
LINE
  5
17BB
330
1F
100
AcDbEntity
  8
SANINDUSA
100
AcDbLine
 10
4687.232836240201
 20
2501.70177342465
 30
0.0
 11
4687.239982606141
 21
2501.695561190153
 31
0.0
  0
ARC
  5
17BC
330
1F
100
AcDbEntity
  8
SANINDUSA
100
AcDbCircle
 10
4687.271831997963
 20
2502.587922583135
 30
0.0
 40
0.8870067605749774
100
AcDbArc
 50
265.5253868631022
 51
267.4802754258386
  0
ARC
  5
17BD
330
1F
100
AcDbEntity
  8
SANINDUSA
100
AcDbCircle
 10
4687.203800324468
 20
2501.718573699263
 30
0.0
 40
0.0150000000000001
100
AcDbArc
 50
187.7000000089623
 51
265.5253868631022
  0
LINE
  5
17BE
330
1F
100
AcDbEntity
  8
SANINDUSA
100
AcDbLine
 10
4687.172534235982
 20
2501.837870840932
 30
0.0
 11
4687.18893557903
 21
2501.716563900018
 31
0.0
  0
LINE
  5
17BF
330
1F
100
AcDbEntity
  8
SANINDUSA
100
AcDbLine
 10
4687.181453087596
 20
2501.839076713676
 30
0.0
 11
4687.172534235982
 21
2501.837870840932
 31
0.0
  0
ARC
  5
17C0
330
1F
100
AcDbEntity
  8
SANINDUSA
100
AcDbCircle
 10
4687.181587070615
 20
2501.838085731999
 30
0.0
 40
0.0010000000000001
100
AcDbArc
 50
7.700000008962316
 51
97.70000000896231
  0
LINE
  5
17C1
330
1F
100
AcDbEntity
  8
SANINDUSA
100
AcDbLine
 10
4687.198847295014
 20
2501.717889835143
 30
0.0
 11
4687.18257805076
 21
2501.838219718093
 31
0.0
  0
ARC
  5
17C2
330
1F
100
AcDbEntity
  8
SANINDUSA
100
AcDbCircle
 10
4687.203802209135
 20
2501.718559759956
 30
0.0
 40
0.005
100
AcDbArc
 50
187.7000000089623
 51
265.5804599452629
  0
LINE
  5
17C3
330
1F
100
AcDbEntity
  8
SANINDUSA
100
AcDbLine
 10
4687.203416914908
 20
2501.713574622775
 30
0.0
 11
4687.23675455269
 21
2501.711617414857
 31
0.0
  0
LINE
  5
17C4
330
1F
100
AcDbEntity
  8
SANINDUSA
100
AcDbLine
 10
4687.249254551946
 20
2501.695668448711
 30
0.0
 11
4687.249254551946
 21
2501.700751339102
 31
0.0
  0
ARC
  5
17C5
330
1F
100
AcDbEntity
  8
SANINDUSA
100
AcDbCircle
 10
4687.248254551141
 20
2501.695668450622
 30
0.0
 40
0.001
100
AcDbArc
 50
263.8000000194035
 51
0.0
  0
LWPOLYLINE
  5
17C6
330
1F
100
AcDbEntity
  8
SANINDUSA
100
AcDbPolyline
 90
        4
 70
   128
 43
0.0
 10
4687.34177389857
 20
2501.713872988725
 10
4687.304633182702
 20
2501.713743765856
 10
4687.267493030286
 20
2501.713711028004
 10
4687.203735203712
 20
2501.713872988725
  0
LWPOLYLINE
  5
17C7
330
1F
100
AcDbEntity
  8
SANINDUSA
100
AcDbPolyline
 90
        3
 70
   128
 43
0.0
 10
4687.342092187373
 20
2501.713574622775
 10
4687.342084885804
 20
2501.713580940867
 10
4687.34177389857
 20
2501.713872988725
  0
LINE
  5
17C8
330
1F
100
AcDbEntity
  8
SANINDUSA
100
AcDbLine
 10
4687.308754549591
 20
2501.711617414857
 30
0.0
 11
4687.342092187373
 21
2501.713574622775
 31
0.0
  0
LWPOLYLINE
  5
17C9
330
1F
100
AcDbEntity
  8
SANINDUSA
100
AcDbPolyline
 90
        3
 70
   128
 43
0.0
 10
4687.203735203712
 20
2501.713872988725
 10
4687.203474396137
 20
2501.713624943996
 10
4687.203416914908
 20
2501.713574622775
  0
ARC
  5
17CA
330
1F
100
AcDbEntity
  8
SANINDUSA
100
AcDbCircle
 10
4687.203759840138
 20
2501.718872895152
 30
0.0
 40
0.004999967123581
100
AcDbArc
 50
187.700350250276
 51
269.7176843545709
  0
ARC
  5
17CB
330
1F
100
AcDbEntity
  8
SANINDUSA
100
AcDbCircle
 10
4687.305921888793
 20
2501.665617422236
 30
0.0
 40
0.0020000000000002
100
AcDbArc
 50
270.0
 51
355.0000000037089
  0
ARC
  5
17CC
330
1F
100
AcDbEntity
  8
SANINDUSA
100
AcDbCircle
 10
4687.29825455114
 20
2501.665617422236
 30
0.0
 40
0.0019999999999999
100
AcDbArc
 50
180.0
 51
270.0
  0
LINE
  5
17CE
330
1F
100
AcDbEntity
  8
SANINDUSA
100
AcDbLine
 10
4687.298254550664
 20
2501.66361742189
 30
0.0
 11
4687.247254551617
 21
2501.66361742189
 31
0.0
  0
LINE
  5
17CF
330
1F
100
AcDbEntity
  8
SANINDUSA
100
AcDbLine
 10
4687.296254550336
 20
2501.700751339102
 30
0.0
 11
4687.296254550336
 21
2501.665617425943
 31
0.0
  0
LWPOLYLINE
  5
17D0
330
1F
100
AcDbEntity
  8
SANINDUSA
100
AcDbPolyline
 90
        7
 70
   128
 43
0.0
 10
4687.24836254981
 20
2501.686603774333
 10
4687.248463663501
 20
2501.686592777277
 10
4687.24876616825
 20
2501.686559920216
 10
4687.249267566246
 20
2501.686505456472
 10
4687.249963718695
 20
2501.686429818178
 10
4687.250848883061
 20
2501.686333660984
 10
4687.251915750322
 20
2501.686217759753
  0
LWPOLYLINE
  5
17D1
330
1F
100
AcDbEntity
  8
SANINDUSA
100
AcDbPolyline
 90
        7
 70
   128
 43
0.0
 10
4687.251833764134
 20
2501.694273744727
 10
4687.250727423696
 20
2501.694393922592
 10
4687.249809003664
 20
2501.694493700767
 10
4687.249086381165
 20
2501.694572200084
 10
4687.248565751357
 20
2501.694628764892
 10
4687.248251577137
 20
2501.694662888552
 10
4687.24814655189
 20
2501.694674302841
  0
ARC
  5
17D2
330
1F
100
AcDbEntity
  8
SANINDUSA
100
AcDbCircle
 10
4687.341706893145
 20
2501.718559759956
 30
0.0
 40
0.005
100
AcDbArc
 50
274.4195400547371
 51
352.2999999910377
  0
ARC
  5
17D3
330
1F
100
AcDbEntity
  8
SANINDUSA
100
AcDbCircle
 10
4687.341706893145
 20
2501.718559759956
 30
0.0
 40
0.015
100
AcDbArc
 50
324.782597789811
 51
352.2999999910377
  0
LINE
  5
17D4
330
1F
100
AcDbEntity
  8
SANINDUSA
100
AcDbLine
 10
4687.367169820748
 20
2501.869570332867
 30
0.0
 11
4687.346661807267
 21
2501.717889835143
 31
0.0
  0
LINE
  5
17D5
330
1F
100
AcDbEntity
  8
SANINDUSA
100
AcDbLine
 10
4687.376376399547
 20
2501.863029099594
 30
0.0
 11
4687.356571639216
 21
2501.716549972931
 31
0.0
  0
ARC
  5
17D6
330
1F
100
AcDbEntity
  8
SANINDUSA
100
AcDbCircle
 10
4687.377367382743
 20
2501.862895113374
 30
0.0
 40
0.001
100
AcDbArc
 50
90.0
 51
172.2999979421541
  0
ARC
  5
17D7
330
1F
100
AcDbEntity
  8
SANINDUSA
100
AcDbCircle
 10
4687.372124018831
 20
2501.868895113374
 30
0.0
 40
0.005
100
AcDbArc
 50
90.0
 51
172.2999999910377
  0
ARC
  5
17D8
330
1F
100
AcDbEntity
  8
SANINDUSA
100
AcDbCircle
 10
4687.39275455114
 20
2501.868895113374
 30
0.0
 40
0.005
100
AcDbArc
 50
0.0
 51
90.0
  0
LINE
  5
17D9
330
1F
100
AcDbEntity
  8
SANINDUSA
100
AcDbLine
 10
4687.397754551141
 20
2501.868895113485
 30
0.0
 11
4687.397754551141
 21
2501.677895118499
 31
0.0
  0
LINE
  5
17DA
330
1F
100
AcDbEntity
  8
SANINDUSA
100
AcDbLine
 10
4687.38775455114
 20
2501.862895113374
 30
0.0
 11
4687.38775455114
 21
2501.689419323922
 31
0.0
  0
ARC
  5
17DB
330
1F
100
AcDbEntity
  8
SANINDUSA
100
AcDbCircle
 10
4687.39375455114
 20
2501.677895113373
 30
0.0
 40
0.0040000000000001
100
AcDbArc
 50
270.0
 51
0.0
  0
ARC
  5
17DC
330
1F
100
AcDbEntity
  8
SANINDUSA
100
AcDbCircle
 10
4687.390063952217
 20
2501.677895113373
 30
0.0
 40
0.0040000000000001
100
AcDbArc
 50
210.0000000157473
 51
270.0
  0
LINE
  5
17DD
330
1F
100
AcDbEntity
  8
SANINDUSA
100
AcDbLine
 10
4687.385733821659
 20
2501.677395110036
 30
0.0
 11
4687.386599847345
 21
2501.675895114446
 31
0.0
  0
ARC
  5
17DE
330
1F
100
AcDbEntity
  8
SANINDUSA
100
AcDbCircle
 10
4687.383135748986
 20
2501.675895113373
 30
0.0
 40
0.003
100
AcDbArc
 50
30.00000001574733
 51
90.0
  0
ARC
  5
17DF
330
1F
100
AcDbEntity
  8
SANINDUSA
100
AcDbCircle
 10
4687.383135748986
 20
2501.675895113373
 30
0.0
 40
0.013
100
AcDbArc
 50
75.01976210912556
 51
90.0
  0
ARC
  5
17E0
330
1F
100
AcDbEntity
  8
SANINDUSA
100
AcDbCircle
 10
4687.38675455114
 20
2501.689419323922
 30
0.0
 40
0.001
100
AcDbArc
 50
255.0197621091256
 51
0.0
  0
ARC
  5
17E1
330
1F
100
AcDbEntity
  8
SANINDUSA
100
AcDbCircle
 10
4687.373528053833
 20
2501.673895113373
 30
0.0
 40
0.005
100
AcDbArc
 50
90.0
 51
149.9999999842526
  0
ARC
  5
17E2
330
1F
100
AcDbEntity
  8
SANINDUSA
100
AcDbCircle
 10
4687.373528053833
 20
2501.673895113373
 30
0.0
 40
0.015
100
AcDbArc
 50
90.0
 51
124.4657905655382
  0
ARC
  5
17E3
330
1F
100
AcDbEntity
  8
SANINDUSA
100
AcDbCircle
 10
4687.364473428594
 20
2501.687086540961
 30
0.0
 40
0.001
100
AcDbArc
 50
201.0000081536702
 51
304.4657905655383
  0
ARC
  5
17E4
330
1F
100
AcDbEntity
  8
SANINDUSA
100
AcDbCircle
 10
4687.364867799794
 20
2501.678895113373
 30
0.0
 40
0.0050000000000002
100
AcDbArc
 50
270.0
 51
329.9999999842527
  0
LINE
  5
17E5
330
1F
100
AcDbEntity
  8
SANINDUSA
100
AcDbLine
 10
4687.361190953521
 20
2501.673895110393
 30
0.0
 11
4687.364867800144
 21
2501.673895110393
 31
0.0
  0
ARC
  5
17E6
330
1F
100
AcDbEntity
  8
SANINDUSA
100
AcDbCircle
 10
4687.361190955934
 20
2501.678895113373
 30
0.0
 40
0.005
100
AcDbArc
 50
201.0000000051267
 51
270.0
  0
LINE
  5
17E7
330
1F
100
AcDbEntity
  8
SANINDUSA
100
AcDbLine
 10
4687.34758579847
 20
2501.700385605002
 30
0.0
 11
4687.356523053801
 21
2501.677103273626
 31
0.0
  0
LINE
  5
17E9
330
1F
100
AcDbEntity
  8
SANINDUSA
100
AcDbLine
 10
4687.356921602225
 20
2501.703969285823
 30
0.0
 11
4687.363539848219
 21
2501.686728172879
 31
0.0
  0
ARC
  5
17EA
330
1F
100
AcDbEntity
  8
SANINDUSA
100
AcDbCircle
 10
4687.342917900053
 20
2501.698593770328
 30
0.0
 40
0.005
100
AcDbArc
 50
21.00000000512672
 51
94.3989194646277
  0
ARC
  5
17EB
330
1F
100
AcDbEntity
  8
SANINDUSA
100
AcDbCircle
 10
4687.342917900053
 20
2501.698593770328
 30
0.0
 40
0.015
100
AcDbArc
 50
21.00000000512672
 51
42.15927558069593
  0
ARC
  5
17EC
330
1F
100
AcDbEntity
  8
SANINDUSA
100
AcDbCircle
 10
4687.354778409677
 20
2501.709332872315
 30
0.0
 40
0.001
100
AcDbArc
 50
144.7825977898109
 51
222.1592755806959
  0
LINE
  5
17ED
330
1F
100
AcDbEntity
  8
SANINDUSA
100
AcDbLine
 10
4687.38313575205
 20
2501.678895120526
 30
0.0
 11
4687.373528057007
 21
2501.678895120526
 31
0.0
  0
LINE
  5
17EE
330
1F
100
AcDbEntity
  8
SANINDUSA
100
AcDbLine
 10
4687.38313575205
 20
2501.688895120526
 30
0.0
 11
4687.373528057007
 21
2501.688895120526
 31
0.0
  0
LINE
  5
17EF
330
1F
100
AcDbEntity
  8
SANINDUSA
100
AcDbLine
 10
4687.305921887277
 20
2501.66361742189
 30
0.0
 11
4687.298254550664
 21
2501.66361742189
 31
0.0
  0
LINE
  5
17F0
330
1F
100
AcDbEntity
  8
SANINDUSA
100
AcDbLine
 10
4687.372124017445
 20
2501.873895113373
 30
0.0
 11
4687.392754548458
 21
2501.873895113373
 31
0.0
  0
LINE
  5
17F1
330
1F
100
AcDbEntity
  8
SANINDUSA
100
AcDbLine
 10
4687.377367382743
 20
2501.863895113373
 30
0.0
 11
4687.38675455114
 21
2501.863895113373
 31
0.0
  0
ARC
  5
17F2
330
1F
100
AcDbEntity
  8
SANINDUSA
100
AcDbCircle
 10
4687.38675455114
 20
2501.862895113374
 30
0.0
 40
0.001
100
AcDbArc
 50
0.0
 51
90.0
  0
LINE
  5
17F3
330
1F
100
AcDbEntity
  8
SANINDUSA
100
AcDbLine
 10
4687.390063950089
 20
2501.673895110393
 30
0.0
 11
4687.393754550485
 21
2501.673895110393
 31
0.0
  0
ARC
  5
17F4
330
1F
100
AcDbEntity
  8
SANINDUSA
100
AcDbCircle
 10
4687.341749262142
 20
2501.718872895153
 30
0.0
 40
0.0049999671238429
100
AcDbArc
 50
270.2823156454292
 51
352.299649749724
  0
LWPOLYLINE
  5
17F5
330
1F
100
AcDbEntity
  8
SANINDUSA
100
AcDbPolyline
 90
        8
 70
   128
 43
0.0
 10
4687.251915750322
 20
2501.686217759753
 10
4687.251973252041
 20
2501.686212648654
 10
4687.252394638253
 20
2501.686244268919
 10
4687.252728753953
 20
2501.68636927476
 10
4687.252964214651
 20
2501.686549236084
 10
4687.253112522183
 20
2501.686780040169
 10
4687.25313282129
 20
2501.686840598488
 10
4687.253155916226
 20
2501.687052969838
  0
LWPOLYLINE
  5
17F6
330
1F
100
AcDbEntity
  8
SANINDUSA
100
AcDbPolyline
 90
        6
 70
   128
 43
0.0
 10
4687.251833764134
 20
2501.694273744727
 10
4687.252380033252
 20
2501.694123496319
 10
4687.252859135387
 20
2501.693832819367
 10
4687.253150525732
 20
2501.693523888493
 10
4687.253293694226
 20
2501.693229113723
 10
4687.253320220156
 20
2501.693070416356
  0
ELLIPSE
  5
17F7
330
1F
100
AcDbEntity
  8
SANINDUSA
100
AcDbEllipse
 10
4687.27275455114
 20
2501.278457783011
 30
0.0
 11
-0.0000000000000003
 21
0.6809076777155143
 31
0.0
210
0.0
220
0.0
230
1.0
 40
0.0359813830888192
 41
0.9161084619350102
 42
0.9272023669230376
  0
LINE
  5
17F8
330
1F
100
AcDbEntity
  8
SANINDUSA
100
AcDbLine
 10
4687.147754551141
 20
2501.857746805081
 30
0.0
 11
4687.147754551141
 21
2501.863755268062
 31
0.0
  0
LINE
  5
17FA
330
1F
100
AcDbEntity
  8
SANINDUSA
100
AcDbLine
 10
4687.147754551141
 20
2501.677895118499
 30
0.0
 11
4687.147754551141
 21
2501.857746805081
 31
0.0
  0
LINE
  5
1801
330
1F
100
AcDbEntity
  8
SANINDUSA
100
AcDbLine
 10
4687.191157237855
 20
2501.682759423757
 30
0.0
 11
4687.188986049263
 21
2501.677103270794
 31
0.0
  0
ARC
  5
1804
330
1F
100
AcDbEntity
  8
SANINDUSA
100
AcDbCircle
 10
4687.163528053832
 20
2501.673895113373
 30
0.0
 40
0.005
100
AcDbArc
 50
90.0
 51
149.9999999842526
  0
LINE
  5
1806
330
1F
100
AcDbEntity
  8
SANINDUSA
100
AcDbLine
 10
4687.171981045274
 20
2501.678895120526
 30
0.0
 11
4687.163528056113
 21
2501.678895120526
 31
0.0
  0
ARC
  5
1808
330
1F
100
AcDbEntity
  8
SANINDUSA
100
AcDbCircle
 10
4687.171981048449
 20
2501.673895113373
 30
0.0
 40
0.005
100
AcDbArc
 50
30.00000001574733
 51
90.0
  0
LINE
  5
1809
330
1F
100
AcDbEntity
  8
SANINDUSA
100
AcDbLine
 10
4687.159197927682
 20
2501.676395108009
 30
0.0
 11
4687.158909254936
 21
2501.675895114446
 31
0.0
  0
ARC
  5
180C
330
1F
100
AcDbEntity
  8
SANINDUSA
100
AcDbCircle
 10
4687.180641302487
 20
2501.678895113373
 30
0.0
 40
0.0050000000000002
100
AcDbArc
 50
210.0000000157473
 51
270.0
  0
LINE
  5
180E
330
1F
100
AcDbEntity
  8
SANINDUSA
100
AcDbLine
 10
4687.18431814876
 20
2501.673895110393
 30
0.0
 11
4687.180641302137
 21
2501.673895110393
 31
0.0
  0
ARC
  5
180F
330
1F
100
AcDbEntity
  8
SANINDUSA
100
AcDbCircle
 10
4687.184318146347
 20
2501.678895113373
 30
0.0
 40
0.005
100
AcDbArc
 50
270.0
 51
338.9999999948733
  0
ARC
  5
1811
330
1F
100
AcDbEntity
  8
SANINDUSA
100
AcDbCircle
 10
4687.15175455114
 20
2501.677895113373
 30
0.0
 40
0.0040000000000001
100
AcDbArc
 50
180.0
 51
270.0
  0
LINE
  5
1813
330
1F
100
AcDbEntity
  8
SANINDUSA
100
AcDbLine
 10
4687.154345088867
 20
2501.673895110393
 30
0.0
 11
4687.151754551797
 21
2501.673895110393
 31
0.0
  0
ARC
  5
1814
330
1F
100
AcDbEntity
  8
SANINDUSA
100
AcDbCircle
 10
4687.155445150064
 20
2501.677895113373
 30
0.0
 40
0.0040000000000002
100
AcDbArc
 50
270.0
 51
329.9999999842527
  0
LINE
  5
1815
330
1F
100
AcDbEntity
  8
SANINDUSA
100
AcDbLine
 10
4687.155445152192
 20
2501.673895110393
 30
0.0
 11
4687.154345088867
 21
2501.673895110393
 31
0.0
  0
LINE
  5
1820
330
1F
100
AcDbEntity
  8
SANINDUSA
100
AcDbLine
 10
4687.157640167741
 20
2501.673895110393
 30
0.0
 11
4687.155445152192
 21
2501.673895110393
 31
0.0
  0
LINE
  5
1822
330
1F
100
AcDbEntity
  8
SANINDUSA
100
AcDbLine
 10
4687.173385084835
 20
2501.873895113373
 30
0.0
 11
4687.183294915823
 21
2501.873895113373
 31
0.0
  0
LINE
  5
1824
330
1F
100
AcDbEntity
  8
SANINDUSA
100
AcDbLine
 10
4687.362214186458
 20
2501.873895113373
 30
0.0
 11
4687.372124017445
 21
2501.873895113373
 31
0.0
  0
LINE
  5
1825
330
1F
100
AcDbEntity
  8
SANINDUSA
100
AcDbLine
 10
4687.183294915823
 20
2501.873895113373
 30
0.0
 11
4687.362214186458
 21
2501.873895113373
 31
0.0
  0
LINE
  5
1827
330
1F
100
AcDbEntity
  8
SANINDUSA
100
AcDbLine
 10
4687.177754552332
 20
2501.673895110393
 30
0.0
 11
4687.157483198909
 21
2501.673895110393
 31
0.0
  0
LINE
  5
1828
330
1F
100
AcDbEntity
  8
SANINDUSA
100
AcDbLine
 10
4687.390063950089
 20
2501.673895110393
 30
0.0
 11
4687.367754549948
 21
2501.673895110393
 31
0.0
  0
LINE
  5
182B
330
1F
100
AcDbEntity
  8
SANINDUSA
100
AcDbLine
 10
4687.367754549948
 20
2501.673895110393
 30
0.0
 11
4687.364867800144
 21
2501.673895110393
 31
0.0
  0
LINE
  5
182C
330
1F
100
AcDbEntity
  8
SANINDUSA
100
AcDbLine
 10
4687.361190953521
 20
2501.673895110393
 30
0.0
 11
4687.308653732059
 21
2501.673895110393
 31
0.0
  0
LINE
  5
182D
330
1F
100
AcDbEntity
  8
SANINDUSA
100
AcDbLine
 10
4687.236852959959
 20
2501.673895110393
 30
0.0
 11
4687.18431814876
 21
2501.673895110393
 31
0.0
  0
LINE
  5
182E
330
1F
100
AcDbEntity
  8
SANINDUSA
100
AcDbLine
 10
4687.180641302137
 20
2501.673895110393
 30
0.0
 11
4687.177754552332
 21
2501.673895110393
 31
0.0
  0
LWPOLYLINE
  5
183F
330
1F
100
AcDbEntity
  8
SANINDUSA
100
AcDbPolyline
 90
        3
 70
   128
 43
0.0
 10
4687.965418319087
 20
2501.703857784177
 10
4687.965822356622
 20
2501.703883309866
 10
4687.965942929369
 20
2501.703892846609
  0
LINE
  5
1841
330
1F
100
AcDbEntity
  8
SANINDUSA
100
AcDbLine
 10
4687.856160244774
 20
2501.700751339102
 30
0.0
 11
4687.809160242658
 21
2501.700751339102
 31
0.0
  0
LINE
  5
1843
330
1F
100
AcDbEntity
  8
SANINDUSA
100
AcDbLine
 10
4687.809160242658
 20
2501.700751339102
 30
0.0
 11
4687.797247852069
 21
2501.711106617952
 31
0.0
  0
ARC
  5
1844
330
1F
100
AcDbEntity
  8
SANINDUSA
100
AcDbCircle
 10
4687.832660245812
 20
2500.483800791752
 30
0.0
 40
1.227816610351424
100
AcDbArc
 50
88.34725960771391
 51
91.65274039228609
  0
LINE
  5
1845
330
1F
100
AcDbEntity
  8
SANINDUSA
100
AcDbLine
 10
4687.868072639555
 20
2501.711106617952
 30
0.0
 11
4687.856160244774
 21
2501.700751339102
 31
0.0
  0
LWPOLYLINE
  5
1846
330
1F
100
AcDbEntity
  8
SANINDUSA
100
AcDbPolyline
 90
        3
 70
   128
 43
0.0
 10
4687.875458323965
 20
2501.701203008199
 10
4687.923475599717
 20
2501.702281479741
 10
4687.971481795293
 20
2501.704130386019
  0
ARC
  5
1847
330
1F
100
AcDbEntity
  8
SANINDUSA
100
AcDbCircle
 10
4687.875530258961
 20
2501.696203530804
 30
0.0
 40
0.0050000000000001
100
AcDbArc
 50
90.82434319532508
 51
175.0000000037089
  0
LINE
  5
1848
330
1F
100
AcDbEntity
  8
SANINDUSA
100
AcDbLine
 10
4687.870549285421
 20
2501.696639304066
 30
0.0
 11
4687.867819912398
 21
2501.665442433872
 31
0.0
  0
ARC
  5
1849
330
1F
100
AcDbEntity
  8
SANINDUSA
100
AcDbCircle
 10
4687.865827582338
 20
2501.665617422236
 30
0.0
 40
0.002
100
AcDbArc
 50
270.0
 51
355.0000000037089
  0
LINE
  5
184A
330
1F
100
AcDbEntity
  8
SANINDUSA
100
AcDbLine
 10
4687.86582758218
 20
2501.66361742189
 30
0.0
 11
4687.858160245101
 21
2501.66361742189
 31
0.0
  0
ARC
  5
184B
330
1F
100
AcDbEntity
  8
SANINDUSA
100
AcDbCircle
 10
4687.858160244685
 20
2501.665617422236
 30
0.0
 40
0.002
100
AcDbArc
 50
180.0
 51
270.0
  0
LINE
  5
184C
330
1F
100
AcDbEntity
  8
SANINDUSA
100
AcDbLine
 10
4687.856160244774
 20
2501.700751339102
 30
0.0
 11
4687.856160244774
 21
2501.665617425943
 31
0.0
  0
LWPOLYLINE
  5
184D
330
1F
100
AcDbEntity
  8
SANINDUSA
100
AcDbPolyline
 90
        3
 70
   128
 43
0.0
 10
4687.868072639555
 20
2501.711106617952
 10
4687.914965729099
 20
2501.712037672306
 10
4687.961849967819
 20
2501.713710119033
  0
ARC
  5
184E
330
1F
100
AcDbEntity
  8
SANINDUSA
100
AcDbCircle
 10
4687.961632275139
 20
2501.718705378864
 30
0.0
 40
0.0050000000000001
100
AcDbArc
 50
272.49533803355
 51
352.2999999910377
  0
LINE
  5
184F
330
1F
100
AcDbEntity
  8
SANINDUSA
100
AcDbLine
 10
4687.987074858875
 20
2501.869565516147
 30
0.0
 11
4687.966587188523
 21
2501.718035449291
 31
0.0
  0
ARC
  5
1850
330
1F
100
AcDbEntity
  8
SANINDUSA
100
AcDbCircle
 10
4687.992029712375
 20
2501.868895113374
 30
0.0
 40
0.005
100
AcDbArc
 50
90.0
 51
172.2999999910377
  0
LINE
  5
1851
330
1F
100
AcDbEntity
  8
SANINDUSA
100
AcDbLine
 10
4687.992029714268
 20
2501.873895113373
 30
0.0
 11
4688.024160246235
 21
2501.873895113373
 31
0.0
  0
ARC
  5
1852
330
1F
100
AcDbEntity
  8
SANINDUSA
100
AcDbCircle
 10
4688.024160244685
 20
2501.872895113373
 30
0.0
 40
0.0010000000000001
100
AcDbArc
 50
0.0
 51
90.0
  0
LINE
  5
1853
330
1F
100
AcDbEntity
  8
SANINDUSA
100
AcDbLine
 10
4688.025160248261
 20
2501.862895113433
 30
0.0
 11
4688.025160248261
 21
2501.872895113326
 31
0.0
  0
ARC
  5
1854
330
1F
100
AcDbEntity
  8
SANINDUSA
100
AcDbCircle
 10
4688.024160244685
 20
2501.862895113374
 30
0.0
 40
0.0010000000000001
100
AcDbArc
 50
270.0
 51
0.0
  0
LINE
  5
1855
330
1F
100
AcDbEntity
  8
SANINDUSA
100
AcDbLine
 10
4688.024160246235
 20
2501.861895113269
 30
0.0
 11
4688.000498230439
 21
2501.861895113269
 31
0.0
  0
ARC
  5
1856
330
1F
100
AcDbEntity
  8
SANINDUSA
100
AcDbCircle
 10
4688.000498237147
 20
2501.856895113373
 30
0.0
 40
0.005
100
AcDbArc
 50
90.0
 51
172.2999999910377
  0
LINE
  5
1857
330
1F
100
AcDbEntity
  8
SANINDUSA
100
AcDbLine
 10
4687.975265952628
 20
2501.707590390945
 30
0.0
 11
4687.99554331867
 21
2501.857565044443
 31
0.0
  0
ARC
  5
1858
330
1F
100
AcDbEntity
  8
SANINDUSA
100
AcDbCircle
 10
4687.971302020566
 20
2501.708126342444
 30
0.0
 40
0.004
100
AcDbArc
 50
272.5759193914695
 51
352.2999999910377
  0
LWPOLYLINE
  5
1859
330
1F
100
AcDbEntity
  8
SANINDUSA
100
AcDbPolyline
 90
        3
 70
   128
 43
0.0
 10
4687.961849967819
 20
2501.713710119033
 10
4687.961848976891
 20
2501.713711028004
 10
4687.961679945569
 20
2501.713872988725
  0
ARC
  5
185A
330
1F
100
AcDbEntity
  8
SANINDUSA
100
AcDbCircle
 10
4687.961654982869
 20
2501.71887286593
 30
0.0
 40
0.004999939519677
100
AcDbArc
 50
270.2860561100463
 51
352.2999449063301
  0
LINE
  5
185B
330
1F
100
AcDbEntity
  8
SANINDUSA
100
AcDbLine
 10
4688.083041439634
 20
2501.678895120526
 30
0.0
 11
4688.076343635898
 21
2501.678895120526
 31
0.0
  0
ARC
  5
185C
330
1F
100
AcDbEntity
  8
SANINDUSA
100
AcDbCircle
 10
4688.076796871786
 20
2501.683479584334
 30
0.0
 40
0.0046068135601129
100
AcDbArc
 50
176.4750828705131
 51
264.3538891357573
  0
ARC
  5
185F
330
1F
100
AcDbEntity
  8
SANINDUSA
100
AcDbCircle
 10
4688.083343641501
 20
2501.683895113373
 30
0.0
 40
0.0050000000000024
100
AcDbArc
 50
181.8279682321152
 51
267.8109871816355
  0
LINE
  5
1860
330
1F
100
AcDbEntity
  8
SANINDUSA
100
AcDbLine
 10
4688.083041439634
 20
2501.678895120526
 30
0.0
 11
4688.083152661901
 21
2501.678898756409
 31
0.0
  0
ARC
  5
1861
330
1F
100
AcDbEntity
  8
SANINDUSA
100
AcDbCircle
 10
4688.083041442531
 20
2501.675895113373
 30
0.0
 40
0.0030000000000002
100
AcDbArc
 50
30.00000001574733
 51
90.0
  0
ARC
  5
1862
330
1F
100
AcDbEntity
  8
SANINDUSA
100
AcDbCircle
 10
4688.083038072003
 20
2501.675900951298
 30
0.0
 40
0.003
100
AcDbArc
 50
30.00000001574733
 51
87.81098718163546
  0
LINE
  5
1863
330
1F
100
AcDbEntity
  8
SANINDUSA
100
AcDbLine
 10
4688.067817265969
 20
2501.861895113269
 30
0.0
 11
4688.061160246712
 21
2501.861895113269
 31
0.0
  0
ARC
  5
1864
330
1F
100
AcDbEntity
  8
SANINDUSA
100
AcDbCircle
 10
4688.061160244685
 20
2501.862895113374
 30
0.0
 40
0.0010000000000001
100
AcDbArc
 50
180.0
 51
270.0
  0
LINE
  5
1865
330
1F
100
AcDbEntity
  8
SANINDUSA
100
AcDbLine
 10
4688.060160244685
 20
2501.872895113326
 30
0.0
 11
4688.060160244685
 21
2501.862895113433
 31
0.0
  0
ARC
  5
1866
330
1F
100
AcDbEntity
  8
SANINDUSA
100
AcDbCircle
 10
4688.061160244685
 20
2501.872895113373
 30
0.0
 40
0.0009999999999999
100
AcDbArc
 50
90.0
 51
180.0
  0
LINE
  5
1867
330
1F
100
AcDbEntity
  8
SANINDUSA
100
AcDbLine
 10
4688.061160246712
 20
2501.873895113373
 30
0.0
 11
4688.092660243493
 21
2501.873895113373
 31
0.0
  0
ARC
  5
1868
330
1F
100
AcDbEntity
  8
SANINDUSA
100
AcDbCircle
 10
4688.092660244685
 20
2501.868895113374
 30
0.0
 40
0.005
100
AcDbArc
 50
0.0
 51
90.0
  0
LINE
  5
1869
330
1F
100
AcDbEntity
  8
SANINDUSA
100
AcDbLine
 10
4688.097660238724
 20
2501.868895113485
 30
0.0
 11
4688.097660238724
 21
2501.677895118499
 31
0.0
  0
LINE
  5
186A
330
1F
100
AcDbEntity
  8
SANINDUSA
100
AcDbLine
 10
4688.088660238724
 20
2501.862895113597
 30
0.0
 11
4688.088660238724
 21
2501.705388215598
 31
0.0
  0
ARC
  5
186B
330
1F
100
AcDbEntity
  8
SANINDUSA
100
AcDbCircle
 10
4688.087660238724
 20
2501.862895113597
 30
0.0
 40
0.001
100
AcDbArc
 50
0.0
 51
90.0
  0
ARC
  5
186C
330
1F
100
AcDbEntity
  8
SANINDUSA
100
AcDbCircle
 10
4688.093660244684
 20
2501.677895113373
 30
0.0
 40
0.004
100
AcDbArc
 50
270.0
 51
0.0
  0
LINE
  5
186D
330
1F
100
AcDbEntity
  8
SANINDUSA
100
AcDbLine
 10
4688.089969645124
 20
2501.673895110393
 30
0.0
 11
4688.093660245519
 21
2501.673895110393
 31
0.0
  0
ARC
  5
186E
330
1F
100
AcDbEntity
  8
SANINDUSA
100
AcDbCircle
 10
4688.089969645761
 20
2501.677895113373
 30
0.0
 40
0.004
100
AcDbArc
 50
210.0000000157473
 51
270.0
  0
LINE
  5
186F
330
1F
100
AcDbEntity
  8
SANINDUSA
100
AcDbLine
 10
4688.085636149031
 20
2501.677400951291
 30
0.0
 11
4688.086505542378
 21
2501.675895114446
 31
0.0
  0
LINE
  5
1870
330
1F
100
AcDbEntity
  8
SANINDUSA
100
AcDbLine
 10
4688.072814728003
 20
2501.857054607028
 30
0.0
 11
4688.07834632638
 21
2501.683731279378
 31
0.0
  0
LINE
  5
1872
330
1F
100
AcDbEntity
  8
SANINDUSA
100
AcDbLine
 10
4688.081810147975
 20
2501.857341695046
 30
0.0
 11
4688.086660747616
 21
2501.70535631693
 31
0.0
  0
ARC
  5
1873
330
1F
100
AcDbEntity
  8
SANINDUSA
100
AcDbCircle
 10
4688.087660238724
 20
2501.705388215598
 30
0.0
 40
0.001
100
AcDbArc
 50
181.8279691712838
 51
0.0
  0
ARC
  5
1874
330
1F
100
AcDbEntity
  8
SANINDUSA
100
AcDbCircle
 10
4688.0678172734
 20
2501.856895113373
 30
0.0
 40
0.0050000000000001
100
AcDbArc
 50
1.827968232115205
 51
90.0
  0
ARC
  5
1875
330
1F
100
AcDbEntity
  8
SANINDUSA
100
AcDbCircle
 10
4688.0678172734
 20
2501.856895113373
 30
0.0
 40
0.0140000000000001
100
AcDbArc
 50
1.827968232115205
 51
23.57817941424327
  0
ARC
  5
1876
330
1F
100
AcDbEntity
  8
SANINDUSA
100
AcDbCircle
 10
4688.081565000387
 20
2501.862895113597
 30
0.0
 40
0.001
100
AcDbArc
 50
90.0
 51
203.5781794142433
  0
LINE
  5
1877
330
1F
100
AcDbEntity
  8
SANINDUSA
100
AcDbLine
 10
4688.081565000387
 20
2501.863895113597
 30
0.0
 11
4688.087660238724
 21
2501.863895113597
 31
0.0
  0
ARC
  5
1878
330
1F
100
AcDbEntity
  8
SANINDUSA
100
AcDbCircle
 10
4687.799492907032
 20
2501.665617422236
 30
0.0
 40
0.002
100
AcDbArc
 50
184.9999999962911
 51
270.0
  0
LINE
  5
1879
330
1F
100
AcDbEntity
  8
SANINDUSA
100
AcDbLine
 10
4687.688891748767
 20
2501.677103270794
 30
0.0
 11
4687.697883571368
 21
2501.700527791882
 31
0.0
  0
LINE
  5
187A
330
1F
100
AcDbEntity
  8
SANINDUSA
100
AcDbLine
 10
4687.681874949958
 20
2501.686728171809
 30
0.0
 11
4687.688547765957
 21
2501.704111468396
 31
0.0
  0
ARC
  5
187B
330
1F
100
AcDbEntity
  8
SANINDUSA
100
AcDbCircle
 10
4687.684223839892
 20
2501.678895113373
 30
0.0
 40
0.005
100
AcDbArc
 50
270.0
 51
338.9999999948733
  0
LINE
  5
187C
330
1F
100
AcDbEntity
  8
SANINDUSA
100
AcDbLine
 10
4687.680546994191
 20
2501.673895110393
 30
0.0
 11
4687.684223840814
 21
2501.673895110393
 31
0.0
  0
ARC
  5
187D
330
1F
100
AcDbEntity
  8
SANINDUSA
100
AcDbCircle
 10
4687.68054699603
 20
2501.678895113373
 30
0.0
 40
0.0050000000000001
100
AcDbArc
 50
210.0000000157473
 51
270.0
  0
ARC
  5
187E
330
1F
100
AcDbEntity
  8
SANINDUSA
100
AcDbCircle
 10
4687.671886741993
 20
2501.673895113373
 30
0.0
 40
0.005
100
AcDbArc
 50
30.00000001574733
 51
90.0
  0
ARC
  5
187F
330
1F
100
AcDbEntity
  8
SANINDUSA
100
AcDbCircle
 10
4687.671886741993
 20
2501.673895113373
 30
0.0
 40
0.015
100
AcDbArc
 50
55.53419990958868
 51
90.0
  0
ARC
  5
1880
330
1F
100
AcDbEntity
  8
SANINDUSA
100
AcDbCircle
 10
4687.680941369417
 20
2501.68708653946
 30
0.0
 40
0.001
100
AcDbArc
 50
235.5341999095887
 51
339.0000183047714
  0
LINE
  5
1881
330
1F
100
AcDbEntity
  8
SANINDUSA
100
AcDbLine
 10
4687.671886737328
 20
2501.678895120526
 30
0.0
 11
4687.662279049735
 21
2501.678895120526
 31
0.0
  0
LINE
  5
1882
330
1F
100
AcDbEntity
  8
SANINDUSA
100
AcDbLine
 10
4687.671886737328
 20
2501.688895120526
 30
0.0
 11
4687.662279049735
 21
2501.688895120526
 31
0.0
  0
ARC
  5
1883
330
1F
100
AcDbEntity
  8
SANINDUSA
100
AcDbCircle
 10
4687.662279046838
 20
2501.675895113373
 30
0.0
 40
0.003
100
AcDbArc
 50
90.0
 51
149.9999999842526
  0
ARC
  5
1884
330
1F
100
AcDbEntity
  8
SANINDUSA
100
AcDbCircle
 10
4687.662279046838
 20
2501.675895113373
 30
0.0
 40
0.0130000000000001
100
AcDbArc
 50
90.0
 51
104.9802125913148
  0
ARC
  5
1885
330
1F
100
AcDbEntity
  8
SANINDUSA
100
AcDbCircle
 10
4687.658660250645
 20
2501.689419325517
 30
0.0
 40
0.001
100
AcDbArc
 50
180.0
 51
284.9802125913149
  0
LINE
  5
1886
330
1F
100
AcDbEntity
  8
SANINDUSA
100
AcDbLine
 10
4687.658814946991
 20
2501.675895114446
 30
0.0
 11
4687.659680972677
 21
2501.677395110036
 31
0.0
  0
ARC
  5
1887
330
1F
100
AcDbEntity
  8
SANINDUSA
100
AcDbCircle
 10
4687.655350843608
 20
2501.677895113373
 30
0.0
 40
0.004
100
AcDbArc
 50
270.0
 51
329.9999999842527
  0
LINE
  5
1888
330
1F
100
AcDbEntity
  8
SANINDUSA
100
AcDbLine
 10
4687.65166024385
 20
2501.673895110393
 30
0.0
 11
4687.655350844245
 21
2501.673895110393
 31
0.0
  0
ARC
  5
1889
330
1F
100
AcDbEntity
  8
SANINDUSA
100
AcDbCircle
 10
4687.651660244685
 20
2501.677895113373
 30
0.0
 40
0.0040000000000001
100
AcDbArc
 50
180.0
 51
270.0
  0
LINE
  5
188A
330
1F
100
AcDbEntity
  8
SANINDUSA
100
AcDbLine
 10
4687.647660250646
 20
2501.677895118499
 30
0.0
 11
4687.647660250646
 21
2501.868895113485
 31
0.0
  0
LINE
  5
188B
330
1F
100
AcDbEntity
  8
SANINDUSA
100
AcDbLine
 10
4687.657660250645
 20
2501.689419325517
 30
0.0
 11
4687.657660250645
 21
2501.862895113374
 31
0.0
  0
ARC
  5
188C
330
1F
100
AcDbEntity
  8
SANINDUSA
100
AcDbCircle
 10
4687.658660250645
 20
2501.862895113374
 30
0.0
 40
0.001
100
AcDbArc
 50
90.0
 51
180.0
  0
ARC
  5
188D
330
1F
100
AcDbEntity
  8
SANINDUSA
100
AcDbCircle
 10
4687.652660244685
 20
2501.868895113374
 30
0.0
 40
0.005
100
AcDbArc
 50
90.0
 51
180.0
  0
LINE
  5
188E
330
1F
100
AcDbEntity
  8
SANINDUSA
100
AcDbLine
 10
4687.652660245877
 20
2501.873895113373
 30
0.0
 11
4687.67329078434
 21
2501.873895113373
 31
0.0
  0
LINE
  5
188F
330
1F
100
AcDbEntity
  8
SANINDUSA
100
AcDbLine
 10
4687.658660250645
 20
2501.863895113373
 30
0.0
 11
4687.668047411452
 21
2501.863895113373
 31
0.0
  0
ARC
  5
1890
330
1F
100
AcDbEntity
  8
SANINDUSA
100
AcDbCircle
 10
4687.673290776994
 20
2501.868895113374
 30
0.0
 40
0.005
100
AcDbArc
 50
7.700000008962316
 51
90.0
  0
LINE
  5
1891
330
1F
100
AcDbEntity
  8
SANINDUSA
100
AcDbLine
 10
4687.698733298232
 20
2501.718035447936
 30
0.0
 11
4687.678244807552
 21
2501.869571560886
 31
0.0
  0
LINE
  5
1892
330
1F
100
AcDbEntity
  8
SANINDUSA
100
AcDbLine
 10
4687.6888234632
 20
2501.71669558734
 30
0.0
 11
4687.669038394651
 21
2501.863029099568
 31
0.0
  0
ARC
  5
1893
330
1F
100
AcDbEntity
  8
SANINDUSA
100
AcDbCircle
 10
4687.668047411452
 20
2501.862895113374
 30
0.0
 40
0.001
100
AcDbArc
 50
7.700000558167938
 51
90.0
  0
ARC
  5
1894
330
1F
100
AcDbEntity
  8
SANINDUSA
100
AcDbCircle
 10
4687.703688214231
 20
2501.718705378864
 30
0.0
 40
0.0050000000000001
100
AcDbArc
 50
187.7000000089623
 51
267.50466196645
  0
ARC
  5
1895
330
1F
100
AcDbEntity
  8
SANINDUSA
100
AcDbCircle
 10
4687.703688214231
 20
2501.718705378864
 30
0.0
 40
0.0150000000000001
100
AcDbArc
 50
187.7000000089623
 51
215.4282294851907
  0
ARC
  5
1896
330
1F
100
AcDbEntity
  8
SANINDUSA
100
AcDbCircle
 10
4687.832700968168
 20
2504.678334624402
 30
0.0
 40
2.967439799845147
100
AcDbArc
 50
267.5040095014769
 51
269.3154495363133
  0
LINE
  5
1897
330
1F
100
AcDbEntity
  8
SANINDUSA
100
AcDbLine
 10
4687.809160242658
 20
2501.665617425943
 30
0.0
 11
4687.809160242658
 21
2501.700751339102
 31
0.0
  0
ARC
  5
1898
330
1F
100
AcDbEntity
  8
SANINDUSA
100
AcDbCircle
 10
4687.807160244685
 20
2501.665617422236
 30
0.0
 40
0.002
100
AcDbArc
 50
270.0
 51
0.0
  0
LINE
  5
1899
330
1F
100
AcDbEntity
  8
SANINDUSA
100
AcDbLine
 10
4687.807160246055
 20
2501.66361742189
 30
0.0
 11
4687.799492905718
 21
2501.66361742189
 31
0.0
  0
LINE
  5
189A
330
1F
100
AcDbEntity
  8
SANINDUSA
100
AcDbLine
 10
4687.797500517636
 20
2501.66544311075
 30
0.0
 11
4687.794771204572
 21
2501.696639304066
 31
0.0
  0
ARC
  5
189B
330
1F
100
AcDbEntity
  8
SANINDUSA
100
AcDbCircle
 10
4687.789790230409
 20
2501.696203530804
 30
0.0
 40
0.005
100
AcDbArc
 50
4.999999996291116
 51
89.17565680467493
  0
ARC
  5
189C
330
1F
100
AcDbEntity
  8
SANINDUSA
100
AcDbCircle
 10
4687.832709333844
 20
2504.678615849842
 30
0.0
 40
2.977721126863967
100
AcDbArc
 50
267.4989722736468
 51
269.1755283396923
  0
ARC
  5
189D
330
1F
100
AcDbEntity
  8
SANINDUSA
100
AcDbCircle
 10
4687.702551472147
 20
2501.698735946647
 30
0.0
 40
0.005
100
AcDbArc
 50
87.49955672542888
 51
158.9999999948733
  0
ARC
  5
189E
330
1F
100
AcDbEntity
  8
SANINDUSA
100
AcDbCircle
 10
4687.702551472147
 20
2501.698735946647
 30
0.0
 40
0.015
100
AcDbArc
 50
138.0557803592877
 51
158.9999999948733
  0
ARC
  5
189F
330
1F
100
AcDbEntity
  8
SANINDUSA
100
AcDbCircle
 10
4687.690650737651
 20
2501.709430455446
 30
0.0
 40
0.001
100
AcDbArc
 50
318.0557803592876
 51
35.42822948519069
  0
LINE
  5
18A0
330
1F
100
AcDbEntity
  8
SANINDUSA
100
AcDbLine
 10
4688.066669056992
 20
2501.857027395645
 30
0.0
 11
4688.072198773604
 21
2501.683762823248
 31
0.0
  0
LWPOLYLINE
  5
18AD
330
1F
100
AcDbEntity
  8
SANINDUSA
100
AcDbPolyline
 90
        3
 70
   128
 43
0.0
 10
4687.975265952628
 20
2501.707590390945
 10
4687.975261169355
 20
2501.707555015589
 10
4687.975237454157
 20
2501.707379599119
  0
LWPOLYLINE
  5
18AE
330
1F
100
AcDbEntity
  8
SANINDUSA
100
AcDbPolyline
 90
        4
 70
   128
 43
0.0
 10
4687.961679945569
 20
2501.713872988725
 10
4687.887410691809
 20
2501.713624943996
 10
4687.813142566811
 20
2501.713580940867
 10
4687.703640545588
 20
2501.713872988725
  0
LWPOLYLINE
  5
18AF
330
1F
100
AcDbEntity
  8
SANINDUSA
100
AcDbPolyline
 90
        3
 70
   128
 43
0.0
 10
4687.703640545588
 20
2501.713872988725
 10
4687.70350685237
 20
2501.713743765856
 10
4687.703470523339
 20
2501.713710119033
  0
ARC
  5
18B0
330
1F
100
AcDbEntity
  8
SANINDUSA
100
AcDbCircle
 10
4687.703665489364
 20
2501.718872835858
 30
0.0
 40
0.0049999093531015
100
AcDbArc
 50
187.6997540744351
 51
269.7141590035443
  0
LINE
  5
18B1
330
1F
100
AcDbEntity
  8
SANINDUSA
100
AcDbLine
 10
4687.858160245101
 20
2501.66361742189
 30
0.0
 11
4687.807160246055
 21
2501.66361742189
 31
0.0
  0
LINE
  5
18B3
330
1F
100
AcDbEntity
  8
SANINDUSA
100
AcDbLine
 10
4688.061160246712
 20
2501.861895113269
 30
0.0
 11
4688.024160246235
 21
2501.861895113269
 31
0.0
  0
ARC
  5
18B5
330
1F
100
AcDbEntity
  8
SANINDUSA
100
AcDbCircle
 10
4688.062070944083
 20
2501.857310636053
 30
0.0
 40
0.004606828351386
100
AcDbArc
 50
356.4750755860568
 51
84.35372324426984
  0
LINE
  5
18B6
330
1F
100
AcDbEntity
  8
SANINDUSA
100
AcDbLine
 10
4688.024160246235
 20
2501.873895113373
 30
0.0
 11
4688.061160246712
 21
2501.873895113373
 31
0.0
  0
ARC
  5
18BA
330
1F
100
AcDbEntity
  8
SANINDUSA
100
AcDbCircle
 10
4687.845378522728
 20
2501.693090943071
 30
0.0
 40
0.001200879252575
100
AcDbArc
 50
359.020591414322
 51
80.0458397158494
  0
ARC
  5
18BD
330
1F
100
AcDbEntity
  8
SANINDUSA
100
AcDbCircle
 10
4687.819944536414
 20
2501.693088820287
 30
0.0
 40
0.0012034162510028
100
AcDbArc
 50
100.0572006565529
 51
180.876262693144
  0
ARC
  5
18BF
330
1F
100
AcDbEntity
  8
SANINDUSA
100
AcDbCircle
 10
4687.819813709058
 20
2501.687062381186
 30
0.0
 40
0.0008559823033222
100
AcDbArc
 50
180.6299679676002
 51
279.3452848582683
  0
LINE
  5
18C2
330
1F
100
AcDbEntity
  8
SANINDUSA
100
AcDbLine
 10
4687.818741260898
 20
2501.693070416356
 30
0.0
 11
4687.818957778495
 21
2501.687052969838
 31
0.0
  0
LINE
  5
18C4
330
1F
100
AcDbEntity
  8
SANINDUSA
100
AcDbLine
 10
4687.8463627108
 20
2501.687052969838
 30
0.0
 11
4687.846579226535
 21
2501.693070416356
 31
0.0
  0
ARC
  5
18C6
330
1F
100
AcDbEntity
  8
SANINDUSA
100
AcDbCircle
 10
4687.845510493996
 20
2501.68705795724
 30
0.0
 40
0.000852231397577
100
AcDbArc
 50
260.3600537478259
 51
359.6646932859049
  0
ELLIPSE
  5
18CB
330
1F
100
AcDbEntity
  8
SANINDUSA
100
AcDbEllipse
 10
4687.832660244685
 20
2501.692012747931
 30
0.0
 11
0.0245
 21
0.0
 31
0.0
210
0.0
220
0.0
230
0.9999999999999998
 40
0.1086347643566087
 41
1.015039707854159
 42
2.126552945735635
  0
ELLIPSE
  5
18CC
330
1F
100
AcDbEntity
  8
SANINDUSA
100
AcDbEllipse
 10
4687.832660244685
 20
2501.683942215374
 30
0.0
 11
0.0245
 21
0.0
 31
0.0
210
0.0
220
0.0
230
0.9999999999999998
 40
0.1086347643566087
 41
1.025495809388915
 42
2.116096844200877
  0
LINE
  5
18E0
330
1F
100
AcDbEntity
  8
SANINDUSA
100
AcDbLine
 10
4687.750752287787
 20
2501.70163894167
 30
0.0
 11
4687.75069651274
 21
2501.7020666497
 31
0.0
  0
LWPOLYLINE
  5
18E3
330
1F
100
AcDbEntity
  8
SANINDUSA
100
AcDbPolyline
 90
        5
 70
   128
 43
0.0
 10
4687.975237454157
 20
2501.707379599119
 10
4687.975167351645
 20
2501.706861128116
 10
4687.97497031359
 20
2501.705403809453
 10
4687.974667663556
 20
2501.703165357018
 10
4687.974456283134
 20
2501.701601956988
  0
LWPOLYLINE
  5
18E5
330
1F
100
AcDbEntity
  8
SANINDUSA
100
AcDbPolyline
 90
       47
 70
   128
 43
0.0
 10
4687.832660245579
 20
2501.860021348128
 10
4687.834158076774
 20
2501.859919818135
 10
4687.835628009271
 20
2501.859617116878
 10
4687.837042658459
 20
2501.859118884446
 10
4687.838375667911
 20
2501.85843440147
 10
4687.839602212291
 20
2501.857576419616
 10
4687.840699440669
 20
2501.85656091852
 10
4687.84164691424
 20
2501.85540681986
 10
4687.842426982578
 20
2501.854135616699
 10
4687.843025115188
 20
2501.852770994434
 10
4687.843430169728
 20
2501.851338368858
 10
4687.84363460062
 20
2501.849864431674
 10
4687.84363460062
 20
2501.848376634548
 10
4687.843430169728
 20
2501.846902697364
 10
4687.843025115188
 20
2501.845470071787
 10
4687.842426982578
 20
2501.844105449522
 10
4687.84164691424
 20
2501.842834248225
 10
4687.840699440669
 20
2501.841680147702
 10
4687.839602212291
 20
2501.840664648468
 10
4687.838375667911
 20
2501.839806665683
 10
4687.837042658459
 20
2501.839122180844
 10
4687.835628009271
 20
2501.838623949343
 10
4687.834158076774
 20
2501.838321247155
 10
4687.832660245579
 20
2501.838219718093
 10
4687.831162410658
 20
2501.838321247155
 10
4687.829692481886
 20
2501.838623949343
 10
4687.828277832698
 20
2501.839122180844
 10
4687.826944819522
 20
2501.839806665683
 10
4687.825718278866
 20
2501.840664648468
 10
4687.824621050488
 20
2501.841680147702
 10
4687.823673575056
 20
2501.842834248225
 10
4687.822893506717
 20
2501.844105449522
 10
4687.822295374107
 20
2501.845470071787
 10
4687.821890319567
 20
2501.846902697364
 10
4687.821685886812
 20
2501.848376634548
 10
4687.821685886812
 20
2501.849864431674
 10
4687.821890319567
 20
2501.851338368858
 10
4687.822295374107
 20
2501.852770994434
 10
4687.822893506717
 20
2501.854135616699
 10
4687.823673575056
 20
2501.85540681986
 10
4687.824621050488
 20
2501.85656091852
 10
4687.825718278866
 20
2501.857576419616
 10
4687.826944819522
 20
2501.85843440147
 10
4687.828277832698
 20
2501.859118884446
 10
4687.829692481886
 20
2501.859617116878
 10
4687.831162410658
 20
2501.859919818135
 10
4687.832660245579
 20
2501.860021348128
  0
ARC
  5
18E6
330
1F
100
AcDbEntity
  8
SANINDUSA
100
AcDbCircle
 10
4687.775421692697
 20
2501.699878749553
 30
0.0
 40
0.0031221235218823
100
AcDbArc
 50
147.6405066171659
 51
162.2331545278872
  0
ARC
  5
18E8
330
1F
100
AcDbEntity
  8
SANINDUSA
100
AcDbCircle
 10
4687.890479713519
 20
2501.70018664628
 30
0.0
 40
0.0024776779685185
100
AcDbArc
 50
15.08455605812798
 51
34.39602574783928
  0
LINE
  5
18EF
330
1F
100
AcDbEntity
  8
SANINDUSA
100
AcDbLine
 10
4687.974456283134
 20
2501.701601956988
 30
0.0
 11
4687.97126528142
 21
2501.678000797534
 31
0.0
  0
LINE
  5
18F5
330
1F
100
AcDbEntity
  8
SANINDUSA
100
AcDbLine
 10
4687.753915811759
 20
2501.677377914095
 30
0.0
 11
4687.750752287787
 21
2501.70163894167
 31
0.0
  0
LINE
  5
18F6
330
1F
100
AcDbEntity
  8
SANINDUSA
100
AcDbLine
 10
4687.893054881003
 20
2501.699946929718
 30
0.0
 11
4687.892872017678
 21
2501.700831447745
 31
0.0
  0
LINE
  5
18F7
330
1F
100
AcDbEntity
  8
SANINDUSA
100
AcDbLine
 10
4687.772448475342
 20
2501.700831447745
 30
0.0
 11
4687.772265608292
 21
2501.699946929718
 31
0.0
  0
LINE
  5
18F8
330
1F
100
AcDbEntity
  8
SANINDUSA
100
AcDbLine
 10
4687.895101024639
 20
2501.678421949053
 30
0.0
 11
4687.893054881003
 21
2501.699946929718
 31
0.0
  0
LINE
  5
18FA
330
1F
100
AcDbEntity
  8
SANINDUSA
100
AcDbLine
 10
4687.772265608292
 20
2501.699946929718
 30
0.0
 11
4687.770133401136
 21
2501.677516584301
 31
0.0
  0
LINE
  5
18FE
330
1F
100
AcDbEntity
  8
SANINDUSA
100
AcDbLine
 10
4687.967214594465
 20
2501.673895110393
 30
0.0
 11
4687.900078586173
 21
2501.673895110393
 31
0.0
  0
ARC
  5
18FF
330
1F
100
AcDbEntity
  8
SANINDUSA
100
AcDbCircle
 10
4687.96721459803
 20
2501.677895113373
 30
0.0
 40
0.004
100
AcDbArc
 50
270.0
 51
352.2999999910377
  0
LWPOLYLINE
  5
1900
330
1F
100
AcDbEntity
  8
SANINDUSA
100
AcDbPolyline
 90
        7
 70
   128
 43
0.0
 10
4687.97126528142
 20
2501.678000797534
 10
4687.971241089385
 20
2501.677821864391
 10
4687.971219817978
 20
2501.677664508129
 10
4687.971202309113
 20
2501.67753504684
 10
4687.971189278047
 20
2501.67743866613
 10
4687.971181246322
 20
2501.677379240299
 10
4687.971178534311
 20
2501.677359168434
  0
LINE
  5
1902
330
1F
100
AcDbEntity
  8
SANINDUSA
100
AcDbLine
 10
4687.758843968492
 20
2501.673895110393
 30
0.0
 11
4687.757882232648
 21
2501.673895110393
 31
0.0
  0
ARC
  5
1903
330
1F
100
AcDbEntity
  8
SANINDUSA
100
AcDbCircle
 10
4687.75788223164
 20
2501.677895113373
 30
0.0
 40
0.004
100
AcDbArc
 50
187.4291839787537
 51
270.0
  0
ARC
  5
1904
330
1F
100
AcDbEntity
  8
SANINDUSA
100
AcDbCircle
 10
4687.766151352501
 20
2501.677895113373
 30
0.0
 40
0.004
100
AcDbArc
 50
270.0
 51
354.5698359514168
  0
LINE
  5
1905
330
1F
100
AcDbEntity
  8
SANINDUSA
100
AcDbLine
 10
4687.76615134893
 20
2501.673895110393
 30
0.0
 11
4687.765180910807
 21
2501.673895110393
 31
0.0
  0
LINE
  5
1907
330
1F
100
AcDbEntity
  8
SANINDUSA
100
AcDbLine
 10
4687.765180910807
 20
2501.673895110393
 30
0.0
 11
4687.758843968492
 21
2501.673895110393
 31
0.0
  0
ELLIPSE
  5
190A
330
1F
100
AcDbEntity
  8
SANINDUSA
100
AcDbEllipse
 10
4687.994438342791
 20
2501.812075168094
 30
0.0
 11
0.0237042726550233
 21
0.1380033254105139
 31
0.0
210
0.0
220
0.0
230
1.0
 40
0.0000403065525878
 41
4.184670515100995
 42
4.706986928710022
  0
ELLIPSE
  5
1912
330
1F
100
AcDbEntity
  8
SANINDUSA
100
AcDbEllipse
 10
4688.062865304059
 20
2501.792723486067
 30
0.0
 11
-0.0087843141785478
 21
0.1184955515002721
 31
0.0
210
0.0
220
0.0
230
1.0
 40
0.0000564556297087
 41
1.573154282583424
 42
2.739340524429271
  0
LINE
  5
1914
330
1F
100
AcDbEntity
  8
SANINDUSA
100
AcDbLine
 10
4687.98211988328
 20
2501.873895113373
 30
0.0
 11
4687.992029714268
 21
2501.873895113373
 31
0.0
  0
LINE
  5
1916
330
1F
100
AcDbEntity
  8
SANINDUSA
100
AcDbLine
 10
4687.67329078434
 20
2501.873895113373
 30
0.0
 11
4687.683200607877
 21
2501.873895113373
 31
0.0
  0
LWPOLYLINE
  5
1917
330
1F
100
AcDbEntity
  8
SANINDUSA
100
AcDbPolyline
 90
        5
 70
   128
 43
0.0
 10
4687.972117702346
 20
2501.682068471814
 10
4687.973262335043
 20
2501.68873329928
 10
4687.976644295138
 20
2501.708429937268
 10
4687.980028140229
 20
2501.728141461516
 10
4687.982506538611
 20
2501.74258091023
  0
LWPOLYLINE
  5
1919
330
1F
100
AcDbEntity
  8
SANINDUSA
100
AcDbPolyline
 90
       45
 70
   128
 43
0.0
 10
4687.832660245579
 20
2501.858896379376
 10
4687.831237095278
 20
2501.858795511553
 10
4687.829842920285
 20
2501.858494961651
 10
4687.828506096136
 20
2501.858000847528
 10
4687.827253836077
 20
2501.857323228398
 10
4687.826111635994
 20
2501.856475898082
 10
4687.82510274915
 20
2501.855476106534
 10
4687.824247709346
 20
2501.854344206879
 10
4687.823563924861
 20
2501.853103240037
 10
4687.82306531338
 20
2501.851778469065
 10
4687.822762030047
 20
2501.850396863202
 10
4687.82266024394
 20
2501.848986546526
 10
4687.822762030047
 20
2501.847576231713
 10
4687.82306531338
 20
2501.846194623987
 10
4687.823563924861
 20
2501.844869854877
 10
4687.824247709346
 20
2501.843628888035
 10
4687.82510274915
 20
2501.842496988381
 10
4687.826111635994
 20
2501.84149719497
 10
4687.827253836077
 20
2501.840649866516
 10
4687.828506096136
 20
2501.839972247387
 10
4687.829842920285
 20
2501.839478132332
 10
4687.831237095278
 20
2501.839177583361
 10
4687.832660245579
 20
2501.839076713676
 10
4687.834083392155
 20
2501.839177583361
 10
4687.835477570873
 20
2501.839478132332
 10
4687.836814395022
 20
2501.839972247387
 10
4687.838066651355
 20
2501.840649866516
 10
4687.839208851438
 20
2501.84149719497
 10
4687.840217742007
 20
2501.842496988381
 10
4687.841072781813
 20
2501.843628888035
 10
4687.841756564434
 20
2501.844869854877
 10
4687.842255174052
 20
2501.846194623987
 10
4687.842558459248
 20
2501.847576231713
 10
4687.842660245356
 20
2501.848986546526
 10
4687.842558459248
 20
2501.850396863202
 10
4687.842255174052
 20
2501.851778469065
 10
4687.841756564434
 20
2501.853103240037
 10
4687.841072781813
 20
2501.854344206879
 10
4687.840217742007
 20
2501.855476106534
 10
4687.839208851438
 20
2501.856475898082
 10
4687.838066651355
 20
2501.857323228398
 10
4687.836814395022
 20
2501.858000847528
 10
4687.835477570873
 20
2501.858494961651
 10
4687.834083392155
 20
2501.858795511553
 10
4687.832660245579
 20
2501.858896379376
  0
ARC
  5
191A
330
1F
100
AcDbEntity
  8
SANINDUSA
100
AcDbCircle
 10
4687.832660243716
 20
2501.847684581541
 30
0.0
 40
0.0100059213655918
100
AcDbArc
 50
4.006031908076828
 51
175.9939680919232
  0
LINE
  5
191B
330
1F
100
AcDbEntity
  8
SANINDUSA
100
AcDbLine
 10
4688.059829856139
 20
2501.818627649004
 30
0.0
 11
4688.062879334074
 21
2501.792443585599
 31
0.0
  0
ARC
  5
191C
330
1F
100
AcDbEntity
  8
SANINDUSA
100
AcDbCircle
 10
4688.034997690088
 20
2501.815735620111
 30
0.0
 40
0.0250000000000001
100
AcDbArc
 50
6.642917457695424
 51
90.0
  0
LINE
  5
191D
330
1F
100
AcDbEntity
  8
SANINDUSA
100
AcDbLine
 10
4688.020774061661
 20
2501.840735618973
 30
0.0
 11
4688.034997696858
 21
2501.840735618973
 31
0.0
  0
ARC
  5
191E
330
1F
100
AcDbEntity
  8
SANINDUSA
100
AcDbCircle
 10
4688.020774060485
 20
2501.815735620111
 30
0.0
 40
0.0250000000000001
100
AcDbArc
 50
90.0
 51
168.212489915393
  0
LINE
  5
191F
330
1F
100
AcDbEntity
  8
SANINDUSA
100
AcDbLine
 10
4687.994315850418
 20
2501.811328713799
 30
0.0
 11
4687.996301258784
 21
2501.820842687989
 31
0.0
  0
LINE
  5
1921
330
1F
100
AcDbEntity
  8
SANINDUSA
100
AcDbLine
 10
4688.034997696858
 20
2501.835895114596
 30
0.0
 11
4688.020774061661
 21
2501.835895114596
 31
0.0
  0
ARC
  5
1923
330
1F
100
AcDbEntity
  8
SANINDUSA
100
AcDbCircle
 10
4688.020774060485
 20
2501.815895113373
 30
0.0
 40
0.02
100
AcDbArc
 50
90.0
 51
168.212489915393
  0
ARC
  5
1926
330
1F
100
AcDbEntity
  8
SANINDUSA
100
AcDbCircle
 10
4688.034997690088
 20
2501.815895113373
 30
0.0
 40
0.02
100
AcDbArc
 50
6.642917457695424
 51
90.0
  0
ARC
  5
1927
330
1F
100
AcDbEntity
  8
SANINDUSA
100
AcDbCircle
 10
4688.075737226188
 20
2501.683682424324
 30
0.0
 40
0.0047913732496804
100
AcDbArc
 50
179.9589306128142
 51
267.6384002365352
  0
LINE
  5
1928
330
1F
100
AcDbEntity
  8
SANINDUSA
100
AcDbLine
 10
4688.076343635898
 20
2501.678895120526
 30
0.0
 11
4688.075539792758
 21
2501.678895120526
 31
0.0
  0
LINE
  5
1929
330
1F
100
AcDbEntity
  8
SANINDUSA
100
AcDbLine
 10
4688.0011958283
 20
2501.819980767573
 30
0.0
 11
4687.999210412484
 21
2501.810466793383
 31
0.0
  0
LINE
  5
192C
330
1F
100
AcDbEntity
  8
SANINDUSA
100
AcDbLine
 10
4688.057912896257
 20
2501.792024669255
 30
0.0
 11
4688.054863418322
 21
2501.818208736385
 31
0.0
  0
LINE
  5
192D
330
1F
100
AcDbEntity
  8
SANINDUSA
100
AcDbLine
 10
4687.683200607877
 20
2501.873895113373
 30
0.0
 11
4687.98211988328
 21
2501.873895113373
 31
0.0
  0
LWPOLYLINE
  5
192F
330
1F
100
AcDbEntity
  8
SANINDUSA
100
AcDbPolyline
 90
       14
 70
   128
 43
0.0
 10
4687.999210412484
 20
2501.810466793383
 10
4687.998059357386
 20
2501.804951001907
 10
4687.996910358648
 20
2501.799445052648
 10
4687.995765271466
 20
2501.79395784905
 10
4687.994625943582
 20
2501.788498234952
 10
4687.99349420784
 20
2501.783075031842
 10
4687.992371897083
 20
2501.777696979249
 10
4687.991260821801
 20
2501.772372772003
 10
4687.990162777584
 20
2501.767111000622
 10
4687.989079537671
 20
2501.761920151318
 10
4687.988012845497
 20
2501.756808613444
 10
4687.986964422147
 20
2501.751784627343
 10
4687.985935958903
 20
2501.746856306696
 10
4687.984929124694
 20
2501.742031608725
  0
LINE
  5
1935
330
1F
100
AcDbEntity
  8
SANINDUSA
100
AcDbLine
 10
4688.089969645124
 20
2501.673895110393
 30
0.0
 11
4688.058010320049
 21
2501.673895110393
 31
0.0
  0
LINE
  5
1936
330
1F
100
AcDbEntity
  8
SANINDUSA
100
AcDbLine
 10
4687.677660251837
 20
2501.673895110393
 30
0.0
 11
4687.655350844245
 21
2501.673895110393
 31
0.0
  0
LWPOLYLINE
  5
193C
330
1F
100
AcDbEntity
  8
SANINDUSA
100
AcDbPolyline
 90
       29
 70
   128
 43
0.0
 10
4688.070573354941
 20
2501.683316712285
 10
4688.070337007623
 20
2501.685346116329
 10
4688.070079083424
 20
2501.687560771609
 10
4688.069800029379
 20
2501.689956818724
 10
4688.069500337224
 20
2501.692530100251
 10
4688.069180528503
 20
2501.695276160742
 10
4688.068841139656
 20
2501.698190231824
 10
4688.06848278163
 20
2501.701267262006
 10
4688.068106065374
 20
2501.70450190177
 10
4688.067711646538
 20
2501.70788856318
 10
4688.067300210576
 20
2501.71142137518
 10
4688.066872457843
 20
2501.715094183589
 10
4688.066429148298
 20
2501.718900625611
 10
4688.0659710419
 20
2501.722834114934
 10
4688.065498928409
 20
2501.726887811924
 10
4688.065013642293
 20
2501.731054698134
 10
4688.064516018015
 20
2501.7353275316
 10
4688.064006919843
 20
2501.739698921347
 10
4688.063487212043
 20
2501.744161267782
 10
4688.06295781849
 20
2501.748706852103
 10
4688.062419663054
 20
2501.753327769244
 10
4688.061873654705
 20
2501.758016009832
 10
4688.061320747118
 20
2501.762763445283
 10
4688.060761908871
 20
2501.767561842704
 10
4688.060198108535
 20
2501.772402879799
 10
4688.059630314689
 20
2501.777278159762
 10
4688.059059525709
 20
2501.782179218734
 10
4688.058486725074
 20
2501.787097570503
 10
4688.057912896257
 20
2501.792024669255
  0
LWPOLYLINE
  5
193D
330
1F
100
AcDbEntity
  8
SANINDUSA
100
AcDbPolyline
 90
        5
 70
   128
 43
0.0
 10
4687.984929124694
 20
2501.742031608725
 10
4687.980843606275
 20
2501.722454016114
 10
4687.976758087855
 20
2501.702876408602
 10
4687.972672822755
 20
2501.683300037885
 10
4687.972416558546
 20
2501.682072020159
  0
ARC
  5
193F
330
1F
100
AcDbEntity
  8
SANINDUSA
100
AcDbCircle
 10
4688.075539792872
 20
2501.683895113373
 30
0.0
 40
0.005
100
AcDbArc
 50
186.6429174576954
 51
270.0
  0
ARC
  5
1951
330
1F
100
AcDbEntity
  8
SANINDUSA
100
AcDbCircle
 10
4688.033660244685
 20
2501.808895113374
 30
0.0
 40
0.01
100
AcDbArc
 50
270.0
 51
90.0
  0
LINE
  5
1952
330
1F
100
AcDbEntity
  8
SANINDUSA
100
AcDbLine
 10
4688.033660243135
 20
2501.818895113672
 30
0.0
 11
4688.02366023777
 21
2501.818895113672
 31
0.0
  0
ARC
  5
1953
330
1F
100
AcDbEntity
  8
SANINDUSA
100
AcDbCircle
 10
4688.023660244684
 20
2501.808895113374
 30
0.0
 40
0.01
100
AcDbArc
 50
90.0
 51
270.0
  0
LINE
  5
1954
330
1F
100
AcDbEntity
  8
SANINDUSA
100
AcDbLine
 10
4688.02366023777
 20
2501.798895110393
 30
0.0
 11
4688.033660243135
 21
2501.798895110393
 31
0.0
  0
ARC
  5
195B
330
1F
100
AcDbEntity
  8
SANINDUSA
100
AcDbCircle
 10
4687.968505607666
 20
2501.682888317484
 30
0.0
 40
0.0039952319216752
100
AcDbArc
 50
320.3407127895737
 51
348.2110560785128
  0
LWPOLYLINE
  5
195C
330
1F
100
AcDbEntity
  8
SANINDUSA
100
AcDbPolyline
 90
        3
 70
   128
 43
0.0
 10
4687.753264422398
 20
2501.682373394275
 10
4687.753263982814
 20
2501.682376776839
 10
4687.753263833802
 20
2501.682377909328
  0
LINE
  5
1963
330
1F
100
AcDbEntity
  8
SANINDUSA
100
AcDbLine
 10
4687.9839705926
 20
2501.673895110393
 30
0.0
 11
4687.971551458221
 21
2501.673895110393
 31
0.0
  0
LINE
  5
1968
330
1F
100
AcDbEntity
  8
SANINDUSA
100
AcDbLine
 10
4687.895187088158
 20
2501.677516584301
 30
0.0
 11
4687.895101024639
 21
2501.678421949053
 31
0.0
  0
LINE
  5
196C
330
1F
100
AcDbEntity
  8
SANINDUSA
100
AcDbLine
 10
4687.971551458221
 20
2501.673895110393
 30
0.0
 11
4687.967214594465
 21
2501.673895110393
 31
0.0
  0
ARC
  5
196D
330
1F
100
AcDbEntity
  8
SANINDUSA
100
AcDbCircle
 10
4687.899169136868
 20
2501.677895113373
 30
0.0
 40
0.004
100
AcDbArc
 50
185.4301640485832
 51
270.0
  0
LINE
  5
196E
330
1F
100
AcDbEntity
  8
SANINDUSA
100
AcDbLine
 10
4687.900126115288
 20
2501.673895110393
 30
0.0
 11
4687.89916913664
 21
2501.673895110393
 31
0.0
  0
LINE
  5
1970
330
1F
100
AcDbEntity
  8
SANINDUSA
100
AcDbLine
 10
4687.678258980494
 20
2501.673895110393
 30
0.0
 11
4687.677660251837
 21
2501.673895110393
 31
0.0
  0
LINE
  5
1973
330
1F
100
AcDbEntity
  8
SANINDUSA
100
AcDbLine
 10
4687.680546994191
 20
2501.673895110393
 30
0.0
 11
4687.678258980494
 21
2501.673895110393
 31
0.0
  0
LINE
  5
1974
330
1F
100
AcDbEntity
  8
SANINDUSA
100
AcDbLine
 10
4687.75788223164
 20
2501.673895113373
 30
0.0
 11
4687.684223840814
 21
2501.673895110393
 31
0.0
  0
LINE
  5
1975
330
1F
100
AcDbEntity
  8
SANINDUSA
100
AcDbLine
 10
4688.058010320049
 20
2501.673895110393
 30
0.0
 11
4687.9839705926
 21
2501.673895110393
 31
0.0
  0
LINE
  5
1977
330
1F
100
AcDbEntity
  8
SANINDUSA
100
AcDbLine
 10
4687.677660251837
 20
2501.687739483495
 30
0.0
 11
4687.677660251837
 21
2501.799260553921
 31
0.0
  0
ARC
  5
197C
330
1F
100
AcDbEntity
  8
SANINDUSA
100
AcDbCircle
 10
4687.968284292158
 20
2501.682517429514
 30
0.0
 40
0.0038596109502859
100
AcDbArc
 50
329.5476259325121
 51
353.3201176247749
  0
LINE
  5
198A
330
1F
100
AcDbEntity
  8
SANINDUSA
100
AcDbLine
 10
4687.179630355207
 20
2501.860021348128
 30
0.0
 11
4687.18257805076
 21
2501.838219718093
 31
0.0
  0
LINE
  5
198C
330
1F
100
AcDbEntity
  8
SANINDUSA
100
AcDbLine
 10
4687.169854515461
 20
2501.857690502907
 30
0.0
 11
4687.172534235982
 21
2501.837870840932
 31
0.0
  0
ENDSEC
  0
SECTION
  2
OBJECTS
  0
DICTIONARY
  5
C
330
0
100
AcDbDictionary
281
     1
  3
ACAD_2007HEADERVARS_RT
350
1DB5
  3
ACAD_COLOR
350
EE6
  3
ACAD_GROUP
350
D
  3
ACAD_LAYOUT
350
1A
  3
ACAD_MATERIAL
350
EE5
  3
ACAD_MLEADERSTYLE
350
1D85
  3
ACAD_MLINESTYLE
350
17
  3
ACAD_PLOTSETTINGS
350
19
  3
ACAD_PLOTSTYLENAME
350
E
  3
ACAD_SCALELIST
350
1D73
  3
ACAD_TABLESTYLE
350
EE7
  3
ACAD_VISUALSTYLE
350
1D5F
  3
ACDB_RECOMPOSE_DATA
350
1DB3
  3
AcDbVariableDictionary
350
3D
  3
ASE_INDEX_DICTIONARY
350
E77
  3
DWGPROPS
350
1DB4
  0
DICTIONARY
  5
1051
330
2
100
AcDbDictionary
280
     1
281
     1
  3
ACAD_LAYERFILTERS
360
1057
  3
ACLYDICTIONARY
360
1056
  0
DICTIONARY
  5
1D8E
330
10
100
AcDbDictionary
280
     1
281
     1
  3
ADSK_XREC_LAYER_RECONCILED
360
1D8F
  0
DICTIONARY
  5
1D90
330
2F
100
AcDbDictionary
280
     1
281
     1
  3
ADSK_XREC_LAYER_RECONCILED
360
1D91
  0
DICTIONARY
  5
1D92
330
30
100
AcDbDictionary
280
     1
281
     1
  3
ADSK_XREC_LAYER_RECONCILED
360
1D93
  0
DICTIONARY
  5
1D94
330
31
100
AcDbDictionary
280
     1
281
     1
  3
ADSK_XREC_LAYER_RECONCILED
360
1D95
  0
DICTIONARY
  5
1D96
330
32
100
AcDbDictionary
280
     1
281
     1
  3
ADSK_XREC_LAYER_RECONCILED
360
1D97
  0
DICTIONARY
  5
1D98
330
33
100
AcDbDictionary
280
     1
281
     1
  3
ADSK_XREC_LAYER_RECONCILED
360
1D99
  0
DICTIONARY
  5
1D9A
330
34
100
AcDbDictionary
280
     1
281
     1
  3
ADSK_XREC_LAYER_RECONCILED
360
1D9B
  0
DICTIONARY
  5
1D9C
330
35
100
AcDbDictionary
280
     1
281
     1
  3
ADSK_XREC_LAYER_RECONCILED
360
1D9D
  0
DICTIONARY
  5
1D9E
330
36
100
AcDbDictionary
280
     1
281
     1
  3
ADSK_XREC_LAYER_RECONCILED
360
1D9F
  0
DICTIONARY
  5
1DA0
330
37
100
AcDbDictionary
280
     1
281
     1
  3
ADSK_XREC_LAYER_RECONCILED
360
1DA1
  0
DICTIONARY
  5
1DA2
330
5D6
100
AcDbDictionary
280
     1
281
     1
  3
ADSK_XREC_LAYER_RECONCILED
360
1DA3
  0
DICTIONARY
  5
1DA4
330
8AF
100
AcDbDictionary
280
     1
281
     1
  3
ADSK_XREC_LAYER_RECONCILED
360
1DA5
  0
DICTIONARY
  5
1DA6
330
8F8
100
AcDbDictionary
280
     1
281
     1
  3
ADSK_XREC_LAYER_RECONCILED
360
1DA7
  0
DICTIONARY
  5
1DA8
330
91D
100
AcDbDictionary
280
     1
281
     1
  3
ADSK_XREC_LAYER_RECONCILED
360
1DA9
  0
DICTIONARY
  5
1DAA
330
C7B
100
AcDbDictionary
280
     1
281
     1
  3
ADSK_XREC_LAYER_RECONCILED
360
1DAB
  0
DICTIONARY
  5
1DB5
102
{ACAD_REACTORS
330
C
102
}
330
C
100
AcDbDictionary
281
     1
  3
DIMJOGANG
350
1DB6
  0
DICTIONARY
  5
EE6
102
{ACAD_REACTORS
330
C
102
}
330
C
100
AcDbDictionary
281
     1
  0
DICTIONARY
  5
D
102
{ACAD_REACTORS
330
C
102
}
330
C
100
AcDbDictionary
281
     1
  0
DICTIONARY
  5
1A
102
{ACAD_REACTORS
330
C
102
}
330
C
100
AcDbDictionary
281
     1
  3
Layout1
350
1E
  3
Layout2
350
26
  3
Model
350
22
  0
DICTIONARY
  5
EE5
102
{ACAD_REACTORS
330
C
102
}
330
C
100
AcDbDictionary
281
     1
  3
ByBlock
350
1D4F
  3
ByLayer
350
1D47
  3
Global
350
1D57
  0
DICTIONARY
  5
1D85
102
{ACAD_REACTORS
330
C
102
}
330
C
100
AcDbDictionary
281
     1
  3
Standard
350
1D86
  0
DICTIONARY
  5
17
102
{ACAD_REACTORS
330
C
102
}
330
C
100
AcDbDictionary
281
     1
  3
Standard
350
18
  0
DICTIONARY
  5
19
102
{ACAD_REACTORS
330
C
102
}
330
C
100
AcDbDictionary
281
     1
  0
ACDBDICTIONARYWDFLT
  5
E
102
{ACAD_REACTORS
330
C
102
}
330
C
100
AcDbDictionary
281
     1
  3
Normal
350
F
100
AcDbDictionaryWithDefault
340
F
  0
DICTIONARY
  5
1D73
102
{ACAD_REACTORS
330
C
102
}
330
C
100
AcDbDictionary
281
     1
  3
A0
350
1D74
  3
A1
350
1D75
  3
A2
350
1D76
  3
A3
350
1D77
  3
A4
350
1D78
  3
A5
350
1D79
  3
A6
350
1D7A
  3
A7
350
1D7B
  3
A8
350
1D7C
  3
A9
350
1D7D
  3
B0
350
1D7E
  3
B1
350
1D7F
  3
B2
350
1D80
  3
B3
350
1D81
  3
B4
350
1D82
  3
B5
350
1D83
  3
B6
350
1D84
  0
DICTIONARY
  5
EE7
102
{ACAD_REACTORS
330
C
102
}
330
C
100
AcDbDictionary
281
     1
  3
Standard
350
EE8
  0
DICTIONARY
  5
1D5F
102
{ACAD_REACTORS
330
C
102
}
330
C
100
AcDbDictionary
281
     1
  3
2dWireframe
350
1D65
  3
3D Hidden
350
1D67
  3
3dWireframe
350
1D66
  3
Basic
350
1D64
  3
Brighten
350
1D6B
  3
ColorChange
350
1D6F
  3
Conceptual
350
1D68
  3
Dim
350
1D6A
  3
EdgeColorOff
350
1D72
  3
Facepattern
350
1D6E
  3
Flat
350
1D60
  3
FlatWithEdges
350
1D61
  3
Gouraud
350
1D62
  3
GouraudWithEdges
350
1D63
  3
JitterOff
350
1D70
  3
Linepattern
350
1D6D
  3
OverhangOff
350
1D71
  3
Realistic
350
1D69
  3
Thicken
350
1D6C
  0
XRECORD
  5
1DB3
102
{ACAD_REACTORS
330
C
102
}
330
C
100
AcDbXrecord
280
     1
 90
        1
330
EE8
  0
DICTIONARY
  5
3D
102
{ACAD_REACTORS
330
C
102
}
330
C
100
AcDbDictionary
281
     1
  3
CANNOSCALE
350
1DAD
  3
CMLEADERSTYLE
350
1DAC
  3
CTABLESTYLE
350
1049
  3
DIMASSOC
350
3F
  3
HIDETEXT
350
3E
  3
INDEXCTL
350
1DAF
  3
PROJECTNAME
350
1D23
  3
SORTENTS
350
1DAE
  3
XCLIPFRAME
350
1DB0
  0
DICTIONARY
  5
E77
102
{ACAD_REACTORS
330
C
102
}
330
C
100
AcDbDictionary
281
     1
  3
ASEBlockHierarchyIndexRecord
350
E78
1001
DCO15
1040
1552647238.734
  0
XRECORD
  5
1DB4
102
{ACAD_REACTORS
330
C
102
}
330
C
100
AcDbXrecord
280
     1
  1
DWGPROPS COOKIE
  2

  3

  4

  6

  7

  8
Julio
  9

300
=
301
=
302
=
303
=
304
=
305
=
306
=
307
=
308
=
309
=
 40
0.0085168981481482
 41
2454195.614455289
 42
2456147.504874305
  1

 90
        0
  0
DICTIONARY
  5
1057
102
{ACAD_REACTORS
330
1051
102
}
330
1051
100
AcDbDictionary
281
     1
  0
DICTIONARY
  5
1056
102
{ACAD_REACTORS
330
1051
102
}
330
1051
100
AcDbDictionary
281
     1
1001
ACAD
1000
<All
  0
XRECORD
  5
1D8F
102
{ACAD_REACTORS
330
1D8E
102
}
330
1D8E
100
AcDbXrecord
280
     1
290
     1
  0
XRECORD
  5
1D91
102
{ACAD_REACTORS
330
1D90
102
}
330
1D90
100
AcDbXrecord
280
     1
290
     1
  0
XRECORD
  5
1D93
102
{ACAD_REACTORS
330
1D92
102
}
330
1D92
100
AcDbXrecord
280
     1
290
     1
  0
XRECORD
  5
1D95
102
{ACAD_REACTORS
330
1D94
102
}
330
1D94
100
AcDbXrecord
280
     1
290
     1
  0
XRECORD
  5
1D97
102
{ACAD_REACTORS
330
1D96
102
}
330
1D96
100
AcDbXrecord
280
     1
290
     1
  0
XRECORD
  5
1D99
102
{ACAD_REACTORS
330
1D98
102
}
330
1D98
100
AcDbXrecord
280
     1
290
     1
  0
XRECORD
  5
1D9B
102
{ACAD_REACTORS
330
1D9A
102
}
330
1D9A
100
AcDbXrecord
280
     1
290
     1
  0
XRECORD
  5
1D9D
102
{ACAD_REACTORS
330
1D9C
102
}
330
1D9C
100
AcDbXrecord
280
     1
290
     1
  0
XRECORD
  5
1D9F
102
{ACAD_REACTORS
330
1D9E
102
}
330
1D9E
100
AcDbXrecord
280
     1
290
     1
  0
XRECORD
  5
1DA1
102
{ACAD_REACTORS
330
1DA0
102
}
330
1DA0
100
AcDbXrecord
280
     1
290
     1
  0
XRECORD
  5
1DA3
102
{ACAD_REACTORS
330
1DA2
102
}
330
1DA2
100
AcDbXrecord
280
     1
290
     1
  0
XRECORD
  5
1DA5
102
{ACAD_REACTORS
330
1DA4
102
}
330
1DA4
100
AcDbXrecord
280
     1
290
     1
  0
XRECORD
  5
1DA7
102
{ACAD_REACTORS
330
1DA6
102
}
330
1DA6
100
AcDbXrecord
280
     1
290
     1
  0
XRECORD
  5
1DA9
102
{ACAD_REACTORS
330
1DA8
102
}
330
1DA8
100
AcDbXrecord
280
     1
290
     1
  0
XRECORD
  5
1DAB
102
{ACAD_REACTORS
330
1DAA
102
}
330
1DAA
100
AcDbXrecord
280
     1
290
     1
  0
XRECORD
  5
1DB6
102
{ACAD_REACTORS
330
1DB5
102
}
330
1DB5
100
AcDbXrecord
280
     1
 40
1.570796326794896
  0
LAYOUT
  5
1E
102
{ACAD_XDICTIONARY
360
1DB7
102
}
102
{ACAD_REACTORS
330
1A
102
}
330
1A
100
AcDbPlotSettings
  1

  2
Ploter HP500
  4

  6

 40
0.0
 41
0.0
 42
0.0
 43
0.0
 44
0.0
 45
0.0
 46
0.0
 47
0.0
 48
0.0
 49
0.0
140
0.0
141
0.0
142
1.0
143
1.0
 70
   688
 72
     0
 73
     0
 74
     5
  7
sanindusa.ctb
 75
    16
147
1.0
148
0.0
149
0.0
100
AcDbLayout
  1
Layout1
 70
     1
 71
     1
 10
0.0
 20
0.0
 11
420.0
 21
297.0
 12
0.0
 22
0.0
 32
0.0
 14
1.000000000000000E+20
 24
1.000000000000000E+20
 34
1.000000000000000E+20
 15
-1.000000000000000E+20
 25
-1.000000000000000E+20
 35
-1.000000000000000E+20
146
0.0
 13
0.0
 23
0.0
 33
0.0
 16
1.0
 26
0.0
 36
0.0
 17
0.0
 27
1.0
 37
0.0
 76
     0
330
1B
  0
LAYOUT
  5
26
102
{ACAD_XDICTIONARY
360
1DBB
102
}
102
{ACAD_REACTORS
330
1A
102
}
330
1A
100
AcDbPlotSettings
  1

  2
Ploter HP500
  4

  6

 40
0.0
 41
0.0
 42
0.0
 43
0.0
 44
0.0
 45
0.0
 46
0.0
 47
0.0
 48
0.0
 49
0.0
140
0.0
141
0.0
142
1.0
143
1.0
 70
   688
 72
     0
 73
     0
 74
     5
  7
sanindusa.ctb
 75
    16
147
1.0
148
0.0
149
0.0
100
AcDbLayout
  1
Layout2
 70
     1
 71
     2
 10
0.0
 20
0.0
 11
12.0
 21
9.0
 12
0.0
 22
0.0
 32
0.0
 14
0.0
 24
0.0
 34
0.0
 15
0.0
 25
0.0
 35
0.0
146
0.0
 13
0.0
 23
0.0
 33
0.0
 16
1.0
 26
0.0
 36
0.0
 17
0.0
 27
1.0
 37
0.0
 76
     0
330
23
  0
LAYOUT
  5
22
102
{ACAD_XDICTIONARY
360
1DB9
102
}
102
{ACAD_REACTORS
330
1A
102
}
330
1A
100
AcDbPlotSettings
  1

  2
Ploter HP500
  4
User268
  6

 40
4.995333194732666
 41
16.97565841674804
 42
4.995330810546875
 43
16.97567749023437
 44
209.9733276367187
 45
296.9259948730469
 46
0.0
 47
0.0
 48
0.0
 49
0.0
140
0.0
141
0.0
142
1.0
143
1.0
 70
 11952
 72
     1
 73
     1
 74
     0
  7
sanindusa.ctb
 75
     0
147
1.0
148
-427.5957866592534
149
7.362384574453926
100
AcDbLayout
  1
Model
 70
     1
 71
     0
 10
0.0
 20
0.0
 11
12.0
 21
9.0
 12
0.0
 22
0.0
 32
0.0
 14
0.0
 24
0.0
 34
0.0
 15
0.0
 25
0.0
 35
0.0
146
0.0
 13
0.0
 23
0.0
 33
0.0
 16
1.0
 26
0.0
 36
0.0
 17
0.0
 27
1.0
 37
0.0
 76
     0
330
1F
331
1D3E
  0
MATERIAL
  5
1D4F
102
{ACAD_XDICTIONARY
360
1D50
102
}
102
{ACAD_REACTORS
330
EE5
102
}
330
EE5
100
AcDbMaterial
  1
ByBlock
 72
     0
 43
0.0008202099737533
 43
0.0
 43
0.0
 43
0.0
 43
0.0
 43
0.0008202099737533
 43
0.0
 43
0.0
 43
0.0
 43
0.0
 43
1.0
 43
0.0
 43
0.0
 43
0.0
 43
0.0
 43
1.0
 77
     0
 47
0.0008202099737533
 47
0.0
 47
0.0
 47
0.0
 47
0.0
 47
0.0008202099737533
 47
0.0
 47
0.0
 47
0.0
 47
0.0
 47
1.0
 47
0.0
 47
0.0
 47
0.0
 47
0.0
 47
1.0
171
     0
 49
0.0008202099737533
 49
0.0
 49
0.0
 49
0.0
 49
0.0
 49
0.0008202099737533
 49
0.0
 49
0.0
 49
0.0
 49
0.0
 49
1.0
 49
0.0
 49
0.0
 49
0.0
 49
0.0
 49
1.0
175
     0
142
0.0008202099737533
142
0.0
142
0.0
142
0.0
142
0.0
142
0.0008202099737533
142
0.0
142
0.0
142
0.0
142
0.0
142
1.0
142
0.0
142
0.0
142
0.0
142
0.0
142
1.0
179
     0
144
0.0008202099737533
144
0.0
144
0.0
144
0.0
144
0.0
144
0.0008202099737533
144
0.0
144
0.0
144
0.0
144
0.0
144
1.0
144
0.0
144
0.0
144
0.0
144
0.0
144
1.0
147
0.0008202099737533
147
0.0
147
0.0
147
0.0
147
0.0
147
0.0008202099737533
147
0.0
147
0.0
147
0.0
147
0.0
147
1.0
147
0.0
147
0.0
147
0.0
147
0.0
147
1.0
  0
MATERIAL
  5
1D47
102
{ACAD_XDICTIONARY
360
1D48
102
}
102
{ACAD_REACTORS
330
EE5
102
}
330
EE5
100
AcDbMaterial
  1
ByLayer
 72
     0
 43
0.0008202099737533
 43
0.0
 43
0.0
 43
0.0
 43
0.0
 43
0.0008202099737533
 43
0.0
 43
0.0
 43
0.0
 43
0.0
 43
1.0
 43
0.0
 43
0.0
 43
0.0
 43
0.0
 43
1.0
 77
     0
 47
0.0008202099737533
 47
0.0
 47
0.0
 47
0.0
 47
0.0
 47
0.0008202099737533
 47
0.0
 47
0.0
 47
0.0
 47
0.0
 47
1.0
 47
0.0
 47
0.0
 47
0.0
 47
0.0
 47
1.0
171
     0
 49
0.0008202099737533
 49
0.0
 49
0.0
 49
0.0
 49
0.0
 49
0.0008202099737533
 49
0.0
 49
0.0
 49
0.0
 49
0.0
 49
1.0
 49
0.0
 49
0.0
 49
0.0
 49
0.0
 49
1.0
175
     0
142
0.0008202099737533
142
0.0
142
0.0
142
0.0
142
0.0
142
0.0008202099737533
142
0.0
142
0.0
142
0.0
142
0.0
142
1.0
142
0.0
142
0.0
142
0.0
142
0.0
142
1.0
179
     0
144
0.0008202099737533
144
0.0
144
0.0
144
0.0
144
0.0
144
0.0008202099737533
144
0.0
144
0.0
144
0.0
144
0.0
144
1.0
144
0.0
144
0.0
144
0.0
144
0.0
144
1.0
147
0.0008202099737533
147
0.0
147
0.0
147
0.0
147
0.0
147
0.0008202099737533
147
0.0
147
0.0
147
0.0
147
0.0
147
1.0
147
0.0
147
0.0
147
0.0
147
0.0
147
1.0
  0
MATERIAL
  5
1D57
102
{ACAD_XDICTIONARY
360
1D58
102
}
102
{ACAD_REACTORS
330
EE5
102
}
330
EE5
100
AcDbMaterial
  1
Global
 72
     0
 43
0.0008202099737533
 43
0.0
 43
0.0
 43
0.0
 43
0.0
 43
0.0008202099737533
 43
0.0
 43
0.0
 43
0.0
 43
0.0
 43
1.0
 43
0.0
 43
0.0
 43
0.0
 43
0.0
 43
1.0
 77
     0
 47
0.0008202099737533
 47
0.0
 47
0.0
 47
0.0
 47
0.0
 47
0.0008202099737533
 47
0.0
 47
0.0
 47
0.0
 47
0.0
 47
1.0
 47
0.0
 47
0.0
 47
0.0
 47
0.0
 47
1.0
171
     0
 49
0.0008202099737533
 49
0.0
 49
0.0
 49
0.0
 49
0.0
 49
0.0008202099737533
 49
0.0
 49
0.0
 49
0.0
 49
0.0
 49
1.0
 49
0.0
 49
0.0
 49
0.0
 49
0.0
 49
1.0
175
     0
142
0.0008202099737533
142
0.0
142
0.0
142
0.0
142
0.0
142
0.0008202099737533
142
0.0
142
0.0
142
0.0
142
0.0
142
1.0
142
0.0
142
0.0
142
0.0
142
0.0
142
1.0
179
     0
144
0.0008202099737533
144
0.0
144
0.0
144
0.0
144
0.0
144
0.0008202099737533
144
0.0
144
0.0
144
0.0
144
0.0
144
1.0
144
0.0
144
0.0
144
0.0
144
0.0
144
1.0
147
0.0008202099737533
147
0.0
147
0.0
147
0.0
147
0.0
147
0.0008202099737533
147
0.0
147
0.0
147
0.0
147
0.0
147
1.0
147
0.0
147
0.0
147
0.0
147
0.0
147
1.0
  0
MLEADERSTYLE
  5
1D86
102
{ACAD_REACTORS
330
1D85
102
}
330
1D85
100
AcDbMLeaderStyle
170
     2
171
     1
172
     0
 90
        2
 40
0.0
 41
0.0
173
     1
 91
-1056964608
340
14
 92
       -2
290
     1
 42
2.0
291
     1
 43
0.36
  3
Standard
 44
4.0
300

342
11
174
     1
178
     6
175
     1
176
     0
 93
-1056964608
 45
4.0
292
     0
297
     0
 46
4.0
 94
-1056964608
 47
1.0
 49
1.0
140
1.0
293
     1
141
0.0
294
     1
177
     0
142
1.0
295
     0
296
     0
143
0.125
1001
ACAD_MLEADERVER
1070
     2
  0
MLINESTYLE
  5
18
102
{ACAD_REACTORS
330
17
102
}
330
17
100
AcDbMlineStyle
  2
STANDARD
 70
     0
  3

 62
   256
 51
90.0
 52
90.0
 71
     2
 49
0.5
 62
   256
  6
BYLAYER
 49
-0.5
 62
   256
  6
BYLAYER
  0
ACDBPLACEHOLDER
  5
F
102
{ACAD_REACTORS
330
E
102
}
330
E
  0
SCALE
  5
1D74
102
{ACAD_REACTORS
330
1D73
102
}
330
1D73
100
AcDbScale
 70
     0
300
1:1
140
1.0
141
1.0
290
     1
  0
SCALE
  5
1D75
102
{ACAD_REACTORS
330
1D73
102
}
330
1D73
100
AcDbScale
 70
     0
300
1:2
140
1.0
141
2.0
290
     0
  0
SCALE
  5
1D76
102
{ACAD_REACTORS
330
1D73
102
}
330
1D73
100
AcDbScale
 70
     0
300
1:4
140
1.0
141
4.0
290
     0
  0
SCALE
  5
1D77
102
{ACAD_REACTORS
330
1D73
102
}
330
1D73
100
AcDbScale
 70
     0
300
1:5
140
1.0
141
5.0
290
     0
  0
SCALE
  5
1D78
102
{ACAD_REACTORS
330
1D73
102
}
330
1D73
100
AcDbScale
 70
     0
300
1:8
140
1.0
141
8.0
290
     0
  0
SCALE
  5
1D79
102
{ACAD_REACTORS
330
1D73
102
}
330
1D73
100
AcDbScale
 70
     0
300
1:10
140
1.0
141
10.0
290
     0
  0
SCALE
  5
1D7A
102
{ACAD_REACTORS
330
1D73
102
}
330
1D73
100
AcDbScale
 70
     0
300
1:16
140
1.0
141
16.0
290
     0
  0
SCALE
  5
1D7B
102
{ACAD_REACTORS
330
1D73
102
}
330
1D73
100
AcDbScale
 70
     0
300
1:20
140
1.0
141
20.0
290
     0
  0
SCALE
  5
1D7C
102
{ACAD_REACTORS
330
1D73
102
}
330
1D73
100
AcDbScale
 70
     0
300
1:30
140
1.0
141
30.0
290
     0
  0
SCALE
  5
1D7D
102
{ACAD_REACTORS
330
1D73
102
}
330
1D73
100
AcDbScale
 70
     0
300
1:40
140
1.0
141
40.0
290
     0
  0
SCALE
  5
1D7E
102
{ACAD_REACTORS
330
1D73
102
}
330
1D73
100
AcDbScale
 70
     0
300
1:50
140
1.0
141
50.0
290
     0
  0
SCALE
  5
1D7F
102
{ACAD_REACTORS
330
1D73
102
}
330
1D73
100
AcDbScale
 70
     0
300
1:100
140
1.0
141
100.0
290
     0
  0
SCALE
  5
1D80
102
{ACAD_REACTORS
330
1D73
102
}
330
1D73
100
AcDbScale
 70
     0
300
2:1
140
2.0
141
1.0
290
     0
  0
SCALE
  5
1D81
102
{ACAD_REACTORS
330
1D73
102
}
330
1D73
100
AcDbScale
 70
     0
300
4:1
140
4.0
141
1.0
290
     0
  0
SCALE
  5
1D82
102
{ACAD_REACTORS
330
1D73
102
}
330
1D73
100
AcDbScale
 70
     0
300
8:1
140
8.0
141
1.0
290
     0
  0
SCALE
  5
1D83
102
{ACAD_REACTORS
330
1D73
102
}
330
1D73
100
AcDbScale
 70
     0
300
10:1
140
10.0
141
1.0
290
     0
  0
SCALE
  5
1D84
102
{ACAD_REACTORS
330
1D73
102
}
330
1D73
100
AcDbScale
 70
     0
300
100:1
140
100.0
141
1.0
290
     0
  0
TABLESTYLE
  5
EE8
102
{ACAD_XDICTIONARY
360
1DB1
102
}
102
{ACAD_REACTORS
330
EE7
102
}
330
EE7
100
AcDbTableStyle
  3
Standard
 70
     0
 71
     0
 40
1.5
 41
1.5
280
     0
281
     0
  7
Standard
140
4.5
170
     2
 62
     0
 63
     7
283
     0
274
    -2
284
     1
 64
     0
275
    -2
285
     1
 65
     0
276
    -2
286
     1
 66
     0
277
    -2
287
     1
 67
     0
278
    -2
288
     1
 68
     0
279
    -2
289
     1
 69
     0
  7
Standard
140
6.0
170
     5
 62
     0
 63
     7
283
     0
274
    -2
284
     1
 64
     0
275
    -2
285
     1
 65
     0
276
    -2
286
     1
 66
     0
277
    -2
287
     1
 67
     0
278
    -2
288
     1
 68
     0
279
    -2
289
     1
 69
     0
  7
Standard
140
4.5
170
     5
 62
     0
 63
     7
283
     0
274
    -2
284
     1
 64
     0
275
    -2
285
     1
 65
     0
276
    -2
286
     1
 66
     0
277
    -2
287
     1
 67
     0
278
    -2
288
     1
 68
     0
279
    -2
289
     1
 69
     0
  0
VISUALSTYLE
  5
1D65
102
{ACAD_XDICTIONARY
360
1DDB
102
}
102
{ACAD_REACTORS
330
1D5F
102
}
330
1D5F
100
AcDbVisualStyle
  2
2dWireframe
 70
     4
 71
     0
 72
     2
 73
     0
 90
        0
 40
-0.6
 41
-30.0
 62
     5
 63
     7
 74
     1
 91
        4
 64
     7
 65
   257
 75
     1
175
     1
 42
1.0
 92
        0
 66
   257
 43
1.0
 76
     1
 77
     6
 78
     2
 67
     7
 79
     5
170
     0
171
     0
290
     0
174
     0
 93
        1
 44
0.0
173
     0
291
     0
 45
0.0
1001
ACAD
1000
AcDbSavedByObjectVersion
1070
     0
  0
VISUALSTYLE
  5
1D67
102
{ACAD_XDICTIONARY
360
1DDF
102
}
102
{ACAD_REACTORS
330
1D5F
102
}
330
1D5F
100
AcDbVisualStyle
  2
3D Hidden
 70
     6
 71
     1
 72
     2
 73
     2
 90
        0
 40
-0.6
 41
-30.0
 62
     5
 63
     7
 74
     2
 91
        2
 64
     7
 65
   257
 75
     2
175
     1
 42
179.0
 92
        0
 66
   257
 43
1.0
 76
     1
 77
     6
 78
     2
 67
     7
 79
     3
170
     0
171
     0
290
     0
174
     0
 93
        1
 44
0.0
173
     0
291
     0
 45
0.0
1001
ACAD
1000
AcDbSavedByObjectVersion
1070
     0
  0
VISUALSTYLE
  5
1D66
102
{ACAD_XDICTIONARY
360
1DDD
102
}
102
{ACAD_REACTORS
330
1D5F
102
}
330
1D5F
100
AcDbVisualStyle
  2
3dWireframe
 70
     5
 71
     0
 72
     2
 73
     0
 90
        0
 40
-0.6
 41
-30.0
 62
     5
 63
     7
 74
     1
 91
        4
 64
     7
 65
   257
 75
     1
175
     1
 42
1.0
 92
        0
 66
   257
 43
1.0
 76
     1
 77
     6
 78
     2
 67
     7
 79
     5
170
     0
171
     0
290
     0
174
     0
 93
        1
 44
0.0
173
     0
291
     0
 45
0.0
1001
ACAD
1000
AcDbSavedByObjectVersion
1070
     0
  0
VISUALSTYLE
  5
1D64
102
{ACAD_XDICTIONARY
360
1DD9
102
}
102
{ACAD_REACTORS
330
1D5F
102
}
330
1D5F
100
AcDbVisualStyle
  2
Basic
 70
     7
 71
     1
 72
     0
 73
     1
 90
        0
 40
-0.6
 41
-30.0
 62
     5
 63
     7
 74
     0
 91
        4
 64
     7
 65
   257
 75
     1
175
     1
 42
1.0
 92
        8
 66
     7
 43
1.0
 76
     1
 77
     6
 78
     2
 67
     7
 79
     5
170
     0
171
     0
290
     0
174
     0
 93
        1
 44
0.0
173
     0
291
     1
 45
0.0
1001
ACAD
1000
AcDbSavedByObjectVersion
1070
     0
  0
VISUALSTYLE
  5
1D6B
102
{ACAD_XDICTIONARY
360
1DE7
102
}
102
{ACAD_REACTORS
330
1D5F
102
}
330
1D5F
100
AcDbVisualStyle
  2
Brighten
 70
    12
 71
     2
 72
     2
 73
     0
 90
        0
 40
-0.6
 41
-30.0
 62
     5
 63
     7
 74
     1
 91
        4
 64
     7
 65
   257
 75
     1
175
     1
 42
1.0
 92
        8
 66
     7
 43
1.0
 76
     1
 77
     6
 78
     2
 67
     7
 79
     5
170
     0
171
     0
290
     0
174
     0
 93
        1
 44
50.0
173
     0
291
     1
 45
0.0
1001
ACAD
1000
AcDbSavedByObjectVersion
1070
     0
  0
VISUALSTYLE
  5
1D6F
102
{ACAD_XDICTIONARY
360
1DEF
102
}
102
{ACAD_REACTORS
330
1D5F
102
}
330
1D5F
100
AcDbVisualStyle
  2
ColorChange
 70
    16
 71
     2
 72
     2
 73
     3
 90
        0
 40
-0.6
 41
-30.0
 62
     5
 63
     8
 74
     1
 91
        4
 64
     7
 65
   257
 75
     1
175
     1
 42
1.0
 92
        8
 66
     8
 43
1.0
 76
     1
 77
     6
 78
     2
 67
     7
 79
     5
170
     0
171
     0
290
     0
174
     0
 93
        1
 44
0.0
173
     0
291
     1
 45
0.0
1001
ACAD
1000
AcDbSavedByObjectVersion
1070
     0
  0
VISUALSTYLE
  5
1D68
102
{ACAD_XDICTIONARY
360
1DE1
102
}
102
{ACAD_REACTORS
330
1D5F
102
}
330
1D5F
100
AcDbVisualStyle
  2
Conceptual
 70
     9
 71
     3
 72
     2
 73
     0
 90
        0
 40
-0.6
 41
-30.0
 62
     5
 63
     7
 74
     2
 91
        2
 64
     7
 65
   257
 75
     1
175
     1
 42
179.0
 92
        8
 66
     7
 43
1.0
 76
     1
 77
     6
 78
     2
 67
     7
 79
     3
170
     0
171
     0
290
     0
174
     0
 93
        1
 44
0.0
173
     0
291
     0
 45
0.0
1001
ACAD
1000
AcDbSavedByObjectVersion
1070
     0
  0
VISUALSTYLE
  5
1D6A
102
{ACAD_XDICTIONARY
360
1DE5
102
}
102
{ACAD_REACTORS
330
1D5F
102
}
330
1D5F
100
AcDbVisualStyle
  2
Dim
 70
    11
 71
     2
 72
     2
 73
     0
 90
        0
 40
-0.6
 41
-30.0
 62
     5
 63
     7
 74
     1
 91
        4
 64
     7
 65
   257
 75
     1
175
     1
 42
1.0
 92
        8
 66
     7
 43
1.0
 76
     1
 77
     6
 78
     2
 67
     7
 79
     5
170
     0
171
     0
290
     0
174
     0
 93
        1
 44
-50.0
173
     0
291
     1
 45
0.0
1001
ACAD
1000
AcDbSavedByObjectVersion
1070
     0
  0
VISUALSTYLE
  5
1D72
102
{ACAD_XDICTIONARY
360
1DF5
102
}
102
{ACAD_REACTORS
330
1D5F
102
}
330
1D5F
100
AcDbVisualStyle
  2
EdgeColorOff
 70
    22
 71
     2
 72
     2
 73
     0
 90
        0
 40
-0.6
 41
-30.0
 62
     5
 63
     7
 74
     1
 91
        4
 64
     7
 65
   257
 75
     1
175
     1
 42
1.0
 92
        8
 66
     7
 43
1.0
 76
     1
 77
     6
 78
     2
 67
     7
 79
     5
170
     0
171
     0
290
     0
174
     0
 93
        1
 44
0.0
173
     0
291
     1
 45
0.0
1001
ACAD
1000
AcDbSavedByObjectVersion
1070
     0
  0
VISUALSTYLE
  5
1D6E
102
{ACAD_XDICTIONARY
360
1DED
102
}
102
{ACAD_REACTORS
330
1D5F
102
}
330
1D5F
100
AcDbVisualStyle
  2
Facepattern
 70
    15
 71
     2
 72
     2
 73
     0
 90
        0
 40
-0.6
 41
-30.0
 62
     5
 63
     7
 74
     1
 91
        4
 64
     7
 65
   257
 75
     1
175
     1
 42
1.0
 92
        8
 66
     7
 43
1.0
 76
     1
 77
     6
 78
     2
 67
     7
 79
     5
170
     0
171
     0
290
     0
174
     0
 93
        1
 44
0.0
173
     0
291
     1
 45
0.0
1001
ACAD
1000
AcDbSavedByObjectVersion
1070
     0
  0
VISUALSTYLE
  5
1D60
102
{ACAD_XDICTIONARY
360
1DD1
102
}
102
{ACAD_REACTORS
330
1D5F
102
}
330
1D5F
100
AcDbVisualStyle
  2
Flat
 70
     0
 71
     2
 72
     1
 73
     1
 90
        2
 40
-0.6
 41
30.0
 62
     5
 63
     7
 74
     0
 91
        4
 64
     7
 65
   257
 75
     1
175
     1
 42
1.0
 92
        8
 66
     7
 43
1.0
 76
     1
 77
     6
 78
     2
 67
     7
 79
     5
170
     0
171
     0
290
     0
174
     0
 93
       13
 44
0.0
173
     0
291
     1
 45
0.0
1001
ACAD
1000
AcDbSavedByObjectVersion
1070
     0
  0
VISUALSTYLE
  5
1D61
102
{ACAD_XDICTIONARY
360
1DD3
102
}
102
{ACAD_REACTORS
330
1D5F
102
}
330
1D5F
100
AcDbVisualStyle
  2
FlatWithEdges
 70
     1
 71
     2
 72
     1
 73
     1
 90
        2
 40
-0.6
 41
30.0
 62
     5
 63
     7
 74
     1
 91
        4
 64
     7
 65
   257
 75
     1
175
     1
 42
1.0
 92
        0
 66
   257
 43
1.0
 76
     1
 77
     6
 78
     2
 67
     7
 79
     5
170
     0
171
     0
290
     0
174
     0
 93
       13
 44
0.0
173
     0
291
     1
 45
0.0
1001
ACAD
1000
AcDbSavedByObjectVersion
1070
     0
  0
VISUALSTYLE
  5
1D62
102
{ACAD_XDICTIONARY
360
1DD5
102
}
102
{ACAD_REACTORS
330
1D5F
102
}
330
1D5F
100
AcDbVisualStyle
  2
Gouraud
 70
     2
 71
     2
 72
     2
 73
     1
 90
        2
 40
-0.6
 41
30.0
 62
     5
 63
     7
 74
     0
 91
        4
 64
     7
 65
   257
 75
     1
175
     1
 42
1.0
 92
        0
 66
     7
 43
1.0
 76
     1
 77
     6
 78
     2
 67
     7
 79
     5
170
     0
171
     0
290
     0
174
     0
 93
       13
 44
0.0
173
     0
291
     1
 45
0.0
1001
ACAD
1000
AcDbSavedByObjectVersion
1070
     0
  0
VISUALSTYLE
  5
1D63
102
{ACAD_XDICTIONARY
360
1DD7
102
}
102
{ACAD_REACTORS
330
1D5F
102
}
330
1D5F
100
AcDbVisualStyle
  2
GouraudWithEdges
 70
     3
 71
     2
 72
     2
 73
     1
 90
        2
 40
-0.6
 41
30.0
 62
     5
 63
     7
 74
     1
 91
        4
 64
     7
 65
   257
 75
     1
175
     1
 42
1.0
 92
        0
 66
   257
 43
1.0
 76
     1
 77
     6
 78
     2
 67
     7
 79
     5
170
     0
171
     0
290
     0
174
     0
 93
       13
 44
0.0
173
     0
291
     1
 45
0.0
1001
ACAD
1000
AcDbSavedByObjectVersion
1070
     0
  0
VISUALSTYLE
  5
1D70
102
{ACAD_XDICTIONARY
360
1DF1
102
}
102
{ACAD_REACTORS
330
1D5F
102
}
330
1D5F
100
AcDbVisualStyle
  2
JitterOff
 70
    20
 71
     2
 72
     2
 73
     0
 90
        0
 40
-0.6
 41
-30.0
 62
     5
 63
     7
 74
     1
 91
        4
 64
     7
 65
   257
 75
     1
175
     1
 42
1.0
 92
       10
 66
     7
 43
1.0
 76
     1
 77
     6
 78
     2
 67
     7
 79
     5
170
     0
171
     0
290
     0
174
     0
 93
        1
 44
0.0
173
     0
291
     1
 45
0.0
1001
ACAD
1000
AcDbSavedByObjectVersion
1070
     0
  0
VISUALSTYLE
  5
1D6D
102
{ACAD_XDICTIONARY
360
1DEB
102
}
102
{ACAD_REACTORS
330
1D5F
102
}
330
1D5F
100
AcDbVisualStyle
  2
Linepattern
 70
    14
 71
     2
 72
     2
 73
     0
 90
        0
 40
-0.6
 41
-30.0
 62
     5
 63
     7
 74
     1
 91
        4
 64
     7
 65
   257
 75
     7
175
     7
 42
1.0
 92
        8
 66
     7
 43
1.0
 76
     1
 77
     6
 78
     2
 67
     7
 79
     5
170
     0
171
     0
290
     0
174
     0
 93
        1
 44
0.0
173
     0
291
     1
 45
0.0
1001
ACAD
1000
AcDbSavedByObjectVersion
1070
     0
  0
VISUALSTYLE
  5
1D71
102
{ACAD_XDICTIONARY
360
1DF3
102
}
102
{ACAD_REACTORS
330
1D5F
102
}
330
1D5F
100
AcDbVisualStyle
  2
OverhangOff
 70
    21
 71
     2
 72
     2
 73
     0
 90
        0
 40
-0.6
 41
-30.0
 62
     5
 63
     7
 74
     1
 91
        4
 64
     7
 65
   257
 75
     1
175
     1
 42
1.0
 92
        9
 66
     7
 43
1.0
 76
     1
 77
     6
 78
     2
 67
     7
 79
     5
170
     0
171
     0
290
     0
174
     0
 93
        1
 44
0.0
173
     0
291
     1
 45
0.0
1001
ACAD
1000
AcDbSavedByObjectVersion
1070
     0
  0
VISUALSTYLE
  5
1D69
102
{ACAD_XDICTIONARY
360
1DE3
102
}
102
{ACAD_REACTORS
330
1D5F
102
}
330
1D5F
100
AcDbVisualStyle
  2
Realistic
 70
     8
 71
     2
 72
     2
 73
     0
 90
        0
 40
-0.6
 41
-30.0
 62
     5
 63
     7
 74
     1
 91
        0
 64
     7
 65
   257
 75
     1
175
     1
 42
1.0
 92
        8
 66
     8
 43
1.0
 76
     1
 77
     6
 78
     2
 67
     7
 79
     5
170
     0
171
     0
290
     0
174
     0
 93
       13
 44
0.0
173
     0
291
     0
 45
0.0
1001
ACAD
1000
AcDbSavedByObjectVersion
1070
     0
  0
VISUALSTYLE
  5
1D6C
102
{ACAD_XDICTIONARY
360
1DE9
102
}
102
{ACAD_REACTORS
330
1D5F
102
}
330
1D5F
100
AcDbVisualStyle
  2
Thicken
 70
    13
 71
     2
 72
     2
 73
     0
 90
        0
 40
-0.6
 41
-30.0
 62
     5
 63
     7
 74
     1
 91
        4
 64
     7
 65
   257
 75
     1
175
     1
 42
1.0
 92
       12
 66
     7
 43
1.0
 76
     1
 77
     6
 78
     2
 67
     7
 79
     5
170
     0
171
     0
290
     0
174
     0
 93
        1
 44
0.0
173
     0
291
     1
 45
0.0
1001
ACAD
1000
AcDbSavedByObjectVersion
1070
     0
  0
DICTIONARYVAR
  5
1DAD
102
{ACAD_REACTORS
330
3D
102
}
330
3D
100
DictionaryVariables
280
     0
  1
1:1
  0
DICTIONARYVAR
  5
1DAC
102
{ACAD_REACTORS
330
3D
102
}
330
3D
100
DictionaryVariables
280
     0
  1
STANDARD
  0
DICTIONARYVAR
  5
1049
102
{ACAD_REACTORS
330
3D
102
}
330
3D
100
DictionaryVariables
280
     0
  1
STANDARD
  0
DICTIONARYVAR
  5
3F
102
{ACAD_REACTORS
330
3D
102
}
330
3D
100
DictionaryVariables
280
     0
  1
2
  0
DICTIONARYVAR
  5
3E
102
{ACAD_REACTORS
330
3D
102
}
330
3D
100
DictionaryVariables
280
     0
  1
1
  0
DICTIONARYVAR
  5
1DAF
102
{ACAD_REACTORS
330
3D
102
}
330
3D
100
DictionaryVariables
280
     0
  1
0
  0
DICTIONARYVAR
  5
1D23
102
{ACAD_REACTORS
330
3D
102
}
330
3D
100
DictionaryVariables
280
     0
  1

  0
DICTIONARYVAR
  5
1DAE
102
{ACAD_REACTORS
330
3D
102
}
330
3D
100
DictionaryVariables
280
     0
  1
127
  0
DICTIONARYVAR
  5
1DB0
102
{ACAD_REACTORS
330
3D
102
}
330
3D
100
DictionaryVariables
280
     0
  1
2
  0
XRECORD
  5
E78
102
{ACAD_REACTORS
330
E77
102
}
330
E77
100
AcDbXrecord
280
     1
330
0
330
0
  0
DICTIONARY
  5
1DB7
330
1E
100
AcDbDictionary
280
     1
281
     1
  3
ACAD_XREC_ROUNDTRIP
360
1DB8
  0
DICTIONARY
  5
1DBB
330
26
100
AcDbDictionary
280
     1
281
     1
  3
ACAD_XREC_ROUNDTRIP
360
1DBC
  0
DICTIONARY
  5
1DB9
330
22
100
AcDbDictionary
280
     1
281
     1
  3
ACAD_XREC_ROUNDTRIP
360
1DBA
  0
DICTIONARY
  5
1D50
330
1D4F
100
AcDbDictionary
280
     1
281
     1
  3
ACAD_XREC_ROUNDTRIP
360
1DCF
  3
BUMPTILE
360
1D52
  3
DIFFUSETILE
360
1D51
  3
OPACITYTILE
360
1D55
  3
REFLECTIONTILE
360
1D54
  3
REFRACTIONTILE
360
1D56
  3
SPECULARTILE
360
1D53
  0
DICTIONARY
  5
1D48
330
1D47
100
AcDbDictionary
280
     1
281
     1
  3
ACAD_XREC_ROUNDTRIP
360
1DCE
  3
BUMPTILE
360
1D4A
  3
DIFFUSETILE
360
1D49
  3
OPACITYTILE
360
1D4D
  3
REFLECTIONTILE
360
1D4C
  3
REFRACTIONTILE
360
1D4E
  3
SPECULARTILE
360
1D4B
  0
DICTIONARY
  5
1D58
330
1D57
100
AcDbDictionary
280
     1
281
     1
  3
ACAD_XREC_ROUNDTRIP
360
1DD0
  3
BUMPTILE
360
1D5A
  3
DIFFUSETILE
360
1D59
  3
OPACITYTILE
360
1D5D
  3
REFLECTIONTILE
360
1D5C
  3
REFRACTIONTILE
360
1D5E
  3
SPECULARTILE
360
1D5B
  0
DICTIONARY
  5
1DB1
330
EE8
100
AcDbDictionary
280
     1
281
     1
  3
ACAD_ROUNDTRIP_2008_TABLESTYLE_CELLSTYLEMAP
360
1DB2
  3
ACAD_XREC_ROUNDTRIP
360
1DBD
  0
DICTIONARY
  5
1DDB
330
1D65
100
AcDbDictionary
280
     1
281
     1
  3
ACAD_XREC_ROUNDTRIP
360
1DDC
  0
DICTIONARY
  5
1DDF
330
1D67
100
AcDbDictionary
280
     1
281
     1
  3
ACAD_XREC_ROUNDTRIP
360
1DE0
  0
DICTIONARY
  5
1DDD
330
1D66
100
AcDbDictionary
280
     1
281
     1
  3
ACAD_XREC_ROUNDTRIP
360
1DDE
  0
DICTIONARY
  5
1DD9
330
1D64
100
AcDbDictionary
280
     1
281
     1
  3
ACAD_XREC_ROUNDTRIP
360
1DDA
  0
DICTIONARY
  5
1DE7
330
1D6B
100
AcDbDictionary
280
     1
281
     1
  3
ACAD_XREC_ROUNDTRIP
360
1DE8
  0
DICTIONARY
  5
1DEF
330
1D6F
100
AcDbDictionary
280
     1
281
     1
  3
ACAD_XREC_ROUNDTRIP
360
1DF0
  0
DICTIONARY
  5
1DE1
330
1D68
100
AcDbDictionary
280
     1
281
     1
  3
ACAD_XREC_ROUNDTRIP
360
1DE2
  0
DICTIONARY
  5
1DE5
330
1D6A
100
AcDbDictionary
280
     1
281
     1
  3
ACAD_XREC_ROUNDTRIP
360
1DE6
  0
DICTIONARY
  5
1DF5
330
1D72
100
AcDbDictionary
280
     1
281
     1
  3
ACAD_XREC_ROUNDTRIP
360
1DF6
  0
DICTIONARY
  5
1DED
330
1D6E
100
AcDbDictionary
280
     1
281
     1
  3
ACAD_XREC_ROUNDTRIP
360
1DEE
  0
DICTIONARY
  5
1DD1
330
1D60
100
AcDbDictionary
280
     1
281
     1
  3
ACAD_XREC_ROUNDTRIP
360
1DD2
  0
DICTIONARY
  5
1DD3
330
1D61
100
AcDbDictionary
280
     1
281
     1
  3
ACAD_XREC_ROUNDTRIP
360
1DD4
  0
DICTIONARY
  5
1DD5
330
1D62
100
AcDbDictionary
280
     1
281
     1
  3
ACAD_XREC_ROUNDTRIP
360
1DD6
  0
DICTIONARY
  5
1DD7
330
1D63
100
AcDbDictionary
280
     1
281
     1
  3
ACAD_XREC_ROUNDTRIP
360
1DD8
  0
DICTIONARY
  5
1DF1
330
1D70
100
AcDbDictionary
280
     1
281
     1
  3
ACAD_XREC_ROUNDTRIP
360
1DF2
  0
DICTIONARY
  5
1DEB
330
1D6D
100
AcDbDictionary
280
     1
281
     1
  3
ACAD_XREC_ROUNDTRIP
360
1DEC
  0
DICTIONARY
  5
1DF3
330
1D71
100
AcDbDictionary
280
     1
281
     1
  3
ACAD_XREC_ROUNDTRIP
360
1DF4
  0
DICTIONARY
  5
1DE3
330
1D69
100
AcDbDictionary
280
     1
281
     1
  3
ACAD_XREC_ROUNDTRIP
360
1DE4
  0
DICTIONARY
  5
1DE9
330
1D6C
100
AcDbDictionary
280
     1
281
     1
  3
ACAD_XREC_ROUNDTRIP
360
1DEA
  0
XRECORD
  5
1DB8
102
{ACAD_REACTORS
330
1DB7
102
}
330
1DB7
100
AcDbXrecord
280
     1
102
SHADEPLOT
 70
     0
102
SHADEPLOTRESLEVEL
 70
     2
102
SHADEPLOTCUSTOMDPI
 70
   300
  0
XRECORD
  5
1DBC
102
{ACAD_REACTORS
330
1DBB
102
}
330
1DBB
100
AcDbXrecord
280
     1
102
SHADEPLOT
 70
     0
102
SHADEPLOTRESLEVEL
 70
     2
102
SHADEPLOTCUSTOMDPI
 70
   300
  0
XRECORD
  5
1DBA
102
{ACAD_REACTORS
330
1DB9
102
}
330
1DB9
100
AcDbXrecord
280
     1
102
SHADEPLOT
 70
     0
102
SHADEPLOTRESLEVEL
 70
     2
102
SHADEPLOTCUSTOMDPI
 70
   300
  0
XRECORD
  5
1DCF
102
{ACAD_REACTORS
330
1D50
102
}
330
1D50
100
AcDbXrecord
280
     1
102
MATERIAL
148
0.0
149
0.0
149
0.0
 93
        0
 94
      127
282
     0
 72
     0
 77
     0
171
     0
175
     0
179
     0
273
     0
  0
XRECORD
  5
1D52
102
{ACAD_REACTORS
330
1D50
102
}
330
1D50
100
AcDbXrecord
280
     1
270
     1
271
     1
  0
XRECORD
  5
1D51
102
{ACAD_REACTORS
330
1D50
102
}
330
1D50
100
AcDbXrecord
280
     1
270
     1
271
     1
  0
XRECORD
  5
1D55
102
{ACAD_REACTORS
330
1D50
102
}
330
1D50
100
AcDbXrecord
280
     1
270
     1
271
     1
  0
XRECORD
  5
1D54
102
{ACAD_REACTORS
330
1D50
102
}
330
1D50
100
AcDbXrecord
280
     1
270
     1
271
     1
  0
XRECORD
  5
1D56
102
{ACAD_REACTORS
330
1D50
102
}
330
1D50
100
AcDbXrecord
280
     1
270
     1
271
     1
  0
XRECORD
  5
1D53
102
{ACAD_REACTORS
330
1D50
102
}
330
1D50
100
AcDbXrecord
280
     1
270
     1
271
     1
  0
XRECORD
  5
1DCE
102
{ACAD_REACTORS
330
1D48
102
}
330
1D48
100
AcDbXrecord
280
     1
102
MATERIAL
148
0.0
149
0.0
149
0.0
 93
        0
 94
      127
282
     0
 72
     0
 77
     0
171
     0
175
     0
179
     0
273
     0
  0
XRECORD
  5
1D4A
102
{ACAD_REACTORS
330
1D48
102
}
330
1D48
100
AcDbXrecord
280
     1
270
     1
271
     1
  0
XRECORD
  5
1D49
102
{ACAD_REACTORS
330
1D48
102
}
330
1D48
100
AcDbXrecord
280
     1
270
     1
271
     1
  0
XRECORD
  5
1D4D
102
{ACAD_REACTORS
330
1D48
102
}
330
1D48
100
AcDbXrecord
280
     1
270
     1
271
     1
  0
XRECORD
  5
1D4C
102
{ACAD_REACTORS
330
1D48
102
}
330
1D48
100
AcDbXrecord
280
     1
270
     1
271
     1
  0
XRECORD
  5
1D4E
102
{ACAD_REACTORS
330
1D48
102
}
330
1D48
100
AcDbXrecord
280
     1
270
     1
271
     1
  0
XRECORD
  5
1D4B
102
{ACAD_REACTORS
330
1D48
102
}
330
1D48
100
AcDbXrecord
280
     1
270
     1
271
     1
  0
XRECORD
  5
1DD0
102
{ACAD_REACTORS
330
1D58
102
}
330
1D58
100
AcDbXrecord
280
     1
102
MATERIAL
148
0.0
149
0.0
149
0.0
 93
        0
 94
      127
282
     0
 72
     0
 77
     0
171
     0
175
     0
179
     0
273
     0
  0
XRECORD
  5
1D5A
102
{ACAD_REACTORS
330
1D58
102
}
330
1D58
100
AcDbXrecord
280
     1
270
     1
271
     1
  0
XRECORD
  5
1D59
102
{ACAD_REACTORS
330
1D58
102
}
330
1D58
100
AcDbXrecord
280
     1
270
     1
271
     1
  0
XRECORD
  5
1D5D
102
{ACAD_REACTORS
330
1D58
102
}
330
1D58
100
AcDbXrecord
280
     1
270
     1
271
     1
  0
XRECORD
  5
1D5C
102
{ACAD_REACTORS
330
1D58
102
}
330
1D58
100
AcDbXrecord
280
     1
270
     1
271
     1
  0
XRECORD
  5
1D5E
102
{ACAD_REACTORS
330
1D58
102
}
330
1D58
100
AcDbXrecord
280
     1
270
     1
271
     1
  0
XRECORD
  5
1D5B
102
{ACAD_REACTORS
330
1D58
102
}
330
1D58
100
AcDbXrecord
280
     1
270
     1
271
     1
  0
CELLSTYLEMAP
  5
1DB2
102
{ACAD_REACTORS
330
1DB1
102
}
330
1DB1
100
AcDbCellStyleMap
 90
        3
300
CELLSTYLE
  1
TABLEFORMAT_BEGIN
 90
        5
170
     1
 91
        0
 92
    32768
 62
   257
 93
        1
300
CONTENTFORMAT
  1
CONTENTFORMAT_BEGIN
 90
        0
 91
        0
 92
        4
 93
        0
300

 40
0.0
140
1.0
 94
        5
 62
     0
340
11
144
6.0
309
CONTENTFORMAT_END
171
     1
301
MARGIN
  1
CELLMARGIN_BEGIN
 40
1.5
 40
1.5
 40
1.5
 40
1.5
 40
0.18
 40
0.18
309
CELLMARGIN_END
 94
        6
 95
        1
302
GRIDFORMAT
  1
GRIDFORMAT_BEGIN
 90
        0
 91
        1
 62
     0
 92
       -2
340
0
 93
        0
 40
0.045
309
GRIDFORMAT_END
 95
        2
302
GRIDFORMAT
  1
GRIDFORMAT_BEGIN
 90
        0
 91
        1
 62
     0
 92
       -2
340
0
 93
        0
 40
0.045
309
GRIDFORMAT_END
 95
        4
302
GRIDFORMAT
  1
GRIDFORMAT_BEGIN
 90
        0
 91
        1
 62
     0
 92
       -2
340
0
 93
        0
 40
0.045
309
GRIDFORMAT_END
 95
        8
302
GRIDFORMAT
  1
GRIDFORMAT_BEGIN
 90
        0
 91
        1
 62
     0
 92
       -2
340
0
 93
        0
 40
0.045
309
GRIDFORMAT_END
 95
       16
302
GRIDFORMAT
  1
GRIDFORMAT_BEGIN
 90
        0
 91
        1
 62
     0
 92
       -2
340
0
 93
        0
 40
0.045
309
GRIDFORMAT_END
 95
       32
302
GRIDFORMAT
  1
GRIDFORMAT_BEGIN
 90
        0
 91
        1
 62
     0
 92
       -2
340
0
 93
        0
 40
0.045
309
GRIDFORMAT_END
309
TABLEFORMAT_END
  1
CELLSTYLE_BEGIN
 90
        1
 91
        1
300
_TITLE
309
CELLSTYLE_END
300
CELLSTYLE
  1
TABLEFORMAT_BEGIN
 90
        5
170
     1
 91
        0
 92
        0
 62
   257
 93
        1
300
CONTENTFORMAT
  1
CONTENTFORMAT_BEGIN
 90
        0
 91
        0
 92
        4
 93
        0
300

 40
0.0
140
1.0
 94
        5
 62
     0
340
11
144
4.5
309
CONTENTFORMAT_END
171
     1
301
MARGIN
  1
CELLMARGIN_BEGIN
 40
1.5
 40
1.5
 40
1.5
 40
1.5
 40
0.18
 40
0.18
309
CELLMARGIN_END
 94
        6
 95
        1
302
GRIDFORMAT
  1
GRIDFORMAT_BEGIN
 90
        0
 91
        1
 62
     0
 92
       -2
340
0
 93
        0
 40
0.045
309
GRIDFORMAT_END
 95
        2
302
GRIDFORMAT
  1
GRIDFORMAT_BEGIN
 90
        0
 91
        1
 62
     0
 92
       -2
340
0
 93
        0
 40
0.045
309
GRIDFORMAT_END
 95
        4
302
GRIDFORMAT
  1
GRIDFORMAT_BEGIN
 90
        0
 91
        1
 62
     0
 92
       -2
340
0
 93
        0
 40
0.045
309
GRIDFORMAT_END
 95
        8
302
GRIDFORMAT
  1
GRIDFORMAT_BEGIN
 90
        0
 91
        1
 62
     0
 92
       -2
340
0
 93
        0
 40
0.045
309
GRIDFORMAT_END
 95
       16
302
GRIDFORMAT
  1
GRIDFORMAT_BEGIN
 90
        0
 91
        1
 62
     0
 92
       -2
340
0
 93
        0
 40
0.045
309
GRIDFORMAT_END
 95
       32
302
GRIDFORMAT
  1
GRIDFORMAT_BEGIN
 90
        0
 91
        1
 62
     0
 92
       -2
340
0
 93
        0
 40
0.045
309
GRIDFORMAT_END
309
TABLEFORMAT_END
  1
CELLSTYLE_BEGIN
 90
        2
 91
        1
300
_HEADER
309
CELLSTYLE_END
300
CELLSTYLE
  1
TABLEFORMAT_BEGIN
 90
        5
170
     1
 91
        0
 92
        0
 62
   257
 93
        1
300
CONTENTFORMAT
  1
CONTENTFORMAT_BEGIN
 90
        0
 91
        0
 92
        4
 93
        0
300

 40
0.0
140
1.0
 94
        2
 62
     0
340
11
144
4.5
309
CONTENTFORMAT_END
171
     1
301
MARGIN
  1
CELLMARGIN_BEGIN
 40
1.5
 40
1.5
 40
1.5
 40
1.5
 40
0.18
 40
0.18
309
CELLMARGIN_END
 94
        6
 95
        1
302
GRIDFORMAT
  1
GRIDFORMAT_BEGIN
 90
        0
 91
        1
 62
     0
 92
       -2
340
0
 93
        0
 40
0.045
309
GRIDFORMAT_END
 95
        2
302
GRIDFORMAT
  1
GRIDFORMAT_BEGIN
 90
        0
 91
        1
 62
     0
 92
       -2
340
0
 93
        0
 40
0.045
309
GRIDFORMAT_END
 95
        4
302
GRIDFORMAT
  1
GRIDFORMAT_BEGIN
 90
        0
 91
        1
 62
     0
 92
       -2
340
0
 93
        0
 40
0.045
309
GRIDFORMAT_END
 95
        8
302
GRIDFORMAT
  1
GRIDFORMAT_BEGIN
 90
        0
 91
        1
 62
     0
 92
       -2
340
0
 93
        0
 40
0.045
309
GRIDFORMAT_END
 95
       16
302
GRIDFORMAT
  1
GRIDFORMAT_BEGIN
 90
        0
 91
        1
 62
     0
 92
       -2
340
0
 93
        0
 40
0.045
309
GRIDFORMAT_END
 95
       32
302
GRIDFORMAT
  1
GRIDFORMAT_BEGIN
 90
        0
 91
        1
 62
     0
 92
       -2
340
0
 93
        0
 40
0.045
309
GRIDFORMAT_END
309
TABLEFORMAT_END
  1
CELLSTYLE_BEGIN
 90
        3
 91
        2
300
_DATA
309
CELLSTYLE_END
  0
XRECORD
  5
1DBD
102
{ACAD_REACTORS
330
1DB1
102
}
330
1DB1
100
AcDbXrecord
280
     1
102
ACAD_ROUNDTRIP_PRE2007_TABLESTYLE
 90
        4
 91
        0
  1

 92
        4
 93
        0
  2

 94
        4
 95
        0
  3

  0
XRECORD
  5
1DDC
102
{ACAD_REACTORS
330
1DDB
102
}
330
1DDB
100
AcDbXrecord
280
     1
102
RTVSPropertyOp0
 70
     1
102
RTVSPropertyOp1
 70
     1
102
RTVSPropertyOp2
 70
     1
102
RTVSPropertyOp3
 70
     1
102
RTVSPropertyOp4
 70
     1
102
RTVSPropertyOp5
 70
     1
102
RTVSPropertyOp6
 70
     1
102
RTVSPropertyOp7
 70
     1
102
RTVSPropertyOp8
 70
     1
102
RTVSPropertyOp9
 70
     1
102
RTVSPropertyOp10
 70
     1
102
RTVSPropertyOp11
 70
     1
102
RTVSPropertyOp12
 70
     1
102
RTVSPropertyOp13
 70
     1
102
RTVSPropertyOp14
 70
     1
102
RTVSPropertyOp15
 70
     1
102
RTVSPropertyOp16
 70
     1
102
RTVSPropertyOp17
 70
     1
102
RTVSPropertyOp18
 70
     1
102
RTVSPropertyOp19
 70
     1
102
RTVSPropertyOp20
 70
     1
102
RTVSPropertyOp21
 70
     1
102
RTVSPropertyOp22
 70
     1
102
RTVSPropertyOp23
 70
     1
102
RTVSPropertyOp24
 70
     1
102
RTVSPropertyOp25
 70
     1
102
RTVSPropertyOp26
 70
     1
102
RTVSPropertyOp27
 70
     1
  0
XRECORD
  5
1DE0
102
{ACAD_REACTORS
330
1DDF
102
}
330
1DDF
100
AcDbXrecord
280
     1
102
RTVSPropertyOp0
 70
     1
102
RTVSPropertyOp1
 70
     1
102
RTVSPropertyOp2
 70
     1
102
RTVSPropertyOp3
 70
     1
102
RTVSPropertyOp4
 70
     1
102
RTVSPropertyOp5
 70
     1
102
RTVSPropertyOp6
 70
     1
102
RTVSPropertyOp7
 70
     1
102
RTVSPropertyOp8
 70
     1
102
RTVSPropertyOp9
 70
     1
102
RTVSPropertyOp10
 70
     1
102
RTVSPropertyOp11
 70
     1
102
RTVSPropertyOp12
 70
     1
102
RTVSPropertyOp13
 70
     1
102
RTVSPropertyOp14
 70
     1
102
RTVSPropertyOp15
 70
     1
102
RTVSPropertyOp16
 70
     1
102
RTVSPropertyOp17
 70
     1
102
RTVSPropertyOp18
 70
     1
102
RTVSPropertyOp19
 70
     1
102
RTVSPropertyOp20
 70
     1
102
RTVSPropertyOp21
 70
     1
102
RTVSPropertyOp22
 70
     1
102
RTVSPropertyOp23
 70
     1
102
RTVSPropertyOp24
 70
     1
102
RTVSPropertyOp25
 70
     1
102
RTVSPropertyOp26
 70
     1
102
RTVSPropertyOp27
 70
     1
  0
XRECORD
  5
1DDE
102
{ACAD_REACTORS
330
1DDD
102
}
330
1DDD
100
AcDbXrecord
280
     1
102
RTVSPropertyOp0
 70
     1
102
RTVSPropertyOp1
 70
     1
102
RTVSPropertyOp2
 70
     1
102
RTVSPropertyOp3
 70
     1
102
RTVSPropertyOp4
 70
     1
102
RTVSPropertyOp5
 70
     1
102
RTVSPropertyOp6
 70
     1
102
RTVSPropertyOp7
 70
     1
102
RTVSPropertyOp8
 70
     1
102
RTVSPropertyOp9
 70
     1
102
RTVSPropertyOp10
 70
     1
102
RTVSPropertyOp11
 70
     1
102
RTVSPropertyOp12
 70
     1
102
RTVSPropertyOp13
 70
     1
102
RTVSPropertyOp14
 70
     1
102
RTVSPropertyOp15
 70
     1
102
RTVSPropertyOp16
 70
     1
102
RTVSPropertyOp17
 70
     1
102
RTVSPropertyOp18
 70
     1
102
RTVSPropertyOp19
 70
     1
102
RTVSPropertyOp20
 70
     1
102
RTVSPropertyOp21
 70
     1
102
RTVSPropertyOp22
 70
     1
102
RTVSPropertyOp23
 70
     1
102
RTVSPropertyOp24
 70
     1
102
RTVSPropertyOp25
 70
     1
102
RTVSPropertyOp26
 70
     1
102
RTVSPropertyOp27
 70
     1
  0
XRECORD
  5
1DDA
102
{ACAD_REACTORS
330
1DD9
102
}
330
1DD9
100
AcDbXrecord
280
     1
102
RTVSPropertyOp0
 70
     1
102
RTVSPropertyOp1
 70
     1
102
RTVSPropertyOp2
 70
     1
102
RTVSPropertyOp3
 70
     1
102
RTVSPropertyOp4
 70
     1
102
RTVSPropertyOp5
 70
     1
102
RTVSPropertyOp6
 70
     1
102
RTVSPropertyOp7
 70
     1
102
RTVSPropertyOp8
 70
     1
102
RTVSPropertyOp9
 70
     1
102
RTVSPropertyOp10
 70
     1
102
RTVSPropertyOp11
 70
     1
102
RTVSPropertyOp12
 70
     1
102
RTVSPropertyOp13
 70
     1
102
RTVSPropertyOp14
 70
     1
102
RTVSPropertyOp15
 70
     1
102
RTVSPropertyOp16
 70
     1
102
RTVSPropertyOp17
 70
     1
102
RTVSPropertyOp18
 70
     1
102
RTVSPropertyOp19
 70
     1
102
RTVSPropertyOp20
 70
     1
102
RTVSPropertyOp21
 70
     1
102
RTVSPropertyOp22
 70
     1
102
RTVSPropertyOp23
 70
     1
102
RTVSPropertyOp24
 70
     1
102
RTVSPropertyOp25
 70
     1
102
RTVSPropertyOp26
 70
     1
102
RTVSPropertyOp27
 70
     1
  0
XRECORD
  5
1DE8
102
{ACAD_REACTORS
330
1DE7
102
}
330
1DE7
100
AcDbXrecord
280
     1
102
RTVSPropertyOp0
 70
     1
102
RTVSPropertyOp1
 70
     1
102
RTVSPropertyOp2
 70
     1
102
RTVSPropertyOp3
 70
     1
102
RTVSPropertyOp4
 70
     1
102
RTVSPropertyOp5
 70
     1
102
RTVSPropertyOp6
 70
     1
102
RTVSPropertyOp7
 70
     1
102
RTVSPropertyOp8
 70
     1
102
RTVSPropertyOp9
 70
     1
102
RTVSPropertyOp10
 70
     1
102
RTVSPropertyOp11
 70
     1
102
RTVSPropertyOp12
 70
     1
102
RTVSPropertyOp13
 70
     1
102
RTVSPropertyOp14
 70
     1
102
RTVSPropertyOp15
 70
     1
102
RTVSPropertyOp16
 70
     1
102
RTVSPropertyOp17
 70
     1
102
RTVSPropertyOp18
 70
     1
102
RTVSPropertyOp19
 70
     1
102
RTVSPropertyOp20
 70
     1
102
RTVSPropertyOp21
 70
     1
102
RTVSPropertyOp22
 70
     1
102
RTVSPropertyOp23
 70
     1
102
RTVSPropertyOp24
 70
     1
102
RTVSPropertyOp25
 70
     1
102
RTVSPropertyOp26
 70
     1
102
RTVSPropertyOp27
 70
     1
  0
XRECORD
  5
1DF0
102
{ACAD_REACTORS
330
1DEF
102
}
330
1DEF
100
AcDbXrecord
280
     1
102
RTVSPropertyOp0
 70
     1
102
RTVSPropertyOp1
 70
     1
102
RTVSPropertyOp2
 70
     1
102
RTVSPropertyOp3
 70
     1
102
RTVSPropertyOp4
 70
     1
102
RTVSPropertyOp5
 70
     1
102
RTVSPropertyOp6
 70
     1
102
RTVSPropertyOp7
 70
     1
102
RTVSPropertyOp8
 70
     1
102
RTVSPropertyOp9
 70
     1
102
RTVSPropertyOp10
 70
     1
102
RTVSPropertyOp11
 70
     1
102
RTVSPropertyOp12
 70
     1
102
RTVSPropertyOp13
 70
     1
102
RTVSPropertyOp14
 70
     1
102
RTVSPropertyOp15
 70
     1
102
RTVSPropertyOp16
 70
     1
102
RTVSPropertyOp17
 70
     1
102
RTVSPropertyOp18
 70
     1
102
RTVSPropertyOp19
 70
     1
102
RTVSPropertyOp20
 70
     1
102
RTVSPropertyOp21
 70
     1
102
RTVSPropertyOp22
 70
     1
102
RTVSPropertyOp23
 70
     1
102
RTVSPropertyOp24
 70
     1
102
RTVSPropertyOp25
 70
     1
102
RTVSPropertyOp26
 70
     1
102
RTVSPropertyOp27
 70
     1
  0
XRECORD
  5
1DE2
102
{ACAD_REACTORS
330
1DE1
102
}
330
1DE1
100
AcDbXrecord
280
     1
102
RTVSPropertyOp0
 70
     1
102
RTVSPropertyOp1
 70
     1
102
RTVSPropertyOp2
 70
     1
102
RTVSPropertyOp3
 70
     1
102
RTVSPropertyOp4
 70
     1
102
RTVSPropertyOp5
 70
     1
102
RTVSPropertyOp6
 70
     1
102
RTVSPropertyOp7
 70
     1
102
RTVSPropertyOp8
 70
     1
102
RTVSPropertyOp9
 70
     1
102
RTVSPropertyOp10
 70
     1
102
RTVSPropertyOp11
 70
     1
102
RTVSPropertyOp12
 70
     1
102
RTVSPropertyOp13
 70
     1
102
RTVSPropertyOp14
 70
     1
102
RTVSPropertyOp15
 70
     1
102
RTVSPropertyOp16
 70
     1
102
RTVSPropertyOp17
 70
     1
102
RTVSPropertyOp18
 70
     1
102
RTVSPropertyOp19
 70
     1
102
RTVSPropertyOp20
 70
     1
102
RTVSPropertyOp21
 70
     1
102
RTVSPropertyOp22
 70
     1
102
RTVSPropertyOp23
 70
     1
102
RTVSPropertyOp24
 70
     1
102
RTVSPropertyOp25
 70
     1
102
RTVSPropertyOp26
 70
     1
102
RTVSPropertyOp27
 70
     1
  0
XRECORD
  5
1DE6
102
{ACAD_REACTORS
330
1DE5
102
}
330
1DE5
100
AcDbXrecord
280
     1
102
RTVSPropertyOp0
 70
     1
102
RTVSPropertyOp1
 70
     1
102
RTVSPropertyOp2
 70
     1
102
RTVSPropertyOp3
 70
     1
102
RTVSPropertyOp4
 70
     1
102
RTVSPropertyOp5
 70
     1
102
RTVSPropertyOp6
 70
     1
102
RTVSPropertyOp7
 70
     1
102
RTVSPropertyOp8
 70
     1
102
RTVSPropertyOp9
 70
     1
102
RTVSPropertyOp10
 70
     1
102
RTVSPropertyOp11
 70
     1
102
RTVSPropertyOp12
 70
     1
102
RTVSPropertyOp13
 70
     1
102
RTVSPropertyOp14
 70
     1
102
RTVSPropertyOp15
 70
     1
102
RTVSPropertyOp16
 70
     1
102
RTVSPropertyOp17
 70
     1
102
RTVSPropertyOp18
 70
     1
102
RTVSPropertyOp19
 70
     1
102
RTVSPropertyOp20
 70
     1
102
RTVSPropertyOp21
 70
     1
102
RTVSPropertyOp22
 70
     1
102
RTVSPropertyOp23
 70
     1
102
RTVSPropertyOp24
 70
     1
102
RTVSPropertyOp25
 70
     1
102
RTVSPropertyOp26
 70
     1
102
RTVSPropertyOp27
 70
     1
  0
XRECORD
  5
1DF6
102
{ACAD_REACTORS
330
1DF5
102
}
330
1DF5
100
AcDbXrecord
280
     1
102
RTVSPropertyOp0
 70
     0
102
RTVSPropertyOp1
 70
     0
102
RTVSPropertyOp2
 70
     0
102
RTVSPropertyOp3
 70
     0
102
RTVSPropertyOp4
 70
     0
102
RTVSPropertyOp5
 70
     0
102
RTVSPropertyOp6
 70
     0
102
RTVSPropertyOp7
 70
     0
102
RTVSPropertyOp8
 70
     0
102
RTVSPropertyOp9
 70
     0
102
RTVSPropertyOp10
 70
     0
102
RTVSPropertyOp11
 70
     0
102
RTVSPropertyOp12
 70
     0
102
RTVSPropertyOp13
 70
     0
102
RTVSPropertyOp14
 70
     2
102
RTVSPropertyOp15
 70
     0
102
RTVSPropertyOp16
 70
     0
102
RTVSPropertyOp17
 70
     0
102
RTVSPropertyOp18
 70
     0
102
RTVSPropertyOp19
 70
     0
102
RTVSPropertyOp20
 70
     0
102
RTVSPropertyOp21
 70
     0
102
RTVSPropertyOp22
 70
     0
102
RTVSPropertyOp23
 70
     0
102
RTVSPropertyOp24
 70
     0
102
RTVSPropertyOp25
 70
     0
102
RTVSPropertyOp26
 70
     0
102
RTVSPropertyOp27
 70
     0
  0
XRECORD
  5
1DEE
102
{ACAD_REACTORS
330
1DED
102
}
330
1DED
100
AcDbXrecord
280
     1
102
RTVSPropertyOp0
 70
     1
102
RTVSPropertyOp1
 70
     1
102
RTVSPropertyOp2
 70
     1
102
RTVSPropertyOp3
 70
     1
102
RTVSPropertyOp4
 70
     1
102
RTVSPropertyOp5
 70
     1
102
RTVSPropertyOp6
 70
     1
102
RTVSPropertyOp7
 70
     1
102
RTVSPropertyOp8
 70
     1
102
RTVSPropertyOp9
 70
     1
102
RTVSPropertyOp10
 70
     1
102
RTVSPropertyOp11
 70
     1
102
RTVSPropertyOp12
 70
     1
102
RTVSPropertyOp13
 70
     1
102
RTVSPropertyOp14
 70
     1
102
RTVSPropertyOp15
 70
     1
102
RTVSPropertyOp16
 70
     1
102
RTVSPropertyOp17
 70
     1
102
RTVSPropertyOp18
 70
     1
102
RTVSPropertyOp19
 70
     1
102
RTVSPropertyOp20
 70
     1
102
RTVSPropertyOp21
 70
     1
102
RTVSPropertyOp22
 70
     1
102
RTVSPropertyOp23
 70
     1
102
RTVSPropertyOp24
 70
     1
102
RTVSPropertyOp25
 70
     1
102
RTVSPropertyOp26
 70
     1
102
RTVSPropertyOp27
 70
     1
  0
XRECORD
  5
1DD2
102
{ACAD_REACTORS
330
1DD1
102
}
330
1DD1
100
AcDbXrecord
280
     1
102
RTVSPropertyOp0
 70
     1
102
RTVSPropertyOp1
 70
     1
102
RTVSPropertyOp2
 70
     1
102
RTVSPropertyOp3
 70
     1
102
RTVSPropertyOp4
 70
     1
102
RTVSPropertyOp5
 70
     1
102
RTVSPropertyOp6
 70
     1
102
RTVSPropertyOp7
 70
     1
102
RTVSPropertyOp8
 70
     1
102
RTVSPropertyOp9
 70
     1
102
RTVSPropertyOp10
 70
     1
102
RTVSPropertyOp11
 70
     1
102
RTVSPropertyOp12
 70
     1
102
RTVSPropertyOp13
 70
     1
102
RTVSPropertyOp14
 70
     1
102
RTVSPropertyOp15
 70
     1
102
RTVSPropertyOp16
 70
     1
102
RTVSPropertyOp17
 70
     1
102
RTVSPropertyOp18
 70
     1
102
RTVSPropertyOp19
 70
     1
102
RTVSPropertyOp20
 70
     1
102
RTVSPropertyOp21
 70
     1
102
RTVSPropertyOp22
 70
     1
102
RTVSPropertyOp23
 70
     1
102
RTVSPropertyOp24
 70
     1
102
RTVSPropertyOp25
 70
     1
102
RTVSPropertyOp26
 70
     1
102
RTVSPropertyOp27
 70
     1
  0
XRECORD
  5
1DD4
102
{ACAD_REACTORS
330
1DD3
102
}
330
1DD3
100
AcDbXrecord
280
     1
102
RTVSPropertyOp0
 70
     1
102
RTVSPropertyOp1
 70
     1
102
RTVSPropertyOp2
 70
     1
102
RTVSPropertyOp3
 70
     1
102
RTVSPropertyOp4
 70
     1
102
RTVSPropertyOp5
 70
     1
102
RTVSPropertyOp6
 70
     1
102
RTVSPropertyOp7
 70
     1
102
RTVSPropertyOp8
 70
     1
102
RTVSPropertyOp9
 70
     1
102
RTVSPropertyOp10
 70
     1
102
RTVSPropertyOp11
 70
     1
102
RTVSPropertyOp12
 70
     1
102
RTVSPropertyOp13
 70
     1
102
RTVSPropertyOp14
 70
     1
102
RTVSPropertyOp15
 70
     1
102
RTVSPropertyOp16
 70
     1
102
RTVSPropertyOp17
 70
     1
102
RTVSPropertyOp18
 70
     1
102
RTVSPropertyOp19
 70
     1
102
RTVSPropertyOp20
 70
     1
102
RTVSPropertyOp21
 70
     1
102
RTVSPropertyOp22
 70
     1
102
RTVSPropertyOp23
 70
     1
102
RTVSPropertyOp24
 70
     1
102
RTVSPropertyOp25
 70
     1
102
RTVSPropertyOp26
 70
     1
102
RTVSPropertyOp27
 70
     1
  0
XRECORD
  5
1DD6
102
{ACAD_REACTORS
330
1DD5
102
}
330
1DD5
100
AcDbXrecord
280
     1
102
RTVSPropertyOp0
 70
     1
102
RTVSPropertyOp1
 70
     1
102
RTVSPropertyOp2
 70
     1
102
RTVSPropertyOp3
 70
     1
102
RTVSPropertyOp4
 70
     1
102
RTVSPropertyOp5
 70
     1
102
RTVSPropertyOp6
 70
     1
102
RTVSPropertyOp7
 70
     1
102
RTVSPropertyOp8
 70
     1
102
RTVSPropertyOp9
 70
     1
102
RTVSPropertyOp10
 70
     1
102
RTVSPropertyOp11
 70
     1
102
RTVSPropertyOp12
 70
     1
102
RTVSPropertyOp13
 70
     1
102
RTVSPropertyOp14
 70
     1
102
RTVSPropertyOp15
 70
     1
102
RTVSPropertyOp16
 70
     1
102
RTVSPropertyOp17
 70
     1
102
RTVSPropertyOp18
 70
     1
102
RTVSPropertyOp19
 70
     1
102
RTVSPropertyOp20
 70
     1
102
RTVSPropertyOp21
 70
     1
102
RTVSPropertyOp22
 70
     1
102
RTVSPropertyOp23
 70
     1
102
RTVSPropertyOp24
 70
     1
102
RTVSPropertyOp25
 70
     1
102
RTVSPropertyOp26
 70
     1
102
RTVSPropertyOp27
 70
     1
  0
XRECORD
  5
1DD8
102
{ACAD_REACTORS
330
1DD7
102
}
330
1DD7
100
AcDbXrecord
280
     1
102
RTVSPropertyOp0
 70
     1
102
RTVSPropertyOp1
 70
     1
102
RTVSPropertyOp2
 70
     1
102
RTVSPropertyOp3
 70
     1
102
RTVSPropertyOp4
 70
     1
102
RTVSPropertyOp5
 70
     1
102
RTVSPropertyOp6
 70
     1
102
RTVSPropertyOp7
 70
     1
102
RTVSPropertyOp8
 70
     1
102
RTVSPropertyOp9
 70
     1
102
RTVSPropertyOp10
 70
     1
102
RTVSPropertyOp11
 70
     1
102
RTVSPropertyOp12
 70
     1
102
RTVSPropertyOp13
 70
     1
102
RTVSPropertyOp14
 70
     1
102
RTVSPropertyOp15
 70
     1
102
RTVSPropertyOp16
 70
     1
102
RTVSPropertyOp17
 70
     1
102
RTVSPropertyOp18
 70
     1
102
RTVSPropertyOp19
 70
     1
102
RTVSPropertyOp20
 70
     1
102
RTVSPropertyOp21
 70
     1
102
RTVSPropertyOp22
 70
     1
102
RTVSPropertyOp23
 70
     1
102
RTVSPropertyOp24
 70
     1
102
RTVSPropertyOp25
 70
     1
102
RTVSPropertyOp26
 70
     1
102
RTVSPropertyOp27
 70
     1
  0
XRECORD
  5
1DF2
102
{ACAD_REACTORS
330
1DF1
102
}
330
1DF1
100
AcDbXrecord
280
     1
102
RTVSPropertyOp0
 70
     0
102
RTVSPropertyOp1
 70
     0
102
RTVSPropertyOp2
 70
     0
102
RTVSPropertyOp3
 70
     0
102
RTVSPropertyOp4
 70
     0
102
RTVSPropertyOp5
 70
     0
102
RTVSPropertyOp6
 70
     0
102
RTVSPropertyOp7
 70
     0
102
RTVSPropertyOp8
 70
     0
102
RTVSPropertyOp9
 70
     0
102
RTVSPropertyOp10
 70
     0
102
RTVSPropertyOp11
 70
     0
102
RTVSPropertyOp12
 70
     0
102
RTVSPropertyOp13
 70
     0
102
RTVSPropertyOp14
 70
     2
102
RTVSPropertyOp15
 70
     0
102
RTVSPropertyOp16
 70
     0
102
RTVSPropertyOp17
 70
     0
102
RTVSPropertyOp18
 70
     0
102
RTVSPropertyOp19
 70
     0
102
RTVSPropertyOp20
 70
     0
102
RTVSPropertyOp21
 70
     0
102
RTVSPropertyOp22
 70
     0
102
RTVSPropertyOp23
 70
     0
102
RTVSPropertyOp24
 70
     0
102
RTVSPropertyOp25
 70
     0
102
RTVSPropertyOp26
 70
     0
102
RTVSPropertyOp27
 70
     0
  0
XRECORD
  5
1DEC
102
{ACAD_REACTORS
330
1DEB
102
}
330
1DEB
100
AcDbXrecord
280
     1
102
RTVSPropertyOp0
 70
     1
102
RTVSPropertyOp1
 70
     1
102
RTVSPropertyOp2
 70
     1
102
RTVSPropertyOp3
 70
     1
102
RTVSPropertyOp4
 70
     1
102
RTVSPropertyOp5
 70
     1
102
RTVSPropertyOp6
 70
     1
102
RTVSPropertyOp7
 70
     1
102
RTVSPropertyOp8
 70
     1
102
RTVSPropertyOp9
 70
     1
102
RTVSPropertyOp10
 70
     1
102
RTVSPropertyOp11
 70
     1
102
RTVSPropertyOp12
 70
     1
102
RTVSPropertyOp13
 70
     1
102
RTVSPropertyOp14
 70
     1
102
RTVSPropertyOp15
 70
     1
102
RTVSPropertyOp16
 70
     1
102
RTVSPropertyOp17
 70
     1
102
RTVSPropertyOp18
 70
     1
102
RTVSPropertyOp19
 70
     1
102
RTVSPropertyOp20
 70
     1
102
RTVSPropertyOp21
 70
     1
102
RTVSPropertyOp22
 70
     1
102
RTVSPropertyOp23
 70
     1
102
RTVSPropertyOp24
 70
     1
102
RTVSPropertyOp25
 70
     1
102
RTVSPropertyOp26
 70
     1
102
RTVSPropertyOp27
 70
     1
  0
XRECORD
  5
1DF4
102
{ACAD_REACTORS
330
1DF3
102
}
330
1DF3
100
AcDbXrecord
280
     1
102
RTVSPropertyOp0
 70
     0
102
RTVSPropertyOp1
 70
     0
102
RTVSPropertyOp2
 70
     0
102
RTVSPropertyOp3
 70
     0
102
RTVSPropertyOp4
 70
     0
102
RTVSPropertyOp5
 70
     0
102
RTVSPropertyOp6
 70
     0
102
RTVSPropertyOp7
 70
     0
102
RTVSPropertyOp8
 70
     0
102
RTVSPropertyOp9
 70
     0
102
RTVSPropertyOp10
 70
     0
102
RTVSPropertyOp11
 70
     0
102
RTVSPropertyOp12
 70
     0
102
RTVSPropertyOp13
 70
     0
102
RTVSPropertyOp14
 70
     2
102
RTVSPropertyOp15
 70
     0
102
RTVSPropertyOp16
 70
     0
102
RTVSPropertyOp17
 70
     0
102
RTVSPropertyOp18
 70
     0
102
RTVSPropertyOp19
 70
     0
102
RTVSPropertyOp20
 70
     0
102
RTVSPropertyOp21
 70
     0
102
RTVSPropertyOp22
 70
     0
102
RTVSPropertyOp23
 70
     0
102
RTVSPropertyOp24
 70
     0
102
RTVSPropertyOp25
 70
     0
102
RTVSPropertyOp26
 70
     0
102
RTVSPropertyOp27
 70
     0
  0
XRECORD
  5
1DE4
102
{ACAD_REACTORS
330
1DE3
102
}
330
1DE3
100
AcDbXrecord
280
     1
102
RTVSPropertyOp0
 70
     1
102
RTVSPropertyOp1
 70
     1
102
RTVSPropertyOp2
 70
     1
102
RTVSPropertyOp3
 70
     1
102
RTVSPropertyOp4
 70
     1
102
RTVSPropertyOp5
 70
     1
102
RTVSPropertyOp6
 70
     1
102
RTVSPropertyOp7
 70
     1
102
RTVSPropertyOp8
 70
     1
102
RTVSPropertyOp9
 70
     1
102
RTVSPropertyOp10
 70
     1
102
RTVSPropertyOp11
 70
     1
102
RTVSPropertyOp12
 70
     1
102
RTVSPropertyOp13
 70
     1
102
RTVSPropertyOp14
 70
     1
102
RTVSPropertyOp15
 70
     1
102
RTVSPropertyOp16
 70
     1
102
RTVSPropertyOp17
 70
     1
102
RTVSPropertyOp18
 70
     1
102
RTVSPropertyOp19
 70
     1
102
RTVSPropertyOp20
 70
     1
102
RTVSPropertyOp21
 70
     1
102
RTVSPropertyOp22
 70
     1
102
RTVSPropertyOp23
 70
     1
102
RTVSPropertyOp24
 70
     1
102
RTVSPropertyOp25
 70
     1
102
RTVSPropertyOp26
 70
     1
102
RTVSPropertyOp27
 70
     1
  0
XRECORD
  5
1DEA
102
{ACAD_REACTORS
330
1DE9
102
}
330
1DE9
100
AcDbXrecord
280
     1
102
RTVSPropertyOp0
 70
     1
102
RTVSPropertyOp1
 70
     1
102
RTVSPropertyOp2
 70
     1
102
RTVSPropertyOp3
 70
     1
102
RTVSPropertyOp4
 70
     1
102
RTVSPropertyOp5
 70
     1
102
RTVSPropertyOp6
 70
     1
102
RTVSPropertyOp7
 70
     1
102
RTVSPropertyOp8
 70
     1
102
RTVSPropertyOp9
 70
     1
102
RTVSPropertyOp10
 70
     1
102
RTVSPropertyOp11
 70
     1
102
RTVSPropertyOp12
 70
     1
102
RTVSPropertyOp13
 70
     1
102
RTVSPropertyOp14
 70
     1
102
RTVSPropertyOp15
 70
     1
102
RTVSPropertyOp16
 70
     1
102
RTVSPropertyOp17
 70
     1
102
RTVSPropertyOp18
 70
     1
102
RTVSPropertyOp19
 70
     1
102
RTVSPropertyOp20
 70
     1
102
RTVSPropertyOp21
 70
     1
102
RTVSPropertyOp22
 70
     1
102
RTVSPropertyOp23
 70
     1
102
RTVSPropertyOp24
 70
     1
102
RTVSPropertyOp25
 70
     1
102
RTVSPropertyOp26
 70
     1
102
RTVSPropertyOp27
 70
     1
  0
ENDSEC
  0
EOF
